  0
SECTION
  2
HEADER
  9
$ACADVER
  1
AC1014
  9
$ACADMAINTVER
 70
     9
  9
$DWGCODEPAGE
  3
ANSI_932
  9
$INSBASE
 10
0.0
 20
0.0
 30
0.0
  9
$EXTMIN
 10
54.08579109787161
 20
38.28515698607679
 30
-0.0015258207003583
  9
$EXTMAX
 10
698.0453868817384
 20
295.0603644587802
 30
0.0000000349246037
  9
$LIMMIN
 10
0.0
 20
0.0
  9
$LIMMAX
 10
420.0
 20
297.0
  9
$ORTHOMODE
 70
     0
  9
$REGENMODE
 70
     1
  9
$FILLMODE
 70
     1
  9
$QTEXTMODE
 70
     0
  9
$MIRRTEXT
 70
     1
  9
$DRAGMODE
 70
     2
  9
$LTSCALE
 40
1.0
  9
$OSMODE
 70
  2983
  9
$ATTMODE
 70
     1
  9
$TEXTSIZE
 40
2.5
  9
$TRACEWID
 40
1.0
  9
$TEXTSTYLE
  7
STANDARD
  9
$CLAYER
  8
0
  9
$CELTYPE
  6
BYLAYER
  9
$CECOLOR
 62
   256
  9
$CELTSCALE
 40
1.0
  9
$DELOBJ
 70
     1
  9
$DISPSILH
 70
     0
  9
$DIMSCALE
 40
1.0
  9
$DIMASZ
 40
2.5
  9
$DIMEXO
 40
0.625
  9
$DIMDLI
 40
3.75
  9
$DIMRND
 40
0.0
  9
$DIMDLE
 40
0.0
  9
$DIMEXE
 40
1.25
  9
$DIMTP
 40
0.0
  9
$DIMTM
 40
0.0
  9
$DIMTXT
 40
2.5
  9
$DIMCEN
 40
2.5
  9
$DIMTSZ
 40
0.0
  9
$DIMTOL
 70
     0
  9
$DIMLIM
 70
     0
  9
$DIMTIH
 70
     0
  9
$DIMTOH
 70
     0
  9
$DIMSE1
 70
     0
  9
$DIMSE2
 70
     0
  9
$DIMTAD
 70
     1
  9
$DIMZIN
 70
     8
  9
$DIMBLK
  1

  9
$DIMASO
 70
     1
  9
$DIMSHO
 70
     1
  9
$DIMPOST
  1

  9
$DIMAPOST
  1

  9
$DIMALT
 70
     0
  9
$DIMALTD
 70
     3
  9
$DIMALTF
 40
0.03937007874016
  9
$DIMLFAC
 40
1.0
  9
$DIMTOFL
 70
     1
  9
$DIMTVP
 40
0.0
  9
$DIMTIX
 70
     0
  9
$DIMSOXD
 70
     0
  9
$DIMSAH
 70
     0
  9
$DIMBLK1
  1

  9
$DIMBLK2
  1

  9
$DIMSTYLE
  2
ISO-25
  9
$DIMCLRD
 70
     0
  9
$DIMCLRE
 70
     0
  9
$DIMCLRT
 70
     0
  9
$DIMTFAC
 40
1.0
  9
$DIMGAP
 40
0.625
  9
$DIMJUST
 70
     0
  9
$DIMSD1
 70
     0
  9
$DIMSD2
 70
     0
  9
$DIMTOLJ
 70
     0
  9
$DIMTZIN
 70
     8
  9
$DIMALTZ
 70
     0
  9
$DIMALTTZ
 70
     0
  9
$DIMFIT
 70
     3
  9
$DIMUPT
 70
     0
  9
$DIMUNIT
 70
     2
  9
$DIMDEC
 70
     2
  9
$DIMTDEC
 70
     2
  9
$DIMALTU
 70
     2
  9
$DIMALTTD
 70
     3
  9
$DIMTXSTY
  7
STANDARD
  9
$DIMAUNIT
 70
     0
  9
$LUNITS
 70
     2
  9
$LUPREC
 70
     2
  9
$SKETCHINC
 40
1.0
  9
$FILLETRAD
 40
10.0
  9
$AUNITS
 70
     0
  9
$AUPREC
 70
     0
  9
$MENU
  1
.
  9
$ELEVATION
 40
0.0
  9
$PELEVATION
 40
0.0
  9
$THICKNESS
 40
0.0
  9
$LIMCHECK
 70
     0
  9
$BLIPMODE
 70
     0
  9
$CHAMFERA
 40
10.0
  9
$CHAMFERB
 40
10.0
  9
$CHAMFERC
 40
20.0
  9
$CHAMFERD
 40
0.0
  9
$SKPOLY
 70
     0
  9
$TDCREATE
 40
2454596.550355717
  9
$TDUPDATE
 40
2454890.441918761
  9
$TDINDWG
 40
0.0659787500
  9
$TDUSRTIMER
 40
0.0659781944
  9
$USRTIMER
 70
     1
  9
$ANGBASE
 50
0.0
  9
$ANGDIR
 70
     0
  9
$PDMODE
 70
     0
  9
$PDSIZE
 40
0.0
  9
$PLINEWID
 40
0.0
  9
$COORDS
 70
     0
  9
$SPLFRAME
 70
     0
  9
$SPLINETYPE
 70
     6
  9
$SPLINESEGS
 70
     8
  9
$ATTDIA
 70
     0
  9
$ATTREQ
 70
     1
  9
$HANDLING
 70
 22529
  9
$HANDSEED
  5
1209
  9
$SURFTAB1
 70
     6
  9
$SURFTAB2
 70
     6
  9
$SURFTYPE
 70
     6
  9
$SURFU
 70
     6
  9
$SURFV
 70
     6
  9
$UCSNAME
  2

  9
$UCSORG
 10
0.0
 20
0.0
 30
0.0
  9
$UCSXDIR
 10
1.0
 20
0.0
 30
0.0
  9
$UCSYDIR
 10
0.0
 20
1.0
 30
0.0
  9
$PUCSNAME
  2

  9
$PUCSORG
 10
0.0
 20
0.0
 30
0.0
  9
$PUCSXDIR
 10
1.0
 20
0.0
 30
0.0
  9
$PUCSYDIR
 10
0.0
 20
1.0
 30
0.0
  9
$USERI1
 70
     0
  9
$USERI2
 70
     0
  9
$USERI3
 70
     0
  9
$USERI4
 70
     0
  9
$USERI5
 70
     0
  9
$USERR1
 40
0.0
  9
$USERR2
 40
0.0
  9
$USERR3
 40
0.0
  9
$USERR4
 40
0.0
  9
$USERR5
 40
0.0
  9
$WORLDVIEW
 70
     1
  9
$SHADEDGE
 70
     3
  9
$SHADEDIF
 70
    70
  9
$TILEMODE
 70
     1
  9
$MAXACTVP
 70
    48
  9
$PINSBASE
 10
0.0
 20
0.0
 30
0.0
  9
$PLIMCHECK
 70
     0
  9
$PEXTMIN
 10
28.5263154029846
 20
19.82258291244505
 30
0.0
  9
$PEXTMAX
 10
256.7368386268614
 20
178.4032462120055
 30
0.0
  9
$PLIMMIN
 10
-5.873748779296875
 20
-5.873749732971191
  9
$PLIMMAX
 10
291.1369018554686
 20
204.0995779037474
  9
$UNITMODE
 70
     0
  9
$VISRETAIN
 70
     1
  9
$PLINEGEN
 70
     0
  9
$PSLTSCALE
 70
     1
  9
$TREEDEPTH
 70
  3020
  9
$PICKSTYLE
 70
     1
  9
$CMLSTYLE
  2
STANDARD
  9
$CMLJUST
 70
     0
  9
$CMLSCALE
 40
20.0
  9
$PROXYGRAPHICS
 70
     1
  9
$MEASUREMENT
 70
     0
  0
ENDSEC
  0
SECTION
  2
CLASSES
  0
CLASS
  1
ACDBDICTIONARYWDFLT
  2
AcDbDictionaryWithDefault
  3
AutoCAD 2000
 90
        0
280
     0
281
     0
  0
CLASS
  1
ACDBPLACEHOLDER
  2
AcDbPlaceHolder
  3
AutoCAD 2000
 90
        0
280
     0
281
     0
  0
CLASS
  1
LAYOUT
  2
AcDbLayout
  3
AutoCAD 2000
 90
        0
280
     0
281
     0
  0
CLASS
  1
DICTIONARYVAR
  2
AcDbDictionaryVar
  3
AutoCAD 2000
 90
        0
280
     0
281
     0
  0
CLASS
  1
LONG_TRANSACTION
  2
AcDbLongTransaction
  3
AutoCAD 2000
 90
        0
280
     0
281
     0
  0
CLASS
  1
LWPOLYLINE
  2
AcDbPolyline
  3
AutoCAD 2000
 90
        0
280
     0
281
     1
  0
CLASS
  1
HATCH
  2
AcDbHatch
  3
AutoCAD 2000
 90
        0
280
     0
281
     1
  0
CLASS
  1
XRECORD
  2
AcDbXrecord
  3
AutoCAD 2000
 90
        0
280
     0
281
     0
  0
CLASS
  1
LONG_TRANSACTION
  2
AcDbLongTransaction
  3
AutoCAD 2000
 90
        0
280
     0
281
     0
  0
CLASS
  1
LWPOLYLINE
  2
AcDbPolyline
  3
AutoCAD 2000
 90
        0
280
     0
281
     1
  0
CLASS
  1
HATCH
  2
AcDbHatch
  3
AutoCAD 2000
 90
        0
280
     0
281
     1
  0
CLASS
  1
XRECORD
  2
AcDbXrecord
  3
AutoCAD 2000
 90
        0
280
     0
281
     0
  0
CLASS
  1
AMGSETTINGSOBJ
  2
AmgSettingsObj
  3
"AcadM|Product Description: AutoCAD Mechanical 2000|Company: Autodesk"
 90
        0
280
     0
281
     0
  0
CLASS
  1
ACME_DOCUMENT
  2
AcMeDbDoc
  3
AcMeServices
 90
        0
280
     0
281
     0
  0
CLASS
  1
ACMESCOPE
  2
AcMeScope
  3
AcMeServices
 90
        0
280
     0
281
     0
  0
CLASS
  1
ACMECOMMANDHISTORY
  2
AcMeCommandHistory
  3
AcMeServices
 90
        0
280
     0
281
     0
  0
CLASS
  1
ACIMSYSVARMAN
  2
AcImSysVarManager
  3
AcMeServices
 90
        0
280
     0
281
     0
  0
CLASS
  1
ACIMREALSYSVAR
  2
AcImRealSysVar
  3
AcMeServices
 90
        0
280
     0
281
     0
  0
CLASS
  1
ACIMINTSYSVAR
  2
AcImIntSysVar
  3
AcMeServices
 90
        0
280
     0
281
     0
  0
CLASS
  1
ACMEDRAWINGMAN
  2
AcMeDrawingMan
  3
AcMeServices
 90
        0
280
     0
281
     0
  0
CLASS
  1
ACMEVIEW
  2
AcMeView
  3
AcMeServices
 90
        0
280
     0
281
     0
  0
CLASS
  1
ACDBENTITYCACHE
  2
AcMeEntityCache
  3
AcMeServices
 90
        0
280
     0
281
     0
  0
CLASS
  1
GSMANAGER
  2
AcMeGSManager
  3
AcMeServices
 90
        0
280
     0
281
     0
  0
CLASS
  1
AMDTINTERNALREACTOR
  2
AmdtInternalReactor
  3
AcMeServices
 90
        0
280
     0
281
     0
  0
CLASS
  1
ACMESTATEMGR
  2
AcMeStateMgr
  3
AcMeServices
 90
        0
280
     0
281
     0
  0
CLASS
  1
ACGREFMASTER
  2
AcGrefMaster
  3
AcAttribServices
 90
        0
280
     0
281
     0
  0
CLASS
  1
AM_DRAWING_MGR
  2
AcDmDwgMgr
  3
AcMechDwgViewMgmt
 90
        0
280
     0
281
     0
  0
CLASS
  1
AM_DWG_DOCUMENT
  2
AcDmDwgDocument
  3
AcMechDwgViewMgmt
 90
        0
280
     0
281
     0
  0
CLASS
  1
AM_DWG_SHEET
  2
AcDmSheet
  3
AcMechDwgViewMgmt
 90
        0
280
     0
281
     0
  0
CLASS
  1
AM_VIEWDIMPARMAP
  2
AcDmViewDimParMap
  3
AcMechDwgViewMgmt
 90
        0
280
     0
281
     0
  0
CLASS
  1
AM_DWGMGR_NAME
  2
AcDmDwgMgrName
  3
AcMechDwgViewMgmt
 90
        0
280
     0
281
     0
  0
CLASS
  1
ACME_DATABASE
  2
AcMeDbDatabase
  3
AcMeServices
 90
        0
280
     0
281
     0
  0
CLASS
  1
ACRFINSADJUSTERMGR
  2
AcRfInsAdjusterMgr
  3
AcMeServices
 90
        0
280
     0
281
     0
  0
CLASS
  1
ACGREFACADMASTER
  2
AcGrefacadMaster
  3
AcGrefServices
 90
        0
280
     0
281
     0
  0
CLASS
  1
AMDTMENUSTATEMGR
  2
AmdtMenuStateMgr
  3
McadcomServices
 90
        0
280
     0
281
     0
  0
CLASS
  1
AMDTMCOMMENUSTATE
  2
AmdtMcomMenuState
  3
McadcomServices
 90
        0
280
     0
281
     0
  0
CLASS
  1
AMIMASTER
  2
AmiMaster
  3
AmiServices
 90
        0
280
     0
281
     0
  0
CLASS
  1
ASAPP
  2
AcAsAppObject
  3
AutoSurfServices
 90
        0
280
     0
281
     0
  0
CLASS
  1
IM_STATIC_MAN
  2
AcImStaticVarManager
  3
AcMeServices
 90
        0
280
     0
281
     0
  0
CLASS
  1
ACIMSTRSYSVAR
  2
AcImStrSysVar
  3
AcMeServices
 90
        0
280
     0
281
     0
  0
CLASS
  1
ACIMDBLSTATICVAR
  2
AcImDblStaticVar
  3
AcMeServices
 90
        0
280
     0
281
     0
  0
CLASS
  1
ACIMSTRSTATICVAR
  2
AcImStrStaticVar
  3
AcMeServices
 90
        0
280
     0
281
     0
  0
CLASS
  1
ACIMINTSTATICVAR
  2
AcImIntStaticVar
  3
AcMeServices
 90
        0
280
     0
281
     0
  0
CLASS
  1
ACASGREFMASTER
  2
AcAsGrefMaster
  3
AutoSurfResolverServices
 90
        0
280
     0
281
     0
  0
CLASS
  1
ACADGREFMODULE
  2
AcAdGrefModule
  3
AdGrefServices
 90
        0
280
     0
281
     0
  0
CLASS
  1
AMDTMAPISURFMOUDULE
  2
AmdtMApiSurfModule
  3
MApiSurfServices
 90
        0
280
     0
281
     0
  0
CLASS
  1
MAPIAMMOUDLE
  2
MApiAmModule
  3
MApiAmServices
 90
        0
280
     0
281
     0
  0
CLASS
  1
AMDTADMENUSTATE
  2
AmdtAdMenuState
  3
DesignerServices
 90
        0
280
     0
281
     0
  0
CLASS
  1
ADAPPL
  2
AcAdAppl
  3
DesignerServices
 90
        0
280
     0
281
     0
  0
CLASS
  1
DEPMGR
  2
AcAdDepMgr
  3
DesignerServices
 90
        0
280
     0
281
     0
  0
CLASS
  1
PARAMMGR
  2
AcAdParamMgr
  3
DesignerServices
 90
        0
280
     0
281
     0
  0
CLASS
  1
PARAMSCOPE
  2
AcAdParamScope
  3
DesignerServices
 90
        0
280
     0
281
     0
  0
CLASS
  1
NAMEDAPPL
  2
AcAdNamedAppl
  3
DesignerServices
 90
        0
280
     0
281
     0
  0
CLASS
  1
AMDTDMMENUSTATE
  2
AmdtDmMenuState
  3
AcMechDwgViewMgmt
 90
        0
280
     0
281
     0
  0
CLASS
  1
MAPIADMODULE
  2
MApiAdModule
  3
MApiAdServices
 90
        0
280
     0
281
     0
  0
CLASS
  1
AMDTAMMENUSTATE
  2
AmdtAmMenuState
  3
DesignerAssemblies
 90
        0
280
     0
281
     0
  0
CLASS
  1
ACAMPROJECT
  2
AcAmProject
  3
DesignerAssemblies
 90
        0
280
     0
281
     0
  0
CLASS
  1
ACAMGRCOMPDEF
  2
AcAmGrCompDef
  3
DesignerAssemblies
 90
        0
280
     0
281
     0
  0
CLASS
  1
ACCMCONTEXT
  2
AcCmContext
  3
DesignerAssemblies
 90
        0
280
     0
281
     0
  0
CLASS
  1
ACAMCOMPDEF
  2
AcAmCompDef
  3
DesignerAssemblies
 90
        0
280
     0
281
     0
  0
CLASS
  1
ACAMCOMPDEFMGR
  2
AcAmCompDefMgr
  3
DesignerAssemblies
 90
        0
280
     0
281
     0
  0
CLASS
  1
AMCONTEXTMGR
  2
AcAmContextMgr
  3
DesignerAssemblies
 90
        0
280
     0
281
     0
  0
CLASS
  1
ACAMCONTEXTMODELER
  2
AcAmContextModeler
  3
DesignerAssemblies
 90
        0
280
     0
281
     0
  0
CLASS
  1
ACMDATADICTIONARY
  2
AcmDataDictionary
  3
"AcmSymBB|Product Description: AutoCAD Mechanical 2000|Company: Autodesk"
 90
        0
280
     0
281
     0
  0
CLASS
  1
ACMDATAENTRYBLOCK
  2
AcmDataEntryBlock
  3
"AcmSymBB|Product Description: AutoCAD Mechanical 2000|Company: Autodesk"
 90
        0
280
     0
281
     0
  0
CLASS
  1
CATALOGSTATE
  2
AcAmCatalogState
  3
DesignerAssemblies
 90
        0
280
     0
281
     0
  0
CLASS
  1
ACAMGRCOMPDEFSET
  2
AcAmGrCompDefSet
  3
DesignerAssemblies
 90
        0
280
     0
281
     0
  0
CLASS
  1
AMDTBROWSERDBTAB
  2
AmdtBrowserDbTab
  3
McadcomServices
 90
        0
280
     0
281
     0
  0
CLASS
  1
CBROWSERAPPOBJECT
  2
CBrowserAppObject
  3
McadcomServices
 90
        0
280
     0
281
     0
  0
CLASS
  1
DM_PLACEHOLDER
  2
AcDmSelsetPlaceholder
  3
AcMechDwgViewMgmt
 90
        0
280
     0
281
     0
  0
CLASS
  1
AMGOBJPROPCFG
  2
AmgObjPropCfg
  3
"AmgLay|Product Description: AutoCAD Mechanical 2000|Company: Autodesk"
 90
        1
280
     0
281
     0
  0
CLASS
  1
ACAMGFILTERDAT
  2
AcAmgFilterDat
  3
"AcadM|Product Description: AutoCAD Mechanical 2000|Company: Autodesk"
 90
        0
280
     0
281
     0
  0
CLASS
  1
LAYER_INDEX
  2
AcDbLayerIndex
  3
AutoCAD 2000
 90
        0
280
     0
281
     0
  0
CLASS
  1
IDBUFFER
  2
AcDbIdBuffer
  3
AutoCAD 2000
 90
        0
280
     0
281
     0
  0
CLASS
  1
ACAD_PROXY_OBJECT_WRAPPER
  2
AcDbProxyObjectWrapper
  3
AutoCAD 2000
 90
        0
280
     0
281
     0
  0
CLASS
  1
LONG_TRANSACTION
  2
AcDbLongTransaction
  3
AutoCAD 2000
 90
        0
280
     0
281
     0
  0
CLASS
  1
LWPOLYLINE
  2
AcDbPolyline
  3
AutoCAD 2000
 90
        0
280
     0
281
     1
  0
CLASS
  1
HATCH
  2
AcDbHatch
  3
AutoCAD 2000
 90
        0
280
     0
281
     1
  0
CLASS
  1
XRECORD
  2
AcDbXrecord
  3
AutoCAD 2000
 90
        0
280
     0
281
     0
  0
CLASS
  1
LONG_TRANSACTION
  2
AcDbLongTransaction
  3
AutoCAD 2000
 90
        0
280
     0
281
     0
  0
CLASS
  1
LWPOLYLINE
  2
AcDbPolyline
  3
AutoCAD 2000
 90
        0
280
     0
281
     1
  0
CLASS
  1
HATCH
  2
AcDbHatch
  3
AutoCAD 2000
 90
        0
280
     0
281
     1
  0
CLASS
  1
XRECORD
  2
AcDbXrecord
  3
AutoCAD 2000
 90
        0
280
     0
281
     0
  0
CLASS
  1
LONG_TRANSACTION
  2
AcDbLongTransaction
  3
AutoCAD 2000
 90
        0
280
     0
281
     0
  0
CLASS
  1
LWPOLYLINE
  2
AcDbPolyline
  3
AutoCAD 2000
 90
        0
280
     0
281
     1
  0
CLASS
  1
HATCH
  2
AcDbHatch
  3
AutoCAD 2000
 90
        0
280
     0
281
     1
  0
CLASS
  1
XRECORD
  2
AcDbXrecord
  3
AutoCAD 2000
 90
        0
280
     0
281
     0
  0
CLASS
  1
LONG_TRANSACTION
  2
AcDbLongTransaction
  3
AutoCAD 2000
 90
        0
280
     0
281
     0
  0
CLASS
  1
LWPOLYLINE
  2
AcDbPolyline
  3
AutoCAD 2000
 90
        0
280
     0
281
     1
  0
CLASS
  1
HATCH
  2
AcDbHatch
  3
AutoCAD 2000
 90
        0
280
     0
281
     1
  0
CLASS
  1
XRECORD
  2
AcDbXrecord
  3
AutoCAD 2000
 90
        0
280
     0
281
     0
  0
CLASS
  1
LONG_TRANSACTION
  2
AcDbLongTransaction
  3
AutoCAD 2000
 90
        0
280
     0
281
     0
  0
CLASS
  1
LWPOLYLINE
  2
AcDbPolyline
  3
AutoCAD 2000
 90
        0
280
     0
281
     1
  0
CLASS
  1
HATCH
  2
AcDbHatch
  3
AutoCAD 2000
 90
        0
280
     0
281
     1
  0
CLASS
  1
XRECORD
  2
AcDbXrecord
  3
AutoCAD 2000
 90
        0
280
     0
281
     0
  0
CLASS
  1
LONG_TRANSACTION
  2
AcDbLongTransaction
  3
AutoCAD 2000
 90
        0
280
     0
281
     0
  0
CLASS
  1
LWPOLYLINE
  2
AcDbPolyline
  3
AutoCAD 2000
 90
        0
280
     0
281
     1
  0
CLASS
  1
HATCH
  2
AcDbHatch
  3
AutoCAD 2000
 90
        0
280
     0
281
     1
  0
CLASS
  1
XRECORD
  2
AcDbXrecord
  3
AutoCAD 2000
 90
        0
280
     0
281
     0
  0
CLASS
  1
LONG_TRANSACTION
  2
AcDbLongTransaction
  3
AutoCAD 2000
 90
        0
280
     0
281
     0
  0
CLASS
  1
LWPOLYLINE
  2
AcDbPolyline
  3
AutoCAD 2000
 90
        0
280
     0
281
     1
  0
CLASS
  1
HATCH
  2
AcDbHatch
  3
AutoCAD 2000
 90
        0
280
     0
281
     1
  0
CLASS
  1
XRECORD
  2
AcDbXrecord
  3
AutoCAD 2000
 90
        0
280
     0
281
     0
  0
CLASS
  1
LONG_TRANSACTION
  2
AcDbLongTransaction
  3
AutoCAD 2000
 90
        0
280
     0
281
     0
  0
CLASS
  1
LWPOLYLINE
  2
AcDbPolyline
  3
AutoCAD 2000
 90
        0
280
     0
281
     1
  0
CLASS
  1
HATCH
  2
AcDbHatch
  3
AutoCAD 2000
 90
        0
280
     0
281
     1
  0
CLASS
  1
XRECORD
  2
AcDbXrecord
  3
AutoCAD 2000
 90
        0
280
     0
281
     0
  0
CLASS
  1
LONG_TRANSACTION
  2
AcDbLongTransaction
  3
AutoCAD 2000
 90
        0
280
     0
281
     0
  0
CLASS
  1
LWPOLYLINE
  2
AcDbPolyline
  3
AutoCAD 2000
 90
        0
280
     0
281
     1
  0
CLASS
  1
HATCH
  2
AcDbHatch
  3
AutoCAD 2000
 90
        0
280
     0
281
     1
  0
CLASS
  1
XRECORD
  2
AcDbXrecord
  3
AutoCAD 2000
 90
        0
280
     0
281
     0
  0
CLASS
  1
LONG_TRANSACTION
  2
AcDbLongTransaction
  3
AutoCAD 2000
 90
        0
280
     0
281
     0
  0
CLASS
  1
LWPOLYLINE
  2
AcDbPolyline
  3
AutoCAD 2000
 90
        0
280
     0
281
     1
  0
CLASS
  1
HATCH
  2
AcDbHatch
  3
AutoCAD 2000
 90
        0
280
     0
281
     1
  0
CLASS
  1
XRECORD
  2
AcDbXrecord
  3
AutoCAD 2000
 90
        0
280
     0
281
     0
  0
CLASS
  1
LONG_TRANSACTION
  2
AcDbLongTransaction
  3
AutoCAD 2000
 90
        0
280
     0
281
     0
  0
CLASS
  1
LWPOLYLINE
  2
AcDbPolyline
  3
AutoCAD 2000
 90
        0
280
     0
281
     1
  0
CLASS
  1
HATCH
  2
AcDbHatch
  3
AutoCAD 2000
 90
        0
280
     0
281
     1
  0
CLASS
  1
XRECORD
  2
AcDbXrecord
  3
AutoCAD 2000
 90
        0
280
     0
281
     0
  0
CLASS
  1
LONG_TRANSACTION
  2
AcDbLongTransaction
  3
AutoCAD 2000
 90
        0
280
     0
281
     0
  0
CLASS
  1
LWPOLYLINE
  2
AcDbPolyline
  3
AutoCAD 2000
 90
        0
280
     0
281
     1
  0
CLASS
  1
HATCH
  2
AcDbHatch
  3
AutoCAD 2000
 90
        0
280
     0
281
     1
  0
CLASS
  1
XRECORD
  2
AcDbXrecord
  3
AutoCAD 2000
 90
        0
280
     0
281
     0
  0
ENDSEC
  0
SECTION
  2
TABLES
  0
TABLE
  2
VPORT
  5
8
330
0
100
AcDbSymbolTable
 70
     3
  0
VPORT
  5
11E6
330
8
100
AcDbSymbolTableRecord
100
AcDbViewportTableRecord
  2
*ACTIVE
 70
     0
 10
0.0
 20
0.0
 11
1.0
 21
1.0
 12
-764.8835775913839
 22
-385.9034137200177
 13
0.0
 23
0.0
 14
10.0
 24
10.0
 15
10.0
 25
10.0
 16
0.0
 26
0.0
 36
1.0
 17
1140.949166581189
 27
552.5761744424462
 37
0.0
 40
483.4466886499216
 41
1.340220385674931
 42
50.0
 43
0.0
 44
0.0
 50
0.0
 51
0.0
 71
     0
 72
   100
 73
     1
 74
     3
 75
     0
 76
     0
 77
     0
 78
     0
  0
ENDTAB
  0
TABLE
  2
LTYPE
  5
5
330
0
100
AcDbSymbolTable
 70
     9
  0
LTYPE
  5
14
330
5
100
AcDbSymbolTableRecord
100
AcDbLinetypeTableRecord
  2
BYBLOCK
 70
     0
  3

 72
    65
 73
     0
 40
0.0
  0
LTYPE
  5
15
330
5
100
AcDbSymbolTableRecord
100
AcDbLinetypeTableRecord
  2
BYLAYER
 70
     0
  3

 72
    65
 73
     0
 40
0.0
  0
LTYPE
  5
16
330
5
100
AcDbSymbolTableRecord
100
AcDbLinetypeTableRecord
  2
CONTINUOUS
 70
     0
  3
Solid line
 72
    65
 73
     0
 40
0.0
  0
LTYPE
  5
5C6
330
5
100
AcDbSymbolTableRecord
100
AcDbLinetypeTableRecord
  2
AM_ISO02W050
 70
     0
  3
__ __ __ __ __ __ __ __ __ __ __ __ __ __ __
 72
    65
 73
     2
 40
7.5
 49
6.0
 74
     0
 49
-1.5
 74
     0
  0
LTYPE
  5
5C7
330
5
100
AcDbSymbolTableRecord
100
AcDbLinetypeTableRecord
  2
AM_ISO08W050
 70
     0
  3
____ . ____ . ____ . ____ . ____ . ____ . ____
 72
    65
 73
     4
 40
18.0
 49
12.0
 74
     0
 49
-1.5
 74
     0
 49
3.0
 74
     0
 49
-1.5
 74
     0
  0
LTYPE
  5
5C8
330
5
100
AcDbSymbolTableRecord
100
AcDbLinetypeTableRecord
  2
AM_ISO09W050
 70
     0
  3
_____ . . _____ . . _____ . . ____ .. ____
 72
    65
 73
     6
 40
22.5
 49
12.0
 74
     0
 49
-1.5
 74
     0
 49
3.0
 74
     0
 49
-1.5
 74
     0
 49
3.0
 74
     0
 49
-1.5
 74
     0
  0
LTYPE
  5
5C9
330
5
100
AcDbSymbolTableRecord
100
AcDbLinetypeTableRecord
  2
AMCONSTR
 70
     0
  3
_______________________
 72
    65
 73
     2
 40
9999.0
 49
9999.0
 74
     0
 49
0.0
 74
     0
  0
LTYPE
  5
5CA
330
5
100
AcDbSymbolTableRecord
100
AcDbLinetypeTableRecord
  2
AM_ISO08W050X2
 70
     0
  3
__ . __ . __ . __ . __ . __
 72
    65
 73
     4
 40
9.0
 49
6.0
 74
     0
 49
-0.75
 74
     0
 49
1.5
 74
     0
 49
-0.75
 74
     0
  0
LTYPE
  5
5CB
330
5
100
AcDbSymbolTableRecord
100
AcDbLinetypeTableRecord
  2
AM_ISO02W050X2
 70
     0
  3
 _ _ _ _ _ _ _ _ _ _ _ _
 72
    65
 73
     2
 40
3.75
 49
3.0
 74
     0
 49
-0.75
 74
     0
  0
LTYPE
  5
5CE
330
5
100
AcDbSymbolTableRecord
100
AcDbLinetypeTableRecord
  2
AMZIGZAG
 70
     0
  3
/\/-/\/-/\/-/\/-/\/-/\/
 72
    65
 73
     2
 40
11.00009999999999
 49
0.0001
 74
     4
 75
   135
340
5CD
 46
0.04
 50
0.0
 44
0.0
 45
0.0
 49
-11.0
 74
     0
  0
LTYPE
  5
BFF
330
5
100
AcDbSymbolTableRecord
100
AcDbLinetypeTableRecord
  2
CENTER
 70
     0
  3
Center ____ _ ____ _ ____ _ ____ _ ____ _ ____
 72
    65
 73
     4
 40
2.0
 49
1.25
 74
     0
 49
-0.25
 74
     0
 49
0.25
 74
     0
 49
-0.25
 74
     0
  0
ENDTAB
  0
TABLE
  2
LAYER
  5
2
102
{ACAD_XDICTIONARY
360
41
102
}
330
0
100
AcDbSymbolTable
 70
    13
  0
LAYER
  5
10
330
2
100
AcDbSymbolTableRecord
100
AcDbLayerTableRecord
  2
0
 70
     0
 62
     7
  6
CONTINUOUS
  0
LAYER
  5
35
330
2
100
AcDbSymbolTableRecord
100
AcDbLayerTableRecord
  2
10
 70
     0
 62
     4
  6
CONTINUOUS
  0
LAYER
  5
36
330
2
100
AcDbSymbolTableRecord
100
AcDbLayerTableRecord
  2
12
 70
     0
 62
     3
  6
CENTER
  0
LAYER
  5
37
330
2
100
AcDbSymbolTableRecord
100
AcDbLayerTableRecord
  2
16
 70
     0
 62
     4
  6
CENTER
  0
LAYER
  5
38
330
2
100
AcDbSymbolTableRecord
100
AcDbLayerTableRecord
  2
19
 70
     0
 62
     7
  6
CONTINUOUS
  0
LAYER
  5
636
330
2
100
AcDbSymbolTableRecord
100
AcDbLayerTableRecord
  2
DEFPOINTS
 70
     0
 62
     7
  6
CONTINUOUS
  0
LAYER
  5
B79
330
2
100
AcDbSymbolTableRecord
100
AcDbLayerTableRecord
  2
17
 70
     0
 62
     2
  6
CENTER
  0
ENDTAB
  0
TABLE
  2
STYLE
  5
3
330
0
100
AcDbSymbolTable
 70
     3
  0
STYLE
  5
11
330
3
100
AcDbSymbolTableRecord
100
AcDbTextStyleTableRecord
  2
STANDARD
 70
     0
 40
0.0
 41
1.0
 50
0.0
 71
     0
 42
2.5
  3
txt
  4

  0
STYLE
  5
3A
330
3
100
AcDbSymbolTableRecord
100
AcDbTextStyleTableRecord
  2
STANDARD1X3
 70
     0
 40
9.599999999999999
 41
0.7
 50
0.0
 71
     0
 42
9.599999999999999
  3
romans.shx
  4
extfont.shx
  0
STYLE
  5
5CD
330
3
100
AcDbSymbolTableRecord
100
AcDbTextStyleTableRecord
  2

 70
     1
 40
0.0
 41
1.0
 50
0.0
 71
     0
 42
2.5
  3
ltypeshp.shx
  4

  0
ENDTAB
  0
TABLE
  2
VIEW
  5
6
330
0
100
AcDbSymbolTable
 70
     0
  0
ENDTAB
  0
TABLE
  2
UCS
  5
7
330
0
100
AcDbSymbolTable
 70
     0
  0
ENDTAB
  0
TABLE
  2
APPID
  5
9
330
0
100
AcDbSymbolTable
 70
    25
  0
APPID
  5
12
330
9
100
AcDbSymbolTableRecord
100
AcDbRegAppTableRecord
  2
ACAD
 70
     0
  0
APPID
  5
3C
330
9
100
AcDbSymbolTableRecord
100
AcDbRegAppTableRecord
  2
ACAD_PSEXT
 70
     0
  0
APPID
  5
3D
330
9
100
AcDbSymbolTableRecord
100
AcDbRegAppTableRecord
  2
ACAD_DSTYLE_DIMEXT_LENGTH
 70
     0
  0
APPID
  5
3E
330
9
100
AcDbSymbolTableRecord
100
AcDbRegAppTableRecord
  2
ACAD_DSTYLE_DIMEXT_ENABLED
 70
     0
  0
APPID
  5
3F
330
9
100
AcDbSymbolTableRecord
100
AcDbRegAppTableRecord
  2
ACAD_DSTYLE_DIMJOGGED_JOGA
 70
     0
  0
APPID
  5
40
330
9
100
AcDbSymbolTableRecord
100
AcDbRegAppTableRecord
  2
ACAD_DSTYLE_DIMARC_LENGTH_
 70
     0
  0
APPID
  5
500
330
9
100
AcDbSymbolTableRecord
100
AcDbRegAppTableRecord
  2
GENIUS_GENDIM_13
 70
     0
  0
APPID
  5
501
330
9
100
AcDbSymbolTableRecord
100
AcDbRegAppTableRecord
  2
GENIUS_GENDTOL_13
 70
     0
  0
APPID
  5
502
330
9
100
AcDbSymbolTableRecord
100
AcDbRegAppTableRecord
  2
GENIUS_GE3DTOL_13
 70
     0
  0
APPID
  5
504
330
9
100
AcDbSymbolTableRecord
100
AcDbRegAppTableRecord
  2
MCAD_NO_VIS
 70
     0
  0
APPID
  5
505
330
9
100
AcDbSymbolTableRecord
100
AcDbRegAppTableRecord
  2
ACAD_TEMP_GRAPHIC
 70
     0
  0
APPID
  5
537
330
9
100
AcDbSymbolTableRecord
100
AcDbRegAppTableRecord
  2
AD_DRAW
 70
     0
  0
APPID
  5
53A
330
9
100
AcDbSymbolTableRecord
100
AcDbRegAppTableRecord
  2
ACATTRIBSERVICES
 70
     0
  0
APPID
  5
586
330
9
100
AcDbSymbolTableRecord
100
AcDbRegAppTableRecord
  2
ASURF_PCURVE_APPNAME
 70
     0
  0
APPID
  5
5B5
330
9
100
AcDbSymbolTableRecord
100
AcDbRegAppTableRecord
  2
DESIGNERASSEMBLIES
 70
     0
  0
APPID
  5
5BD
330
9
100
AcDbSymbolTableRecord
100
AcDbRegAppTableRecord
  2
ACADM_DIM_EDIT
 70
     0
  0
APPID
  5
5BE
330
9
100
AcDbSymbolTableRecord
100
AcDbRegAppTableRecord
  2
AMDT_DM_ADJ
 70
     0
  0
APPID
  5
642
330
9
100
AcDbSymbolTableRecord
100
AcDbRegAppTableRecord
  2
ACAECLAYERSTANDARD
 70
     0
  0
APPID
  5
CB8
330
9
100
AcDbSymbolTableRecord
100
AcDbRegAppTableRecord
  2
GENIUS_GENODEF_13
 70
     0
  0
APPID
  5
CB9
330
9
100
AcDbSymbolTableRecord
100
AcDbRegAppTableRecord
  2
GENIUS_GENOREF_13
 70
     0
  0
APPID
  5
CBA
330
9
100
AcDbSymbolTableRecord
100
AcDbRegAppTableRecord
  2
GENIUS_GENOBJ-N-CEN_13
 70
     0
  0
APPID
  5
CBB
330
9
100
AcDbSymbolTableRecord
100
AcDbRegAppTableRecord
  2
GENIUS_GENREC_14
 70
     0
  0
APPID
  5
CBC
330
9
100
AcDbSymbolTableRecord
100
AcDbRegAppTableRecord
  2
GENIUS_GENOBJ-N-REC_13
 70
     0
  0
APPID
  5
CBD
330
9
100
AcDbSymbolTableRecord
100
AcDbRegAppTableRecord
  2
GENIUS_GENOBJ-N-FIL_13
 70
     0
  0
APPID
  5
CBE
330
9
100
AcDbSymbolTableRecord
100
AcDbRegAppTableRecord
  2
GENIUS_GENCEN_19
 70
     0
  0
ENDTAB
  0
TABLE
  2
DIMSTYLE
  5
A
330
0
100
AcDbSymbolTable
 70
     2
  0
DIMSTYLE
105
27
330
A
100
AcDbSymbolTableRecord
100
AcDbDimStyleTableRecord
  2
ISO-25
 70
     0
  3

  4

  5

  6

  7

 40
1.0
 41
2.5
 42
0.625
 43
3.75
 44
1.25
 45
0.0
 46
0.0
 47
0.0
 48
0.0
140
2.5
141
2.5
142
0.0
143
0.03937007874016
144
1.0
145
0.0
146
1.0
147
0.625
 71
     0
 72
     0
 73
     0
 74
     0
 75
     0
 76
     0
 77
     1
 78
     8
170
     0
171
     3
172
     1
173
     0
174
     0
175
     0
176
     0
177
     0
178
     0
270
     2
271
     2
272
     2
273
     2
274
     3
340
11
275
     0
280
     0
281
     0
282
     0
283
     0
284
     8
285
     0
286
     0
287
     3
288
     0
  0
DIMSTYLE
105
CB7
330
A
100
AcDbSymbolTableRecord
100
AcDbDimStyleTableRecord
  2
AM_JIS
 70
     0
  3

  4
"
  5
OPEN30
  6
OPEN30
  7
OPEN30
 40
1.0
 41
2.5
 42
1.0
 43
10.0
 44
1.0
 45
0.0
 46
0.0
 47
0.1
 48
0.1
140
3.5
141
0.0
142
0.0
143
0.0393701
144
1.0
145
0.0
146
0.71
147
1.5
 71
     0
 72
     0
 73
     0
 74
     0
 75
     0
 76
     0
 77
     3
 78
     8
170
     0
171
     2
172
     1
173
     0
174
     0
175
     0
176
   256
177
   256
178
     2
270
     2
271
     2
272
     3
273
     2
274
     4
340
11
275
     0
280
     0
281
     0
282
     0
283
     0
284
     0
285
     0
286
     0
287
     3
288
     0
  0
ENDTAB
  0
TABLE
  2
BLOCK_RECORD
  5
1
330
0
100
AcDbSymbolTable
 70
     3
  0
BLOCK_RECORD
  5
1F
102
{ACAD_XDICTIONARY
360
438
102
}
330
1
100
AcDbSymbolTableRecord
100
AcDbBlockTableRecord
  2
*MODEL_SPACE
  0
BLOCK_RECORD
  5
23
102
{ACAD_XDICTIONARY
360
43A
102
}
330
1
100
AcDbSymbolTableRecord
100
AcDbBlockTableRecord
  2
*PAPER_SPACE
  0
BLOCK_RECORD
  5
5AC
330
1
100
AcDbSymbolTableRecord
100
AcDbBlockTableRecord
  2
*U0
  0
BLOCK_RECORD
  5
C99
330
1
100
AcDbSymbolTableRecord
100
AcDbBlockTableRecord
  2
_OPEN30
  0
ENDTAB
  0
ENDSEC
  0
SECTION
  2
BLOCKS
  0
BLOCK
  5
20
330
1F
100
AcDbEntity
  8
0
100
AcDbBlockBegin
  2
*MODEL_SPACE
 70
     0
 10
0.0
 20
0.0
 30
0.0
  3
*MODEL_SPACE
  1

  0
ENDBLK
  5
21
330
1F
100
AcDbEntity
  8
0
100
AcDbBlockEnd
  0
BLOCK
  5
24
330
23
100
AcDbEntity
 67
     1
  8
0
100
AcDbBlockBegin
  2
*PAPER_SPACE
 70
     0
 10
0.0
 20
0.0
 30
0.0
  3
*PAPER_SPACE
  1

  0
ENDBLK
  5
25
330
23
100
AcDbEntity
 67
     1
  8
0
100
AcDbBlockEnd
  0
BLOCK
  5
5AD
330
5AC
100
AcDbEntity
  8
0
100
AcDbBlockBegin
  2
*U0
 70
     1
 10
0.0
 20
0.0
 30
0.0
  3
*U0
  1

  0
ENDBLK
  5
5AE
330
5AC
100
AcDbEntity
  8
0
100
AcDbBlockEnd
  0
BLOCK
  5
C9D
330
C99
100
AcDbEntity
  8
0
100
AcDbBlockBegin
  2
_OPEN30
 70
     0
 10
0.0
 20
0.0
 30
0.0
  3
_OPEN30
  1

1001
ACAD
1000
RTMaterial
1005
0
  0
LINE
  5
C9A
330
C99
100
AcDbEntity
  8
0
 62
     0
100
AcDbLine
 10
-1.0
 20
0.26794919
 30
0.0
 11
0.0
 21
0.0
 31
0.0
1001
ACAD
1000
RTMaterial
1005
0
  0
LINE
  5
C9B
330
C99
100
AcDbEntity
  8
0
 62
     0
100
AcDbLine
 10
0.0
 20
0.0
 30
0.0
 11
-1.0
 21
-0.26794919
 31
0.0
1001
ACAD
1000
RTMaterial
1005
0
  0
LINE
  5
C9C
330
C99
100
AcDbEntity
  8
0
 62
     0
100
AcDbLine
 10
0.0
 20
0.0
 30
0.0
 11
-1.0
 21
0.0
 31
0.0
1001
ACAD
1000
RTMaterial
1005
0
  0
ENDBLK
  5
C9E
330
C99
100
AcDbEntity
  8
0
100
AcDbBlockEnd
1001
ACAD
1000
RTMaterial
1005
0
  0
ENDSEC
  0
SECTION
  2
ENTITIES
  0
MTEXT
  5
ABA
330
1F
100
AcDbEntity
  8
19
100
AcDbMText
 10
660.6907499186727
 20
63.53802655451556
 30
0.0
 40
5.0
 41
70.16
 71
     1
 72
     5
  1
HALH15\PFR-HAL-H55K
  7
STANDARD1X3
1001
ACAD
1000
MTEXTBEGIN
1070
    73
1070
     1
1070
    44
1040
1.0
1070
    74
1070
     0
1000
MTEXTEND
  0
LINE
  5
F3C
330
1F
100
AcDbEntity
  8
16
100
AcDbLine
 10
194.116766142891
 20
38.28791373978674
 30
0.0
 11
194.1167661429057
 21
286.5267010701482
 31
0.0
1001
GENIUS_GENODEF_13
1002
{
1000
HIER
1070
     0
1002
}
1002
{
1000
MANEDIT
1070
     0
1002
}
1002
{
1000
NOSEL
1070
     0
1002
}
1002
{
1000
BEHIND
1070
     0
1002
}
1002
{
1000
REACTOR
1002
}
1001
GENIUS_GENOBJ-N-CEN_13
1002
{
1000
OWNER
1000
GEN
1002
}
  0
LINE
  5
F3D
330
1F
100
AcDbEntity
  8
10
100
AcDbLine
 10
508.4122002909233
 20
51.346024410856
 30
0.0
 11
556.4122002909256
 21
51.34602441084872
 31
0.0
  0
LINE
  5
F3E
330
1F
100
AcDbEntity
  8
10
100
AcDbLine
 10
547.4122002909369
 20
232.3460244108568
 30
0.0
 11
508.4122002909378
 21
232.3460244108632
 31
0.0
  0
LINE
  5
F3F
330
1F
100
AcDbEntity
  8
10
100
AcDbLine
 10
558.7122002909366
 20
240.1460244108574
 30
0.0
 11
507.4122002909368
 21
240.1460244108561
 31
0.0
  0
LINE
  5
F40
330
1F
100
AcDbEntity
  8
10
100
AcDbLine
 10
507.4122002909413
 20
243.3460244108559
 30
0.0
 11
558.7122002909361
 21
243.3460244108573
 31
0.0
  0
LINE
  5
F41
330
1F
100
AcDbEntity
  8
10
100
AcDbLine
 10
506.9122002909172
 20
51.346024410856
 30
0.0
 11
506.9122002909345
 21
93.34602441085053
 31
0.0
  0
LINE
  5
F42
330
1F
100
AcDbEntity
  8
10
100
AcDbLine
 10
508.4122002909277
 20
93.34602441085053
 30
0.0
 11
508.4122002909233
 21
51.346024410856
 31
0.0
  0
LINE
  5
F43
330
1F
100
AcDbEntity
  8
10
100
AcDbLine
 10
506.9122002909154
 20
52.54602441084672
 30
0.0
 11
506.9122002909304
 21
88.3460244108555
 31
0.0
  0
LINE
  5
F44
330
1F
100
AcDbEntity
  8
10
100
AcDbLine
 10
503.7122002909215
 20
88.3460244108555
 30
0.0
 11
503.712200290918
 21
52.04602441085307
 31
0.0
  0
LINE
  5
F45
330
1F
100
AcDbEntity
  8
10
100
AcDbLine
 10
471.9122002909164
 20
48.34602441086053
 30
0.0
 11
503.2122002909143
 21
48.34602441085281
 31
0.0
  0
LINE
  5
F46
330
1F
100
AcDbEntity
  8
10
100
AcDbLine
 10
503.2122002909179
 20
51.54602441085307
 30
0.0
 11
471.9122002909167
 21
51.54602441086034
 31
0.0
  0
LINE
  5
F47
330
1F
100
AcDbEntity
  8
10
100
AcDbLine
 10
471.9122002909167
 20
51.54602441085991
 30
0.0
 11
471.9122002909164
 21
48.34602441086008
 31
0.0
  0
ARC
  5
F48
330
1F
100
AcDbEntity
  8
10
100
AcDbCircle
 10
503.2122002909152
 20
52.04602441085307
 30
0.0
 40
3.7
100
AcDbArc
 50
269.9999999999739
 51
0.0
1001
GENIUS_GENODEF_13
1002
{
1000
HIER
1070
     0
1002
}
1002
{
1000
MANEDIT
1070
     0
1002
}
1002
{
1000
NOSEL
1070
     0
1002
}
1002
{
1000
BEHIND
1070
     0
1002
}
1002
{
1000
REACTOR
1002
}
1001
GENIUS_GENOBJ-N-FIL_13
1002
{
1000
OWNER
1000
GEN
1002
}
  0
ARC
  5
F49
330
1F
100
AcDbEntity
  8
10
100
AcDbCircle
 10
503.2122002909179
 20
52.04602441085307
 30
0.0
 40
0.5
100
AcDbArc
 50
269.9999999999739
 51
0.0
1001
GENIUS_GENODEF_13
1002
{
1000
HIER
1070
     0
1002
}
1002
{
1000
MANEDIT
1070
     0
1002
}
1002
{
1000
NOSEL
1070
     0
1002
}
1002
{
1000
BEHIND
1070
     0
1002
}
1002
{
1000
REACTOR
1002
}
1001
GENIUS_GENOBJ-N-FIL_13
1002
{
1000
OWNER
1000
GEN
1002
}
  0
LINE
  5
F4A
330
1F
100
AcDbEntity
  8
10
100
AcDbLine
 10
508.4122002909233
 20
51.346024410856
 30
0.0
 11
506.9122002909172
 21
51.346024410856
 31
0.0
  0
LINE
  5
F4B
330
1F
100
AcDbEntity
  8
10
100
AcDbLine
 10
493.7122002909197
 20
67.34602441085553
 30
0.0
 11
490.0792002909382
 21
67.34602441085553
 31
0.0
1001
GENIUS_GENOREF_13
1005
0
1005
0
1005
0
1005
0
1005
0
1005
0
1005
0
1005
0
  0
LINE
  5
F4C
330
1F
100
AcDbEntity
  8
10
100
AcDbLine
 10
493.7122002909197
 20
75.34602441085553
 30
0.0
 11
490.0792002909382
 21
75.34602441085553
 31
0.0
1001
GENIUS_GENOREF_13
1005
0
1005
0
1005
0
1005
0
1005
0
1005
0
1005
0
1005
0
  0
LINE
  5
F4D
330
1F
100
AcDbEntity
  8
10
100
AcDbLine
 10
490.0792002909382
 20
67.34602441085553
 30
0.0
 11
489.3122002909381
 21
68.11283691085555
 31
0.0
1001
GENIUS_GENOREF_13
1005
0
1005
0
1005
0
1005
0
1005
0
1005
0
1005
0
1005
0
  0
LINE
  5
F4E
330
1F
100
AcDbEntity
  8
10
100
AcDbLine
 10
489.3122002909381
 20
74.57921191085555
 30
0.0
 11
489.3122002909381
 21
68.11283691085555
 31
0.0
1001
GENIUS_GENOREF_13
1005
0
1005
0
1005
0
1005
0
1005
0
1005
0
1005
0
1005
0
  0
LINE
  5
F4F
330
1F
100
AcDbEntity
  8
10
100
AcDbLine
 10
489.3122002909381
 20
74.57921191085555
 30
0.0
 11
490.0792002909382
 21
75.34602441085553
 31
0.0
1001
GENIUS_GENOREF_13
1005
0
1005
0
1005
0
1005
0
1005
0
1005
0
1005
0
1005
0
  0
LINE
  5
F50
330
1F
100
AcDbEntity
  8
10
100
AcDbLine
 10
490.0792002909382
 20
75.34602441085553
 30
0.0
 11
490.0792002909382
 21
67.34602441085553
 31
0.0
1001
GENIUS_GENOREF_13
1005
0
1005
0
1005
0
1005
0
1005
0
1005
0
1005
0
1005
0
  0
LINE
  5
F51
330
1F
100
AcDbEntity
  8
10
100
AcDbLine
 10
503.7122002909198
 20
62.84602441085554
 30
0.0
 11
503.7122002909198
 21
79.84602441085553
 31
0.0
1001
GENIUS_GENOREF_13
1005
0
1005
0
1005
0
1005
0
  0
LINE
  5
F52
330
1F
100
AcDbEntity
  8
10
100
AcDbLine
 10
502.1122002909197
 20
62.84602441085554
 30
0.0
 11
502.1122002909197
 21
79.84602441085553
 31
0.0
1001
GENIUS_GENOREF_13
1005
0
1005
0
1005
0
  0
LINE
  5
F53
330
1F
100
AcDbEntity
  8
10
100
AcDbLine
 10
500.51220029092
 20
79.84602441085553
 30
0.0
 11
500.51220029092
 21
77.84602441085553
 31
0.0
1001
GENIUS_GENOREF_13
1005
0
1005
0
1005
0
  0
LINE
  5
F54
330
1F
100
AcDbEntity
  8
10
100
AcDbLine
 10
500.51220029092
 20
64.84602441085553
 30
0.0
 11
500.51220029092
 21
77.84602441085553
 31
0.0
1001
GENIUS_GENOREF_13
1005
0
1005
0
  0
LINE
  5
F55
330
1F
100
AcDbEntity
  8
10
100
AcDbLine
 10
493.7122002909197
 20
64.84602441085553
 30
0.0
 11
493.7122002909197
 21
77.84602441085553
 31
0.0
1001
GENIUS_GENOREF_13
1005
0
1005
0
  0
ARC
  5
F56
330
1F
100
AcDbEntity
  8
10
100
AcDbCircle
 10
497.1933572680807
 20
65.71539941085575
 30
0.0
 40
3.318843022839329
100
AcDbArc
 50
334.4384694047232
 51
34.4384694047142
1001
GENIUS_GENOREF_13
1005
0
1005
0
  0
ARC
  5
F57
330
1F
100
AcDbEntity
  8
10
100
AcDbCircle
 10
497.0310433137588
 20
65.71539941085575
 30
0.0
 40
3.318843022839329
100
AcDbArc
 50
145.5615305952858
 51
205.5615305952767
1001
GENIUS_GENOREF_13
1005
0
1005
0
  0
LINE
  5
F58
330
1F
100
AcDbEntity
  8
10
100
AcDbLine
 10
503.7122002909192
 20
66.34602441085644
 30
0.0
 11
503.7122002909192
 21
76.34602441085644
 31
0.0
1001
GENIUS_GENOREF_13
1005
0
1005
0
1005
0
1005
0
  0
LINE
  5
F59
330
1F
100
AcDbEntity
  8
10
100
AcDbLine
 10
499.9305198947114
 20
63.83852441085582
 30
0.0
 11
494.2938806871286
 21
63.83852441085582
 31
0.0
1001
GENIUS_GENOREF_13
1005
0
1005
0
  0
LINE
  5
F5A
330
1F
100
AcDbEntity
  8
10
100
AcDbLine
 10
494.2938806871286
 20
63.83852441085582
 30
0.0
 11
493.7122002909197
 21
64.84602441085553
 31
0.0
1001
GENIUS_GENOREF_13
1005
0
1005
0
  0
LINE
  5
F5B
330
1F
100
AcDbEntity
  8
10
100
AcDbLine
 10
502.1122002909197
 20
62.84602441085554
 30
0.0
 11
503.7122002909198
 21
62.84602441085554
 31
0.0
1001
GENIUS_GENOREF_13
1005
0
1005
0
1005
0
1005
0
  0
LINE
  5
F5C
330
1F
100
AcDbEntity
  8
10
100
AcDbLine
 10
500.51220029092
 20
62.84602441085554
 30
0.0
 11
502.1122002909197
 21
62.84602441085554
 31
0.0
1001
GENIUS_GENOREF_13
1005
0
1005
0
1005
0
  0
LINE
  5
F5D
330
1F
100
AcDbEntity
  8
10
100
AcDbLine
 10
500.51220029092
 20
64.84602441085553
 30
0.0
 11
500.51220029092
 21
62.84602441085554
 31
0.0
1001
GENIUS_GENOREF_13
1005
0
1005
0
1005
0
  0
LINE
  5
F5E
330
1F
100
AcDbEntity
  8
10
100
AcDbLine
 10
499.9305198947114
 20
63.83852441085582
 30
0.0
 11
500.51220029092
 21
64.84602441085553
 31
0.0
1001
GENIUS_GENOREF_13
1005
0
1005
0
  0
LINE
  5
F5F
330
1F
100
AcDbEntity
  8
10
100
AcDbLine
 10
499.9305198947114
 20
75.09977441085581
 30
0.0
 11
494.2938806871286
 21
75.09977441085581
 31
0.0
1001
GENIUS_GENOREF_13
1005
0
1005
0
  0
LINE
  5
F60
330
1F
100
AcDbEntity
  8
10
100
AcDbLine
 10
499.9305198947114
 20
78.85352441085569
 30
0.0
 11
494.2938806871286
 21
78.85352441085569
 31
0.0
1001
GENIUS_GENOREF_13
1005
0
1005
0
  0
LINE
  5
F61
330
1F
100
AcDbEntity
  8
10
100
AcDbLine
 10
499.9305198947114
 20
67.59227441085568
 30
0.0
 11
494.2938806871286
 21
67.59227441085568
 31
0.0
1001
GENIUS_GENOREF_13
1005
0
1005
0
  0
LINE
  5
F62
330
1F
100
AcDbEntity
  8
10
100
AcDbLine
 10
494.2938806871286
 20
78.85352441085569
 30
0.0
 11
493.7122002909197
 21
77.84602441085553
 31
0.0
1001
GENIUS_GENOREF_13
1005
0
1005
0
  0
ARC
  5
F63
330
1F
100
AcDbEntity
  8
10
100
AcDbCircle
 10
506.1150517879645
 20
71.34602441085553
 30
0.0
 40
12.40285149704451
100
AcDbArc
 50
162.3830311596195
 51
197.61696884038
1001
GENIUS_GENOREF_13
1005
0
1005
0
  0
ARC
  5
F64
330
1F
100
AcDbEntity
  8
10
100
AcDbCircle
 10
497.0310433137592
 20
76.9766494108558
 30
0.0
 40
3.318843022839364
100
AcDbArc
 50
154.4384694047232
 51
214.4384694047142
1001
GENIUS_GENOREF_13
1005
0
1005
0
  0
LINE
  5
F65
330
1F
100
AcDbEntity
  8
10
100
AcDbLine
 10
499.9305198947114
 20
78.85352441085569
 30
0.0
 11
500.51220029092
 21
77.84602441085553
 31
0.0
1001
GENIUS_GENOREF_13
1005
0
1005
0
  0
ARC
  5
F66
330
1F
100
AcDbEntity
  8
10
100
AcDbCircle
 10
497.1933572680807
 20
76.9766494108558
 30
0.0
 40
3.318843022839329
100
AcDbArc
 50
325.5615305952861
 51
25.56153059527638
1001
GENIUS_GENOREF_13
1005
0
1005
0
  0
ARC
  5
F67
330
1F
100
AcDbEntity
  8
10
100
AcDbCircle
 10
488.1093487938752
 20
71.34602441085553
 30
0.0
 40
12.40285149704452
100
AcDbArc
 50
342.3830311596199
 51
17.61696884038008
1001
GENIUS_GENOREF_13
1005
0
1005
0
  0
LINE
  5
F68
330
1F
100
AcDbEntity
  8
10
100
AcDbLine
 10
506.9122002909304
 20
88.3460244108555
 30
0.0
 11
503.7122002909215
 21
88.3460244108555
 31
0.0
  0
LINE
  5
F69
330
1F
100
AcDbEntity
  8
10
100
AcDbLine
 10
503.7122002909198
 20
79.84602441085553
 30
0.0
 11
502.1122002909197
 21
79.84602441085553
 31
0.0
1001
GENIUS_GENOREF_13
1005
0
1005
0
1005
0
1005
0
  0
LINE
  5
F6A
330
1F
100
AcDbEntity
  8
10
100
AcDbLine
 10
502.1122002909197
 20
79.84602441085553
 30
0.0
 11
500.51220029092
 21
79.84602441085553
 31
0.0
1001
GENIUS_GENOREF_13
1005
0
1005
0
1005
0
  0
LINE
  5
F6B
330
1F
100
AcDbEntity
  8
10
100
AcDbLine
 10
506.9122002909377
 20
190.3460244108428
 30
0.0
 11
506.9122002909377
 21
232.3460244108632
 31
0.0
  0
LINE
  5
F6C
330
1F
100
AcDbEntity
  8
10
100
AcDbLine
 10
508.4122002909378
 20
232.3460244108632
 30
0.0
 11
508.4122002909321
 21
190.3460244108428
 31
0.0
  0
LINE
  5
F6D
330
1F
100
AcDbEntity
  8
10
100
AcDbLine
 10
493.7122002909361
 20
216.3460244108522
 30
0.0
 11
490.0792002909546
 21
216.3460244108522
 31
0.0
  0
LINE
  5
F6E
330
1F
100
AcDbEntity
  8
10
100
AcDbLine
 10
493.7122002909361
 20
208.3460244108522
 30
0.0
 11
490.0792002909546
 21
208.3460244108522
 31
0.0
  0
LINE
  5
F6F
330
1F
100
AcDbEntity
  8
10
100
AcDbLine
 10
490.0792002909546
 20
216.3460244108522
 30
0.0
 11
490.0792002909546
 21
208.3460244108522
 31
0.0
  0
LINE
  5
F70
330
1F
100
AcDbEntity
  8
10
100
AcDbLine
 10
489.3122002909541
 20
215.5792119108522
 30
0.0
 11
489.3122002909541
 21
209.1128369108524
 31
0.0
  0
LINE
  5
F71
330
1F
100
AcDbEntity
  8
10
100
AcDbLine
 10
490.0792002909546
 20
208.3460244108522
 30
0.0
 11
489.3122002909541
 21
209.1128369108524
 31
0.0
  0
LINE
  5
F72
330
1F
100
AcDbEntity
  8
10
100
AcDbLine
 10
489.3122002909541
 20
215.5792119108522
 30
0.0
 11
490.0792002909546
 21
216.3460244108522
 31
0.0
  0
LINE
  5
F73
330
1F
100
AcDbEntity
  8
10
100
AcDbLine
 10
506.9122002909368
 20
239.6460244108561
 30
0.0
 11
506.9122002909377
 21
200.3460244108568
 31
0.0
  0
LINE
  5
F74
330
1F
100
AcDbEntity
  8
10
100
AcDbLine
 10
503.7122002909411
 20
200.3460244108568
 30
0.0
 11
503.7122002909366
 21
239.6460244108561
 31
0.0
  0
LINE
  5
F75
330
1F
100
AcDbEntity
  8
10
100
AcDbLine
 10
506.9122002909377
 20
200.3460244108568
 30
0.0
 11
503.7122002909411
 21
200.3460244108568
 31
0.0
  0
LINE
  5
F76
330
1F
100
AcDbEntity
  8
10
100
AcDbLine
 10
503.7122002909358
 20
207.3460244108532
 30
0.0
 11
503.7122002909358
 21
217.3460244108532
 31
0.0
  0
LINE
  5
F77
330
1F
100
AcDbEntity
  8
10
100
AcDbLine
 10
500.5122002909363
 20
205.8460244108523
 30
0.0
 11
500.5122002909363
 21
218.8460244108522
 31
0.0
  0
ARC
  5
F78
330
1F
100
AcDbEntity
  8
10
100
AcDbCircle
 10
488.1093487938917
 20
212.3460244108522
 30
0.0
 40
12.40285149704452
100
AcDbArc
 50
342.3830311596199
 51
17.61696884038008
  0
LINE
  5
F79
330
1F
100
AcDbEntity
  8
10
100
AcDbLine
 10
502.1122002909362
 20
203.8460244108522
 30
0.0
 11
502.1122002909362
 21
220.8460244108522
 31
0.0
  0
LINE
  5
F7A
330
1F
100
AcDbEntity
  8
10
100
AcDbLine
 10
503.7122002909361
 20
203.8460244108522
 30
0.0
 11
503.7122002909361
 21
220.8460244108522
 31
0.0
  0
LINE
  5
F7B
330
1F
100
AcDbEntity
  8
10
100
AcDbLine
 10
493.7122002909361
 20
205.8460244108523
 30
0.0
 11
493.7122002909361
 21
218.8460244108522
 31
0.0
  0
ARC
  5
F7C
330
1F
100
AcDbEntity
  8
10
100
AcDbCircle
 10
506.1150517879808
 20
212.3460244108522
 30
0.0
 40
12.40285149704451
100
AcDbArc
 50
162.3830311596195
 51
197.61696884038
  0
LINE
  5
F7D
330
1F
100
AcDbEntity
  8
10
100
AcDbLine
 10
499.9305198947273
 20
208.5922744108525
 30
0.0
 11
494.2938806871445
 21
208.5922744108525
 31
0.0
  0
LINE
  5
F7E
330
1F
100
AcDbEntity
  8
10
100
AcDbLine
 10
499.9305198947273
 20
204.8385244108521
 30
0.0
 11
494.2938806871445
 21
204.8385244108521
 31
0.0
  0
ARC
  5
F7F
330
1F
100
AcDbEntity
  8
10
100
AcDbCircle
 10
497.0310433137752
 20
206.7153994108525
 30
0.0
 40
3.318843022839329
100
AcDbArc
 50
145.5615305952858
 51
205.5615305952767
  0
LINE
  5
F80
330
1F
100
AcDbEntity
  8
10
100
AcDbLine
 10
494.2938806871445
 20
204.8385244108521
 30
0.0
 11
493.7122002909361
 21
205.8460244108523
 31
0.0
  0
ARC
  5
F81
330
1F
100
AcDbEntity
  8
10
100
AcDbCircle
 10
497.1933572680967
 20
206.7153994108525
 30
0.0
 40
3.318843022839329
100
AcDbArc
 50
334.4384694047232
 51
34.4384694047142
  0
LINE
  5
F82
330
1F
100
AcDbEntity
  8
10
100
AcDbLine
 10
499.9305198947273
 20
204.8385244108521
 30
0.0
 11
500.5122002909363
 21
205.8460244108523
 31
0.0
  0
LINE
  5
F83
330
1F
100
AcDbEntity
  8
10
100
AcDbLine
 10
500.5122002909363
 20
205.8460244108523
 30
0.0
 11
500.5122002909363
 21
203.8460244108522
 31
0.0
  0
LINE
  5
F84
330
1F
100
AcDbEntity
  8
10
100
AcDbLine
 10
500.5122002909363
 20
203.8460244108522
 30
0.0
 11
502.1122002909362
 21
203.8460244108522
 31
0.0
  0
LINE
  5
F85
330
1F
100
AcDbEntity
  8
10
100
AcDbLine
 10
502.1122002909362
 20
203.8460244108522
 30
0.0
 11
503.7122002909361
 21
203.8460244108522
 31
0.0
  0
LINE
  5
F86
330
1F
100
AcDbEntity
  8
10
100
AcDbLine
 10
499.9305198947273
 20
219.8535244108525
 30
0.0
 11
494.2938806871445
 21
219.8535244108525
 31
0.0
  0
LINE
  5
F87
330
1F
100
AcDbEntity
  8
10
100
AcDbLine
 10
499.9305198947273
 20
216.0997744108521
 30
0.0
 11
494.2938806871445
 21
216.0997744108521
 31
0.0
  0
ARC
  5
F88
330
1F
100
AcDbEntity
  8
10
100
AcDbCircle
 10
497.0310433137752
 20
217.9766494108521
 30
0.0
 40
3.318843022839364
100
AcDbArc
 50
154.4384694047232
 51
214.4384694047142
  0
LINE
  5
F89
330
1F
100
AcDbEntity
  8
10
100
AcDbLine
 10
494.2938806871445
 20
219.8535244108525
 30
0.0
 11
493.7122002909361
 21
218.8460244108522
 31
0.0
  0
ARC
  5
F8A
330
1F
100
AcDbEntity
  8
10
100
AcDbCircle
 10
497.1933572680967
 20
217.9766494108521
 30
0.0
 40
3.318843022839329
100
AcDbArc
 50
325.5615305952861
 51
25.56153059527638
  0
LINE
  5
F8B
330
1F
100
AcDbEntity
  8
10
100
AcDbLine
 10
499.9305198947273
 20
219.8535244108525
 30
0.0
 11
500.5122002909363
 21
218.8460244108522
 31
0.0
  0
LINE
  5
F8C
330
1F
100
AcDbEntity
  8
10
100
AcDbLine
 10
500.5122002909363
 20
220.8460244108522
 30
0.0
 11
500.5122002909363
 21
218.8460244108522
 31
0.0
  0
LINE
  5
F8D
330
1F
100
AcDbEntity
  8
10
100
AcDbLine
 10
502.1122002909362
 20
220.8460244108522
 30
0.0
 11
500.5122002909363
 21
220.8460244108522
 31
0.0
  0
LINE
  5
F8E
330
1F
100
AcDbEntity
  8
10
100
AcDbLine
 10
503.7122002909361
 20
220.8460244108522
 30
0.0
 11
502.1122002909362
 21
220.8460244108522
 31
0.0
  0
ARC
  5
F8F
330
1F
100
AcDbEntity
  8
10
100
AcDbCircle
 10
507.4122002909368
 20
239.6460244108561
 30
0.0
 40
3.7
100
AcDbArc
 50
90.0
 51
180.0
1001
GENIUS_GENODEF_13
1002
{
1000
HIER
1070
     0
1002
}
1002
{
1000
MANEDIT
1070
     0
1002
}
1002
{
1000
NOSEL
1070
     0
1002
}
1002
{
1000
BEHIND
1070
     0
1002
}
1002
{
1000
REACTOR
1002
}
1001
GENIUS_GENOBJ-N-FIL_13
1002
{
1000
OWNER
1000
GEN
1002
}
  0
LINE
  5
F90
330
1F
100
AcDbEntity
  8
10
100
AcDbLine
 10
506.9122002909377
 20
232.3460244108632
 30
0.0
 11
508.4122002909378
 21
232.3460244108632
 31
0.0
  0
ARC
  5
F91
330
1F
100
AcDbEntity
  8
10
100
AcDbCircle
 10
507.4122002909368
 20
239.6460244108561
 30
0.0
 40
0.5
100
AcDbArc
 50
90.0
 51
180.0
1001
GENIUS_GENODEF_13
1002
{
1000
HIER
1070
     0
1002
}
1002
{
1000
MANEDIT
1070
     0
1002
}
1002
{
1000
NOSEL
1070
     0
1002
}
1002
{
1000
BEHIND
1070
     0
1002
}
1002
{
1000
REACTOR
1002
}
1001
GENIUS_GENOBJ-N-FIL_13
1002
{
1000
OWNER
1000
GEN
1002
}
  0
LINE
  5
F92
330
1F
100
AcDbEntity
  8
16
100
AcDbLine
 10
532.4122002909144
 20
41.88960884130074
 30
0.0
 11
532.4122002909445
 21
295.0482509678281
 31
0.0
1001
GENIUS_GENODEF_13
1002
{
1000
HIER
1070
     0
1002
}
1002
{
1000
MANEDIT
1070
     0
1002
}
1002
{
1000
NOSEL
1070
     0
1002
}
1002
{
1000
BEHIND
1070
     0
1002
}
1002
{
1000
REACTOR
1002
}
1001
GENIUS_GENOBJ-N-CEN_13
1002
{
1000
OWNER
1000
GEN
1002
}
  0
LINE
  5
F93
330
1F
100
AcDbEntity
  8
10
100
AcDbLine
 10
592.9122002909284
 20
48.34602441085418
 30
0.0
 11
561.6122002909289
 21
48.34602441085418
 31
0.0
  0
LINE
  5
F94
330
1F
100
AcDbEntity
  8
10
100
AcDbLine
 10
561.6122002909264
 20
51.54602441085445
 30
0.0
 11
592.9122002909284
 21
51.54602441085399
 31
0.0
  0
LINE
  5
F95
330
1F
100
AcDbEntity
  8
10
100
AcDbLine
 10
556.4122002909305
 20
93.34602441085053
 30
0.0
 11
556.4122002909256
 21
51.34602441085508
 31
0.0
  0
LINE
  5
F96
330
1F
100
AcDbEntity
  8
10
100
AcDbLine
 10
557.9122002909285
 20
51.34602441085508
 30
0.0
 11
557.9122002909332
 21
93.34602441085053
 31
0.0
  0
LINE
  5
F97
330
1F
100
AcDbEntity
  8
10
100
AcDbLine
 10
557.9122002909285
 20
52.54602441085536
 30
0.0
 11
557.9122002909316
 21
88.3460244108555
 31
0.0
  0
LINE
  5
F98
330
1F
100
AcDbEntity
  8
10
100
AcDbLine
 10
561.1122002909293
 20
88.3460244108555
 30
0.0
 11
561.1122002909262
 21
52.04602441085445
 31
0.0
  0
LINE
  5
F99
330
1F
100
AcDbEntity
  8
10
100
AcDbLine
 10
556.4122002909233
 20
51.34602441084872
 30
0.0
 11
557.9122002909285
 21
51.34602441084826
 31
0.0
  0
ARC
  5
F9A
330
1F
100
AcDbEntity
  8
10
100
AcDbCircle
 10
561.6122002909289
 20
52.04602441085445
 30
0.0
 40
3.7
100
AcDbArc
 50
180.0
 51
270.0
1001
GENIUS_GENODEF_13
1002
{
1000
HIER
1070
     0
1002
}
1002
{
1000
MANEDIT
1070
     0
1002
}
1002
{
1000
NOSEL
1070
     0
1002
}
1002
{
1000
BEHIND
1070
     0
1002
}
1002
{
1000
REACTOR
1002
}
1001
GENIUS_GENOBJ-N-FIL_13
1002
{
1000
OWNER
1000
GEN
1002
}
  0
ARC
  5
F9B
330
1F
100
AcDbEntity
  8
10
100
AcDbCircle
 10
561.6122002909262
 20
52.04602441085445
 30
0.0
 40
0.5
100
AcDbArc
 50
180.0
 51
270.0
1001
GENIUS_GENODEF_13
1002
{
1000
HIER
1070
     0
1002
}
1002
{
1000
MANEDIT
1070
     0
1002
}
1002
{
1000
NOSEL
1070
     0
1002
}
1002
{
1000
BEHIND
1070
     0
1002
}
1002
{
1000
REACTOR
1002
}
1001
GENIUS_GENOBJ-N-FIL_13
1002
{
1000
OWNER
1000
GEN
1002
}
  0
LINE
  5
F9C
330
1F
100
AcDbEntity
  8
10
100
AcDbLine
 10
564.3122002909437
 20
62.84602441085554
 30
0.0
 11
564.3122002909437
 21
79.84602441085553
 31
0.0
1001
GENIUS_GENOREF_13
1005
0
1005
0
1005
0
1005
0
1005
0
1005
0
  0
LINE
  5
F9D
330
1F
100
AcDbEntity
  8
10
100
AcDbLine
 10
561.1122002909436
 20
79.84602441085553
 30
0.0
 11
561.1122002909436
 21
62.84602441085554
 31
0.0
1001
GENIUS_GENOREF_13
1005
0
1005
0
1005
0
1005
0
1005
0
  0
LINE
  5
F9E
330
1F
100
AcDbEntity
  8
10
100
AcDbLine
 10
562.7122002909433
 20
62.84602441085554
 30
0.0
 11
562.7122002909433
 21
79.84602441085553
 31
0.0
1001
GENIUS_GENOREF_13
1005
0
1005
0
1005
0
1005
0
1005
0
  0
LINE
  5
F9F
330
1F
100
AcDbEntity
  8
10
100
AcDbLine
 10
561.1122002909436
 20
62.84602441085554
 30
0.0
 11
562.7122002909433
 21
62.84602441085554
 31
0.0
1001
GENIUS_GENOREF_13
1005
0
1005
0
1005
0
1005
0
1005
0
  0
LINE
  5
FA0
330
1F
100
AcDbEntity
  8
10
100
AcDbLine
 10
561.1122002909436
 20
76.34602441085553
 30
0.0
 11
561.1122002909436
 21
66.34602441085553
 31
0.0
1001
GENIUS_GENOREF_13
1005
0
1005
0
1005
0
1005
0
1005
0
  0
ARC
  5
FA1
330
1F
100
AcDbEntity
  8
10
100
AcDbCircle
 10
566.2949272301518
 20
65.71491278572193
 30
0.0
 40
3.317273060791828
100
AcDbArc
 50
334.4468723822644
 51
34.44687238227873
1001
GENIUS_GENOREF_13
1005
0
1005
0
1005
0
1005
0
1005
0
1005
0
1005
0
1005
0
  0
LINE
  5
FA2
330
1F
100
AcDbEntity
  8
10
100
AcDbLine
 10
569.6122002909432
 20
64.84602441085553
 30
0.0
 11
569.6122002909432
 21
77.84602441085553
 31
0.0
1001
GENIUS_GENOREF_13
1005
0
1005
0
1005
0
1005
0
1005
0
1005
0
1005
0
1005
0
  0
LINE
  5
FA3
330
1F
100
AcDbEntity
  8
10
100
AcDbLine
 10
564.9122002909432
 20
77.16102441085559
 30
0.0
 11
564.9122002909432
 21
65.53102441085551
 31
0.0
1001
GENIUS_GENOREF_13
1005
0
1005
0
1005
0
1005
0
1005
0
1005
0
1005
0
1005
0
  0
LINE
  5
FA4
330
1F
100
AcDbEntity
  8
10
100
AcDbLine
 10
569.0305198947349
 20
63.83852441085582
 30
0.0
 11
564.9122002909432
 21
63.83852441085582
 31
0.0
1001
GENIUS_GENOREF_13
1005
0
1005
0
1005
0
1005
0
1005
0
1005
0
1005
0
1005
0
  0
LINE
  5
FA5
330
1F
100
AcDbEntity
  8
10
100
AcDbLine
 10
562.7122002909433
 20
62.84602441085554
 30
0.0
 11
564.3122002909437
 21
62.84602441085554
 31
0.0
1001
GENIUS_GENOREF_13
1005
0
1005
0
1005
0
1005
0
1005
0
1005
0
  0
LINE
  5
FA6
330
1F
100
AcDbEntity
  8
10
100
AcDbLine
 10
564.9122002909432
 20
65.53102441085551
 30
0.0
 11
564.3122002909437
 21
65.53102441085551
 31
0.0
1001
GENIUS_GENOREF_13
1005
0
1005
0
1005
0
1005
0
1005
0
1005
0
1005
0
1005
0
  0
LINE
  5
FA7
330
1F
100
AcDbEntity
  8
10
100
AcDbLine
 10
564.9122002909432
 20
65.53102441085551
 30
0.0
 11
564.9122002909432
 21
63.83852441085582
 31
0.0
1001
GENIUS_GENOREF_13
1005
0
1005
0
1005
0
1005
0
1005
0
1005
0
1005
0
1005
0
  0
LINE
  5
FA8
330
1F
100
AcDbEntity
  8
10
100
AcDbLine
 10
569.0305198947349
 20
63.83852441085582
 30
0.0
 11
569.6122002909432
 21
64.84602441085553
 31
0.0
1001
GENIUS_GENOREF_13
1005
0
1005
0
1005
0
1005
0
1005
0
1005
0
1005
0
1005
0
  0
LINE
  5
FA9
330
1F
100
AcDbEntity
  8
10
100
AcDbLine
 10
569.0305198947349
 20
67.5913011605885
 30
0.0
 11
564.9122002909432
 21
67.5913011605885
 31
0.0
1001
GENIUS_GENOREF_13
1005
0
1005
0
1005
0
1005
0
1005
0
1005
0
1005
0
1005
0
  0
LINE
  5
FAA
330
1F
100
AcDbEntity
  8
10
100
AcDbLine
 10
569.0305198947349
 20
75.10074766112302
 30
0.0
 11
564.9122002909432
 21
75.10074766112302
 31
0.0
1001
GENIUS_GENOREF_13
1005
0
1005
0
1005
0
1005
0
1005
0
1005
0
1005
0
1005
0
  0
LINE
  5
FAB
330
1F
100
AcDbEntity
  8
10
100
AcDbLine
 10
569.0305198947349
 20
78.85352441085569
 30
0.0
 11
564.9122002909432
 21
78.85352441085569
 31
0.0
1001
GENIUS_GENOREF_13
1005
0
1005
0
1005
0
1005
0
1005
0
1005
0
1005
0
1005
0
  0
LINE
  5
FAC
330
1F
100
AcDbEntity
  8
10
100
AcDbLine
 10
564.9122002909432
 20
78.85352441085569
 30
0.0
 11
564.9122002909432
 21
77.16102441085559
 31
0.0
1001
GENIUS_GENOREF_13
1005
0
1005
0
1005
0
1005
0
1005
0
1005
0
1005
0
1005
0
  0
LINE
  5
FAD
330
1F
100
AcDbEntity
  8
10
100
AcDbLine
 10
564.9122002909432
 20
77.16102441085559
 30
0.0
 11
564.3122002909437
 21
77.16102441085559
 31
0.0
1001
GENIUS_GENOREF_13
1005
0
1005
0
1005
0
1005
0
1005
0
1005
0
1005
0
1005
0
  0
LINE
  5
FAE
330
1F
100
AcDbEntity
  8
10
100
AcDbLine
 10
569.0305198947349
 20
78.85352441085569
 30
0.0
 11
569.6122002909432
 21
77.84602441085553
 31
0.0
1001
GENIUS_GENOREF_13
1005
0
1005
0
1005
0
1005
0
1005
0
1005
0
1005
0
1005
0
  0
ARC
  5
FAF
330
1F
100
AcDbEntity
  8
10
100
AcDbCircle
 10
566.2949272301518
 20
76.97713603598959
 30
0.0
 40
3.317273060791828
100
AcDbArc
 50
325.5531276177212
 51
25.55312761773556
1001
GENIUS_GENOREF_13
1005
0
1005
0
1005
0
1005
0
1005
0
1005
0
1005
0
1005
0
  0
ARC
  5
FB0
330
1F
100
AcDbEntity
  8
10
100
AcDbCircle
 10
557.2030673172952
 20
71.34602441085553
 30
0.0
 40
12.40913297364789
100
AcDbArc
 50
342.3875260144676
 51
17.6124739855324
1001
GENIUS_GENOREF_13
1005
0
1005
0
1005
0
1005
0
1005
0
1005
0
1005
0
1005
0
  0
LINE
  5
FB1
330
1F
100
AcDbEntity
  8
10
100
AcDbLine
 10
562.7122002909433
 20
79.84602441085553
 30
0.0
 11
561.1122002909436
 21
79.84602441085553
 31
0.0
1001
GENIUS_GENOREF_13
1005
0
1005
0
1005
0
1005
0
1005
0
  0
LINE
  5
FB2
330
1F
100
AcDbEntity
  8
10
100
AcDbLine
 10
557.9122002909305
 20
88.3460244108555
 30
0.0
 11
561.1122002909293
 21
88.3460244108555
 31
0.0
  0
LINE
  5
FB3
330
1F
100
AcDbEntity
  8
10
100
AcDbLine
 10
564.3122002909437
 20
79.84602441085553
 30
0.0
 11
562.7122002909433
 21
79.84602441085553
 31
0.0
1001
GENIUS_GENOREF_13
1005
0
1005
0
1005
0
1005
0
1005
0
1005
0
  0
LINE
  5
FB4
330
1F
100
AcDbEntity
  8
10
100
AcDbLine
 10
592.9122002909284
 20
51.54602441085399
 30
0.0
 11
592.9122002909284
 21
48.34602441085418
 31
0.0
  0
LINE
  5
FB5
330
1F
100
AcDbEntity
  8
10
100
AcDbLine
 10
557.9122002909378
 20
190.3460244108428
 30
0.0
 11
557.9122002909387
 21
232.3460244108568
 31
0.0
  0
LINE
  5
FB6
330
1F
100
AcDbEntity
  8
10
100
AcDbLine
 10
556.4122002909386
 20
232.3460244108568
 30
0.0
 11
556.4122002909377
 21
190.3460244108428
 31
0.0
  0
LINE
  5
FB7
330
1F
100
AcDbEntity
  8
10
100
AcDbLine
 10
547.4122002909369
 20
232.3460244108568
 30
0.0
 11
556.4122002909386
 21
232.3460244108568
 31
0.0
  0
LINE
  5
FB8
330
1F
100
AcDbEntity
  8
10
100
AcDbLine
 10
557.9122002909421
 20
201.3460244108568
 30
0.0
 11
557.9122002909387
 21
232.3460244108568
 31
0.0
1001
GENIUS_GENREC_14
1002
{
1000
PYDIR
1011
557.9122002909421
1021
201.3460244108568
1031
0.0
1002
}
1002
{
1000
PXDIR
1011
561.1122002909385
1021
232.3460244108568
1031
0.0
1002
}
1002
{
1000
PORI
1011
557.9122002909387
1021
232.3460244108568
1031
0.0
1002
}
1002
{
1000
PINS
1011
557.9122002909387
1021
232.3460244108568
1031
0.0
1002
}
1002
{
1000
PINS2
1011
561.112200290942
1021
201.3460244108568
1031
0.0
1002
}
1002
{
1000
C
1070
     1
1002
}
1001
GENIUS_GENODEF_13
1002
{
1000
HIER
1070
     0
1002
}
1002
{
1000
MANEDIT
1070
     0
1002
}
1002
{
1000
NOSEL
1070
     0
1002
}
1002
{
1000
BEHIND
1070
     0
1002
}
1002
{
1000
REACTOR
1002
}
1001
GENIUS_GENOBJ-N-REC_13
1002
{
1000
OWNER
1000
GEN
1002
}
  0
LINE
  5
FB9
330
1F
100
AcDbEntity
  8
10
100
AcDbLine
 10
561.1122002909385
 20
232.3460244108568
 30
0.0
 11
561.112200290942
 21
200.3460244108568
 31
0.0
1001
GENIUS_GENREC_14
1002
{
1000
PYDIR
1011
557.9122002909421
1021
201.3460244108568
1031
0.0
1002
}
1002
{
1000
PXDIR
1011
561.1122002909385
1021
232.3460244108568
1031
0.0
1002
}
1002
{
1000
PORI
1011
557.9122002909387
1021
232.3460244108568
1031
0.0
1002
}
1002
{
1000
PINS
1011
557.9122002909387
1021
232.3460244108568
1031
0.0
1002
}
1002
{
1000
PINS2
1011
561.112200290942
1021
200.3460244108568
1031
0.0
1002
}
1002
{
1000
C
1070
     1
1002
}
1001
GENIUS_GENODEF_13
1002
{
1000
HIER
1070
     0
1002
}
1002
{
1000
MANEDIT
1070
     0
1002
}
1002
{
1000
NOSEL
1070
     0
1002
}
1002
{
1000
BEHIND
1070
     0
1002
}
1002
{
1000
REACTOR
1002
}
1001
GENIUS_GENOBJ-N-REC_13
1002
{
1000
OWNER
1000
GEN
1002
}
  0
LINE
  5
FBA
330
1F
100
AcDbEntity
  8
10
100
AcDbLine
 10
562.7122002909597
 20
220.8460244108522
 30
0.0
 11
561.1122002909593
 21
220.8460244108522
 31
0.0
  0
LINE
  5
FBB
330
1F
100
AcDbEntity
  8
10
100
AcDbLine
 10
561.1122002909593
 20
203.8460244108522
 30
0.0
 11
562.7122002909597
 21
203.8460244108522
 31
0.0
  0
LINE
  5
FBC
330
1F
100
AcDbEntity
  8
10
100
AcDbLine
 10
561.1122002909593
 20
217.3460244108523
 30
0.0
 11
561.1122002909593
 21
207.3460244108523
 31
0.0
  0
LINE
  5
FBD
330
1F
100
AcDbEntity
  8
10
100
AcDbLine
 10
561.1122002909593
 20
220.8460244108522
 30
0.0
 11
561.1122002909593
 21
203.8460244108522
 31
0.0
  0
LINE
  5
FBE
330
1F
100
AcDbEntity
  8
10
100
AcDbLine
 10
561.112200290942
 20
200.3460244108568
 30
0.0
 11
557.9122002909421
 21
200.3460244108568
 31
0.0
1001
GENIUS_GENREC_14
1002
{
1000
PYDIR
1011
557.9122002909421
1021
200.3460244108568
1031
0.0
1002
}
1002
{
1000
PXDIR
1011
561.1122002909385
1021
234.8460244108568
1031
0.0
1002
}
1002
{
1000
PORI
1011
557.9122002909381
1021
234.8460244108568
1031
0.0
1002
}
1002
{
1000
PINS
1011
557.9122002909381
1021
234.8460244108568
1031
0.0
1002
}
1002
{
1000
PINS2
1011
561.112200290942
1021
200.3460244108568
1031
0.0
1002
}
1002
{
1000
C
1070
     1
1002
}
1001
GENIUS_GENODEF_13
1002
{
1000
HIER
1070
     0
1002
}
1002
{
1000
MANEDIT
1070
     0
1002
}
1002
{
1000
NOSEL
1070
     0
1002
}
1002
{
1000
BEHIND
1070
     0
1002
}
1002
{
1000
REACTOR
1002
}
1001
GENIUS_GENOBJ-N-REC_13
1002
{
1000
OWNER
1000
GEN
1002
}
  0
ARC
  5
FBF
330
1F
100
AcDbEntity
  8
10
100
AcDbCircle
 10
557.2030673173117
 20
212.3460244108522
 30
0.0
 40
12.40913297364789
100
AcDbArc
 50
342.3875260144676
 51
17.6124739855324
  0
LINE
  5
FC0
330
1F
100
AcDbEntity
  8
10
100
AcDbLine
 10
564.9122002909595
 20
218.1610244108523
 30
0.0
 11
564.9122002909595
 21
206.5310244108522
 31
0.0
  0
LINE
  5
FC1
330
1F
100
AcDbEntity
  8
10
100
AcDbLine
 10
569.6122002909593
 20
205.8460244108523
 30
0.0
 11
569.6122002909593
 21
218.8460244108522
 31
0.0
  0
LINE
  5
FC2
330
1F
100
AcDbEntity
  8
10
100
AcDbLine
 10
562.7122002909597
 20
203.8460244108522
 30
0.0
 11
562.7122002909597
 21
220.8460244108522
 31
0.0
  0
LINE
  5
FC3
330
1F
100
AcDbEntity
  8
10
100
AcDbLine
 10
564.3122002909598
 20
203.8460244108522
 30
0.0
 11
564.3122002909598
 21
220.8460244108522
 31
0.0
  0
LINE
  5
FC4
330
1F
100
AcDbEntity
  8
10
100
AcDbLine
 10
569.0305198947512
 20
208.5913011605848
 30
0.0
 11
564.9122002909595
 21
208.5913011605848
 31
0.0
  0
LINE
  5
FC5
330
1F
100
AcDbEntity
  8
10
100
AcDbLine
 10
569.0305198947512
 20
204.8385244108527
 30
0.0
 11
564.9122002909595
 21
204.8385244108527
 31
0.0
  0
LINE
  5
FC6
330
1F
100
AcDbEntity
  8
10
100
AcDbLine
 10
564.9122002909595
 20
206.5310244108522
 30
0.0
 11
564.9122002909595
 21
204.8385244108527
 31
0.0
  0
LINE
  5
FC7
330
1F
100
AcDbEntity
  8
10
100
AcDbLine
 10
564.9122002909595
 20
206.5310244108522
 30
0.0
 11
564.3122002909598
 21
206.5310244108522
 31
0.0
  0
LINE
  5
FC8
330
1F
100
AcDbEntity
  8
10
100
AcDbLine
 10
562.7122002909597
 20
203.8460244108522
 30
0.0
 11
564.3122002909598
 21
203.8460244108522
 31
0.0
  0
LINE
  5
FC9
330
1F
100
AcDbEntity
  8
10
100
AcDbLine
 10
569.0305198947512
 20
204.8385244108527
 30
0.0
 11
569.6122002909593
 21
205.8460244108523
 31
0.0
  0
ARC
  5
FCA
330
1F
100
AcDbEntity
  8
10
100
AcDbCircle
 10
566.2949272301679
 20
206.7149127857187
 30
0.0
 40
3.317273060791828
100
AcDbArc
 50
334.4468723822644
 51
34.44687238227873
  0
LINE
  5
FCB
330
1F
100
AcDbEntity
  8
10
100
AcDbLine
 10
569.0305198947512
 20
219.8535244108525
 30
0.0
 11
564.9122002909595
 21
219.8535244108525
 31
0.0
  0
LINE
  5
FCC
330
1F
100
AcDbEntity
  8
10
100
AcDbLine
 10
569.0305198947512
 20
216.1007476611197
 30
0.0
 11
564.9122002909595
 21
216.1007476611197
 31
0.0
  0
LINE
  5
FCD
330
1F
100
AcDbEntity
  8
10
100
AcDbLine
 10
564.9122002909595
 20
218.1610244108523
 30
0.0
 11
564.3122002909598
 21
218.1610244108523
 31
0.0
  0
LINE
  5
FCE
330
1F
100
AcDbEntity
  8
10
100
AcDbLine
 10
564.9122002909595
 20
219.8535244108525
 30
0.0
 11
564.9122002909595
 21
218.1610244108523
 31
0.0
  0
LINE
  5
FCF
330
1F
100
AcDbEntity
  8
10
100
AcDbLine
 10
564.3122002909598
 20
220.8460244108522
 30
0.0
 11
562.7122002909597
 21
220.8460244108522
 31
0.0
  0
ARC
  5
FD0
330
1F
100
AcDbEntity
  8
10
100
AcDbCircle
 10
566.2949272301679
 20
217.9771360359859
 30
0.0
 40
3.317273060791828
100
AcDbArc
 50
325.5531276177212
 51
25.55312761773556
  0
LINE
  5
FD1
330
1F
100
AcDbEntity
  8
10
100
AcDbLine
 10
569.0305198947512
 20
219.8535244108525
 30
0.0
 11
569.6122002909593
 21
218.8460244108522
 31
0.0
  0
LINE
  5
FD2
330
1F
100
AcDbEntity
  8
10
100
AcDbLine
 10
557.9122002909387
 20
232.3460244108568
 30
0.0
 11
556.4122002909386
 21
232.3460244108568
 31
0.0
  0
LINE
  5
FD3
330
1F
100
AcDbEntity
  8
10
100
AcDbLine
 10
557.9122002909387
 20
232.3460244108568
 30
0.0
 11
561.1122002909385
 21
232.3460244108568
 31
0.0
1001
GENIUS_GENREC_14
1002
{
1000
PYDIR
1011
557.9122002909381
1021
202.8460244108568
1031
0.0
1002
}
1002
{
1000
PXDIR
1011
561.1122002909385
1021
232.3460244108568
1031
0.0
1002
}
1002
{
1000
PORI
1011
557.9122002909387
1021
232.3460244108568
1031
0.0
1002
}
1002
{
1000
PINS
1011
557.9122002909387
1021
232.3460244108568
1031
0.0
1002
}
1002
{
1000
PINS2
1011
561.1122002909385
1021
202.8460244108568
1031
0.0
1002
}
1002
{
1000
C
1070
     1
1002
}
1001
GENIUS_GENODEF_13
1002
{
1000
HIER
1070
     0
1002
}
1002
{
1000
MANEDIT
1070
     0
1002
}
1002
{
1000
NOSEL
1070
     0
1002
}
1002
{
1000
BEHIND
1070
     0
1002
}
1002
{
1000
REACTOR
1002
}
1001
GENIUS_GENOBJ-N-REC_13
1002
{
1000
OWNER
1000
GEN
1002
}
  0
LINE
  5
FD4
330
1F
100
AcDbEntity
  8
10
100
AcDbLine
 10
558.7122002909361
 20
243.3460244108573
 30
0.0
 11
558.7122002909366
 21
240.1460244108574
 31
0.0
  0
LINE
  5
FD5
330
1F
100
AcDbEntity
  8
10
100
AcDbLine
 10
520.7122002909366
 20
235.9367844108565
 30
0.0
 11
521.2029602909366
 21
235.4460244108566
 31
0.0
  0
LINE
  5
FD6
330
1F
100
AcDbEntity
  8
10
100
AcDbLine
 10
525.7122002909365
 20
235.9367844108565
 30
0.0
 11
525.2214402909365
 21
235.4460244108566
 31
0.0
  0
LINE
  5
FD7
330
1F
100
AcDbEntity
  8
10
100
AcDbLine
 10
521.1452130909366
 20
235.5037716108566
 30
0.0
 11
521.1452130909366
 21
240.1460244108566
 31
0.0
  0
LINE
  5
FD8
330
1F
100
AcDbEntity
  8
10
100
AcDbLine
 10
520.7122002909366
 20
240.1460244108566
 30
0.0
 11
520.7122002909366
 21
235.9367844108565
 31
0.0
  0
LINE
  5
FD9
330
1F
100
AcDbEntity
  8
10
100
AcDbLine
 10
525.7122002909365
 20
240.1460244108566
 30
0.0
 11
525.7122002909365
 21
235.9367844108565
 31
0.0
  0
LINE
  5
FDA
330
1F
100
AcDbEntity
  8
10
100
AcDbLine
 10
525.2791874909365
 20
235.5037716108566
 30
0.0
 11
525.2791874909365
 21
240.1460244108566
 31
0.0
  0
LINE
  5
FDB
330
1F
100
AcDbEntity
  8
10
100
AcDbLine
 10
520.7122002909366
 20
235.9367844108565
 30
0.0
 11
525.7122002909365
 21
235.9367844108565
 31
0.0
  0
LINE
  5
FDC
330
1F
100
AcDbEntity
  8
10
100
AcDbLine
 10
521.2029602909366
 20
235.4460244108566
 30
0.0
 11
525.2214402909365
 21
235.4460244108566
 31
0.0
  0
LINE
  5
FDD
330
1F
100
AcDbEntity
  8
12
100
AcDbLine
 10
523.2122002909366
 20
232.6520244108565
 30
0.0
 11
523.2122002909362
 21
242.9400244108565
 31
0.0
1001
GENIUS_GENODEF_13
1002
{
1000
HIER
1070
     0
1002
}
1002
{
1000
MANEDIT
1070
     0
1002
}
1002
{
1000
NOSEL
1070
     0
1002
}
1002
{
1000
BEHIND
1070
     0
1002
}
1002
{
1000
OTHER
1070
     0
1002
}
1002
{
1000
REACTOR
1002
}
1001
GENIUS_GENOBJ-N-CEN_13
1002
{
1000
OWNER
1000
GEN
1002
}
1001
GENIUS_GENCEN_19
1002
{
1040
2.793999999999999
1002
}
  0
LINE
  5
FDE
330
1F
100
AcDbEntity
  8
12
100
AcDbLine
 10
487.4122002909172
 20
54.34002441085663
 30
0.0
 11
487.4122002909149
 21
45.55202441085659
 31
0.0
1001
GENIUS_GENODEF_13
1002
{
1000
HIER
1070
     0
1002
}
1002
{
1000
MANEDIT
1070
     0
1002
}
1002
{
1000
NOSEL
1070
     0
1002
}
1002
{
1000
BEHIND
1070
     0
1002
}
1002
{
1000
OTHER
1070
     0
1002
}
1002
{
1000
REACTOR
1002
}
1001
GENIUS_GENOBJ-N-CEN_13
1002
{
1000
OWNER
1000
GEN
1002
}
1001
GENIUS_GENCEN_19
1002
{
1040
2.793999999999999
1002
}
  0
LINE
  5
FDF
330
1F
100
AcDbEntity
  8
12
100
AcDbLine
 10
577.4122002909158
 20
54.34002441084703
 30
0.0
 11
577.4122002909161
 21
45.55202441084698
 31
0.0
1001
GENIUS_GENODEF_13
1002
{
1000
HIER
1070
     0
1002
}
1002
{
1000
MANEDIT
1070
     0
1002
}
1002
{
1000
NOSEL
1070
     0
1002
}
1002
{
1000
BEHIND
1070
     0
1002
}
1002
{
1000
OTHER
1070
     0
1002
}
1002
{
1000
REACTOR
1002
}
1001
GENIUS_GENOBJ-N-CEN_13
1002
{
1000
OWNER
1000
GEN
1002
}
1001
GENIUS_GENCEN_19
1002
{
1040
2.793999999999999
1002
}
  0
LINE
  5
FE0
330
1F
100
AcDbEntity
  8
10
100
AcDbLine
 10
570.2122002909361
 20
267.3460244108509
 30
0.0
 11
603.9865444971866
 21
267.3460244108509
 31
0.0
  0
ARC
  5
FE1
330
1F
100
AcDbEntity
  8
10
100
AcDbCircle
 10
603.9865444971868
 20
247.3460244108508
 30
0.0
 40
20.00000000000005
100
AcDbArc
 50
328.4735313285017
 51
90.0
  0
LINE
  5
FE2
330
1F
100
AcDbEntity
  8
10
100
AcDbLine
 10
621.0345184389414
 20
236.8881764256648
 30
0.0
 11
592.4838676497405
 21
190.3460244108428
 31
0.0
  0
LINE
  5
FE3
330
1F
100
AcDbEntity
  8
10
100
AcDbLine
 10
291.5167661429028
 20
259.1460244108569
 30
0.0
 11
296.3299274474488
 21
259.1460244108569
 31
0.0
  0
LINE
  5
FE4
330
1F
100
AcDbEntity
  8
10
100
AcDbLine
 10
291.5167661429028
 20
260.4460244108569
 30
0.0
 11
295.8567661429028
 21
260.4460244108569
 31
0.0
  0
LINE
  5
FE5
330
1F
100
AcDbEntity
  8
10
100
AcDbLine
 10
300.7167661429028
 20
259.1460244108569
 30
0.0
 11
300.7167661429028
 21
260.4460244108569
 31
0.0
  0
LINE
  5
FE6
330
1F
100
AcDbEntity
  8
10
100
AcDbLine
 10
296.3767661429028
 20
260.4460244108569
 30
0.0
 11
296.8499274474488
 21
259.1460244108569
 31
0.0
  0
LINE
  5
FE7
330
1F
100
AcDbEntity
  8
10
100
AcDbLine
 10
295.8567661429028
 20
260.4460244108569
 30
0.0
 11
296.3299274474488
 21
259.1460244108569
 31
0.0
  0
LINE
  5
FE8
330
1F
100
AcDbEntity
  8
10
100
AcDbLine
 10
296.3767661429028
 20
260.4460244108569
 30
0.0
 11
300.7167661429028
 21
260.4460244108569
 31
0.0
  0
LINE
  5
FE9
330
1F
100
AcDbEntity
  8
10
100
AcDbLine
 10
296.8499274474488
 20
259.1460244108569
 30
0.0
 11
300.7167661429028
 21
259.1460244108569
 31
0.0
  0
LINE
  5
FEA
330
1F
100
AcDbEntity
  8
10
100
AcDbLine
 10
291.5167661429028
 20
260.4460244108569
 30
0.0
 11
291.5167661429028
 21
259.1460244108569
 31
0.0
  0
LINE
  5
FEB
330
1F
100
AcDbEntity
  8
10
100
AcDbLine
 10
291.4768810290938
 20
261.7046433193319
 30
0.0
 11
291.3667661429028
 21
260.4460244108569
 31
0.0
  0
LINE
  5
FEC
330
1F
100
AcDbEntity
  8
10
100
AcDbLine
 10
300.7566512567119
 20
261.7046433193319
 30
0.0
 11
300.8667661429028
 21
260.4460244108569
 31
0.0
  0
ARC
  5
FED
330
1F
100
AcDbEntity
  8
10
100
AcDbCircle
 10
296.1167661429028
 20
256.1460244108569
 30
0.0
 40
8.0
100
AcDbArc
 50
63.81638228795015
 51
116.1836177120498
  0
ARC
  5
FEE
330
1F
100
AcDbEntity
  8
10
100
AcDbCircle
 10
298.7642618605284
 20
261.5303318338366
 30
0.0
 40
2.0
100
AcDbArc
 50
5.000000000000554
 51
63.81638228795015
  0
LINE
  5
FEF
330
1F
100
AcDbEntity
  8
10
100
AcDbLine
 10
293.5667661429028
 20
263.7287350079982
 30
0.0
 11
296.1167661429028
 21
260.9005411180226
 31
0.0
  0
LINE
  5
FF0
330
1F
100
AcDbEntity
  8
10
100
AcDbLine
 10
295.8052661429028
 20
261.2460244108568
 30
0.0
 11
296.4282661429028
 21
261.2460244108568
 31
0.0
  0
LINE
  5
FF1
330
1F
100
AcDbEntity
  8
10
100
AcDbLine
 10
298.6667661429028
 20
263.7287350079982
 30
0.0
 11
296.1167661429028
 21
260.9005411180226
 31
0.0
  0
LINE
  5
FF2
330
1F
100
AcDbEntity
  8
10
100
AcDbLine
 10
295.8052661429028
 20
264.1399575948408
 30
0.0
 11
295.8052661429028
 21
261.2460244108568
 31
0.0
  0
LINE
  5
FF3
330
1F
100
AcDbEntity
  8
10
100
AcDbLine
 10
296.4282661429028
 20
264.1399575948408
 30
0.0
 11
296.4282661429028
 21
261.2460244108568
 31
0.0
  0
ARC
  5
FF4
330
1F
100
AcDbEntity
  8
10
100
AcDbCircle
 10
293.4692704252772
 20
261.5303318338366
 30
0.0
 40
2.0
100
AcDbArc
 50
116.1836177120498
 51
174.9999999999994
  0
LINE
  5
FF5
330
1F
100
AcDbEntity
  8
10
100
AcDbLine
 10
293.8620161429028
 20
260.4460244108569
 30
0.0
 11
291.3667661429028
 21
260.4460244108569
 31
0.0
  0
LINE
  5
FF6
330
1F
100
AcDbEntity
  8
10
100
AcDbLine
 10
300.8667661429028
 20
260.4460244108569
 30
0.0
 11
298.3715161429028
 21
260.4460244108569
 31
0.0
  0
LINE
  5
FF7
330
1F
100
AcDbEntity
  8
10
100
AcDbLine
 10
298.3715161429028
 20
260.4460244108569
 30
0.0
 11
293.8620161429028
 21
260.4460244108569
 31
0.0
  0
LINE
  5
FF8
330
1F
100
AcDbEntity
  8
10
100
AcDbLine
 10
189.5167661429037
 20
259.1460244108569
 30
0.0
 11
194.3299274474497
 21
259.1460244108569
 31
0.0
  0
LINE
  5
FF9
330
1F
100
AcDbEntity
  8
10
100
AcDbLine
 10
189.5167661429037
 20
260.4460244108569
 30
0.0
 11
193.8567661429037
 21
260.4460244108569
 31
0.0
  0
LINE
  5
FFA
330
1F
100
AcDbEntity
  8
10
100
AcDbLine
 10
198.7167661429037
 20
259.1460244108569
 30
0.0
 11
198.7167661429037
 21
260.4460244108569
 31
0.0
  0
LINE
  5
FFB
330
1F
100
AcDbEntity
  8
10
100
AcDbLine
 10
194.3767661429037
 20
260.4460244108569
 30
0.0
 11
194.8499274474497
 21
259.1460244108569
 31
0.0
  0
LINE
  5
FFC
330
1F
100
AcDbEntity
  8
10
100
AcDbLine
 10
193.8567661429037
 20
260.4460244108569
 30
0.0
 11
194.3299274474497
 21
259.1460244108569
 31
0.0
  0
LINE
  5
FFD
330
1F
100
AcDbEntity
  8
10
100
AcDbLine
 10
194.3767661429037
 20
260.4460244108569
 30
0.0
 11
198.7167661429037
 21
260.4460244108569
 31
0.0
  0
LINE
  5
FFE
330
1F
100
AcDbEntity
  8
10
100
AcDbLine
 10
194.8499274474497
 20
259.1460244108569
 30
0.0
 11
198.7167661429037
 21
259.1460244108569
 31
0.0
  0
LINE
  5
FFF
330
1F
100
AcDbEntity
  8
10
100
AcDbLine
 10
189.5167661429037
 20
260.4460244108569
 30
0.0
 11
189.5167661429037
 21
259.1460244108569
 31
0.0
  0
LINE
  5
1000
330
1F
100
AcDbEntity
  8
10
100
AcDbLine
 10
189.4768810290947
 20
261.7046433193319
 30
0.0
 11
189.3667661429037
 21
260.4460244108569
 31
0.0
  0
LINE
  5
1001
330
1F
100
AcDbEntity
  8
10
100
AcDbLine
 10
198.7566512567128
 20
261.7046433193319
 30
0.0
 11
198.8667661429037
 21
260.4460244108569
 31
0.0
  0
ARC
  5
1002
330
1F
100
AcDbEntity
  8
10
100
AcDbCircle
 10
194.1167661429037
 20
256.1460244108569
 30
0.0
 40
8.0
100
AcDbArc
 50
63.81638228795015
 51
116.1836177120498
  0
ARC
  5
1003
330
1F
100
AcDbEntity
  8
10
100
AcDbCircle
 10
196.7642618605293
 20
261.5303318338366
 30
0.0
 40
2.0
100
AcDbArc
 50
5.000000000000554
 51
63.81638228795015
  0
LINE
  5
1004
330
1F
100
AcDbEntity
  8
10
100
AcDbLine
 10
191.5667661429038
 20
263.7287350079982
 30
0.0
 11
194.1167661429037
 21
260.9005411180226
 31
0.0
  0
LINE
  5
1005
330
1F
100
AcDbEntity
  8
10
100
AcDbLine
 10
193.8052661429037
 20
261.2460244108568
 30
0.0
 11
194.4282661429038
 21
261.2460244108568
 31
0.0
  0
LINE
  5
1006
330
1F
100
AcDbEntity
  8
10
100
AcDbLine
 10
196.6667661429037
 20
263.7287350079982
 30
0.0
 11
194.1167661429037
 21
260.9005411180226
 31
0.0
  0
LINE
  5
1007
330
1F
100
AcDbEntity
  8
10
100
AcDbLine
 10
193.8052661429037
 20
264.1399575948408
 30
0.0
 11
193.8052661429037
 21
261.2460244108568
 31
0.0
  0
LINE
  5
1008
330
1F
100
AcDbEntity
  8
10
100
AcDbLine
 10
194.4282661429038
 20
264.1399575948408
 30
0.0
 11
194.4282661429038
 21
261.2460244108568
 31
0.0
  0
ARC
  5
1009
330
1F
100
AcDbEntity
  8
10
100
AcDbCircle
 10
191.4692704252781
 20
261.5303318338366
 30
0.0
 40
2.0
100
AcDbArc
 50
116.1836177120498
 51
174.9999999999994
  0
LINE
  5
100A
330
1F
100
AcDbEntity
  8
10
100
AcDbLine
 10
191.8620161429038
 20
260.4460244108569
 30
0.0
 11
189.3667661429037
 21
260.4460244108569
 31
0.0
  0
LINE
  5
100B
330
1F
100
AcDbEntity
  8
10
100
AcDbLine
 10
198.8667661429037
 20
260.4460244108569
 30
0.0
 11
196.3715161429037
 21
260.4460244108569
 31
0.0
  0
LINE
  5
100C
330
1F
100
AcDbEntity
  8
10
100
AcDbLine
 10
196.3715161429037
 20
260.4460244108569
 30
0.0
 11
191.8620161429038
 21
260.4460244108569
 31
0.0
  0
LINE
  5
100D
330
1F
100
AcDbEntity
  8
10
100
AcDbLine
 10
87.51676614290335
 20
259.1460244108569
 30
0.0
 11
92.32992744744946
 21
259.1460244108569
 31
0.0
  0
LINE
  5
100E
330
1F
100
AcDbEntity
  8
10
100
AcDbLine
 10
87.51676614290335
 20
260.4460244108569
 30
0.0
 11
91.85676614290338
 21
260.4460244108569
 31
0.0
  0
LINE
  5
100F
330
1F
100
AcDbEntity
  8
10
100
AcDbLine
 10
96.71676614290333
 20
259.1460244108569
 30
0.0
 11
96.71676614290333
 21
260.4460244108569
 31
0.0
  0
LINE
  5
1010
330
1F
100
AcDbEntity
  8
10
100
AcDbLine
 10
92.37676614290336
 20
260.4460244108569
 30
0.0
 11
92.84992744744943
 21
259.1460244108569
 31
0.0
  0
LINE
  5
1011
330
1F
100
AcDbEntity
  8
10
100
AcDbLine
 10
91.85676614290338
 20
260.4460244108569
 30
0.0
 11
92.32992744744946
 21
259.1460244108569
 31
0.0
  0
LINE
  5
1012
330
1F
100
AcDbEntity
  8
10
100
AcDbLine
 10
92.37676614290336
 20
260.4460244108569
 30
0.0
 11
96.71676614290333
 21
260.4460244108569
 31
0.0
  0
LINE
  5
1013
330
1F
100
AcDbEntity
  8
10
100
AcDbLine
 10
92.84992744744943
 20
259.1460244108569
 30
0.0
 11
96.71676614290333
 21
259.1460244108569
 31
0.0
  0
LINE
  5
1014
330
1F
100
AcDbEntity
  8
10
100
AcDbLine
 10
87.51676614290335
 20
260.4460244108569
 30
0.0
 11
87.51676614290335
 21
259.1460244108569
 31
0.0
  0
LINE
  5
1015
330
1F
100
AcDbEntity
  8
10
100
AcDbLine
 10
87.47688102909433
 20
261.7046433193319
 30
0.0
 11
87.36676614290336
 21
260.4460244108569
 31
0.0
  0
LINE
  5
1016
330
1F
100
AcDbEntity
  8
10
100
AcDbLine
 10
96.75665125671242
 20
261.7046433193319
 30
0.0
 11
96.86676614290332
 21
260.4460244108569
 31
0.0
  0
ARC
  5
1017
330
1F
100
AcDbEntity
  8
10
100
AcDbCircle
 10
92.11676614290338
 20
256.1460244108569
 30
0.0
 40
8.0
100
AcDbArc
 50
63.81638228795015
 51
116.1836177120498
  0
ARC
  5
1018
330
1F
100
AcDbEntity
  8
10
100
AcDbCircle
 10
94.7642618605289
 20
261.5303318338366
 30
0.0
 40
2.0
100
AcDbArc
 50
5.000000000000148
 51
63.81638228795015
  0
LINE
  5
1019
330
1F
100
AcDbEntity
  8
10
100
AcDbLine
 10
89.56676614290335
 20
263.7287350079982
 30
0.0
 11
92.11676614290338
 21
260.9005411180226
 31
0.0
  0
LINE
  5
101A
330
1F
100
AcDbEntity
  8
10
100
AcDbLine
 10
91.80526614290341
 20
261.2460244108568
 30
0.0
 11
92.4282661429034
 21
261.2460244108568
 31
0.0
  0
LINE
  5
101B
330
1F
100
AcDbEntity
  8
10
100
AcDbLine
 10
94.66676614290339
 20
263.7287350079982
 30
0.0
 11
92.11676614290338
 21
260.9005411180226
 31
0.0
  0
LINE
  5
101C
330
1F
100
AcDbEntity
  8
10
100
AcDbLine
 10
91.80526614290341
 20
264.1399575948408
 30
0.0
 11
91.80526614290341
 21
261.2460244108568
 31
0.0
  0
LINE
  5
101D
330
1F
100
AcDbEntity
  8
10
100
AcDbLine
 10
92.4282661429034
 20
264.1399575948408
 30
0.0
 11
92.4282661429034
 21
261.2460244108568
 31
0.0
  0
ARC
  5
101E
330
1F
100
AcDbEntity
  8
10
100
AcDbCircle
 10
89.46927042527779
 20
261.5303318338366
 30
0.0
 40
2.0
100
AcDbArc
 50
116.1836177120498
 51
174.9999999999998
  0
LINE
  5
101F
330
1F
100
AcDbEntity
  8
10
100
AcDbLine
 10
89.86201614290337
 20
260.4460244108569
 30
0.0
 11
87.36676614290336
 21
260.4460244108569
 31
0.0
  0
LINE
  5
1020
330
1F
100
AcDbEntity
  8
10
100
AcDbLine
 10
96.86676614290332
 20
260.4460244108569
 30
0.0
 11
94.37151614290337
 21
260.4460244108569
 31
0.0
  0
LINE
  5
1021
330
1F
100
AcDbEntity
  8
10
100
AcDbLine
 10
94.37151614290337
 20
260.4460244108569
 30
0.0
 11
89.86201614290337
 21
260.4460244108569
 31
0.0
  0
LINE
  5
1022
330
1F
100
AcDbEntity
  8
10
100
AcDbLine
 10
534.6122002909361
 20
259.146024410857
 30
0.0
 11
539.4253615954822
 21
259.146024410857
 31
0.0
  0
LINE
  5
1023
330
1F
100
AcDbEntity
  8
10
100
AcDbLine
 10
534.6122002909361
 20
260.446024410857
 30
0.0
 11
538.9522002909362
 21
260.446024410857
 31
0.0
  0
LINE
  5
1024
330
1F
100
AcDbEntity
  8
10
100
AcDbLine
 10
543.8122002909361
 20
259.146024410857
 30
0.0
 11
543.8122002909361
 21
260.446024410857
 31
0.0
  0
LINE
  5
1025
330
1F
100
AcDbEntity
  8
10
100
AcDbLine
 10
539.4722002909361
 20
260.446024410857
 30
0.0
 11
539.9453615954821
 21
259.146024410857
 31
0.0
  0
LINE
  5
1026
330
1F
100
AcDbEntity
  8
10
100
AcDbLine
 10
538.9522002909362
 20
260.446024410857
 30
0.0
 11
539.4253615954822
 21
259.146024410857
 31
0.0
  0
LINE
  5
1027
330
1F
100
AcDbEntity
  8
10
100
AcDbLine
 10
539.4722002909361
 20
260.446024410857
 30
0.0
 11
543.8122002909361
 21
260.446024410857
 31
0.0
  0
LINE
  5
1028
330
1F
100
AcDbEntity
  8
10
100
AcDbLine
 10
539.9453615954821
 20
259.146024410857
 30
0.0
 11
543.8122002909361
 21
259.146024410857
 31
0.0
  0
LINE
  5
1029
330
1F
100
AcDbEntity
  8
10
100
AcDbLine
 10
534.6122002909361
 20
260.446024410857
 30
0.0
 11
534.6122002909361
 21
259.146024410857
 31
0.0
  0
LINE
  5
102A
330
1F
100
AcDbEntity
  8
10
100
AcDbLine
 10
534.5723151771271
 20
261.704643319332
 30
0.0
 11
534.4622002909361
 21
260.446024410857
 31
0.0
  0
LINE
  5
102B
330
1F
100
AcDbEntity
  8
10
100
AcDbLine
 10
543.8520854047452
 20
261.704643319332
 30
0.0
 11
543.9622002909361
 21
260.446024410857
 31
0.0
  0
LINE
  5
102C
330
1F
100
AcDbEntity
  8
12
100
AcDbLine
 10
539.2122002909361
 20
232.4460244108569
 30
0.0
 11
539.2122002909361
 21
267.146024410857
 31
0.0
  0
ARC
  5
102D
330
1F
100
AcDbEntity
  8
10
100
AcDbCircle
 10
539.2122002909361
 20
256.146024410857
 30
0.0
 40
8.0
100
AcDbArc
 50
63.81638228795015
 51
116.1836177120498
  0
ARC
  5
102E
330
1F
100
AcDbEntity
  8
10
100
AcDbCircle
 10
541.8596960085617
 20
261.5303318338367
 30
0.0
 40
2.0
100
AcDbArc
 50
5.000000000000554
 51
63.81638228795015
  0
LINE
  5
102F
330
1F
100
AcDbEntity
  8
10
100
AcDbLine
 10
536.6622002909362
 20
263.7287350079983
 30
0.0
 11
539.2122002909361
 21
260.9005411180226
 31
0.0
  0
LINE
  5
1030
330
1F
100
AcDbEntity
  8
10
100
AcDbLine
 10
538.9007002909361
 20
261.2460244108569
 30
0.0
 11
539.5237002909361
 21
261.2460244108569
 31
0.0
  0
LINE
  5
1031
330
1F
100
AcDbEntity
  8
10
100
AcDbLine
 10
541.7622002909361
 20
263.7287350079983
 30
0.0
 11
539.2122002909361
 21
260.9005411180226
 31
0.0
  0
LINE
  5
1032
330
1F
100
AcDbEntity
  8
10
100
AcDbLine
 10
538.9007002909361
 20
264.1399575948409
 30
0.0
 11
538.9007002909361
 21
261.2460244108569
 31
0.0
  0
LINE
  5
1033
330
1F
100
AcDbEntity
  8
10
100
AcDbLine
 10
539.5237002909361
 20
264.1399575948409
 30
0.0
 11
539.5237002909361
 21
261.2460244108569
 31
0.0
  0
ARC
  5
1034
330
1F
100
AcDbEntity
  8
10
100
AcDbCircle
 10
536.5647045733105
 20
261.5303318338367
 30
0.0
 40
2.0
100
AcDbArc
 50
116.1836177120498
 51
174.9999999999994
  0
LINE
  5
1035
330
1F
100
AcDbEntity
  8
10
100
AcDbLine
 10
536.9574502909362
 20
260.446024410857
 30
0.0
 11
534.4622002909361
 21
260.446024410857
 31
0.0
  0
LINE
  5
1036
330
1F
100
AcDbEntity
  8
10
100
AcDbLine
 10
536.7122002909361
 20
235.9367844108569
 30
0.0
 11
537.2029602909361
 21
235.446024410857
 31
0.0
  0
LINE
  5
1037
330
1F
100
AcDbEntity
  8
10
100
AcDbLine
 10
541.7122002909361
 20
235.9367844108569
 30
0.0
 11
541.2214402909361
 21
235.446024410857
 31
0.0
  0
LINE
  5
1038
330
1F
100
AcDbEntity
  8
10
100
AcDbLine
 10
543.9622002909361
 20
260.446024410857
 30
0.0
 11
541.4669502909361
 21
260.446024410857
 31
0.0
  0
LINE
  5
1039
330
1F
100
AcDbEntity
  8
10
100
AcDbLine
 10
537.1452130909362
 20
235.503771610857
 30
0.0
 11
537.1452130909362
 21
240.146024410857
 31
0.0
  0
LINE
  5
103A
330
1F
100
AcDbEntity
  8
10
100
AcDbLine
 10
536.7122002909361
 20
240.146024410857
 30
0.0
 11
536.7122002909361
 21
235.9367844108569
 31
0.0
  0
LINE
  5
103B
330
1F
100
AcDbEntity
  8
10
100
AcDbLine
 10
541.7122002909361
 20
240.146024410857
 30
0.0
 11
541.7122002909361
 21
235.9367844108569
 31
0.0
  0
LINE
  5
103C
330
1F
100
AcDbEntity
  8
10
100
AcDbLine
 10
541.2791874909362
 20
235.503771610857
 30
0.0
 11
541.2791874909362
 21
240.146024410857
 31
0.0
  0
LINE
  5
103D
330
1F
100
AcDbEntity
  8
10
100
AcDbLine
 10
541.4669502909361
 20
260.446024410857
 30
0.0
 11
536.9574502909362
 21
260.446024410857
 31
0.0
  0
LINE
  5
103E
330
1F
100
AcDbEntity
  8
10
100
AcDbLine
 10
536.7122002909361
 20
235.9367844108569
 30
0.0
 11
541.7122002909361
 21
235.9367844108569
 31
0.0
  0
LINE
  5
103F
330
1F
100
AcDbEntity
  8
10
100
AcDbLine
 10
537.2029602909361
 20
235.446024410857
 30
0.0
 11
541.2214402909361
 21
235.446024410857
 31
0.0
  0
LINE
  5
1040
330
1F
100
AcDbEntity
  8
12
 48
0.5
100
AcDbLine
 10
539.2122002909361
 20
261.8514066395615
 30
0.0
 11
539.2122002909361
 21
240.3035044820477
 31
0.0
1001
GENIUS_GENODEF_13
1002
{
1000
HIER
1070
     0
1002
}
1002
{
1000
MANEDIT
1070
     0
1002
}
1002
{
1000
NOSEL
1070
     0
1002
}
1002
{
1000
BEHIND
1070
     0
1002
}
1002
{
1000
REACTOR
1002
}
1001
GENIUS_GENOBJ-N-CEN_13
1002
{
1000
OWNER
1000
GEN
1002
}
  0
LINE
  5
1041
330
1F
100
AcDbEntity
  8
12
 48
0.5
100
AcDbLine
 10
296.1167661429028
 20
241.1861178751213
 30
0.0
 11
296.1167661429028
 21
260.528569055771
 31
0.0
1001
GENIUS_GENODEF_13
1002
{
1000
HIER
1070
     0
1002
}
1002
{
1000
MANEDIT
1070
     0
1002
}
1002
{
1000
NOSEL
1070
     0
1002
}
1002
{
1000
BEHIND
1070
     0
1002
}
1002
{
1000
REACTOR
1002
}
1001
GENIUS_GENOBJ-N-CEN_13
1002
{
1000
OWNER
1000
GEN
1002
}
  0
LINE
  5
1042
330
1F
100
AcDbEntity
  8
12
 48
0.5
100
AcDbLine
 10
194.1167661429028
 20
241.1861178751213
 30
0.0
 11
194.1167661429028
 21
260.528569055771
 31
0.0
1001
GENIUS_GENODEF_13
1002
{
1000
HIER
1070
     0
1002
}
1002
{
1000
MANEDIT
1070
     0
1002
}
1002
{
1000
NOSEL
1070
     0
1002
}
1002
{
1000
BEHIND
1070
     0
1002
}
1002
{
1000
REACTOR
1002
}
1001
GENIUS_GENOBJ-N-CEN_13
1002
{
1000
OWNER
1000
GEN
1002
}
  0
LINE
  5
1043
330
1F
100
AcDbEntity
  8
12
 48
0.5
100
AcDbLine
 10
194.1167661429033
 20
241.1861178751273
 30
0.0
 11
194.1167661429033
 21
260.528569055777
 31
0.0
1001
GENIUS_GENODEF_13
1002
{
1000
HIER
1070
     0
1002
}
1002
{
1000
MANEDIT
1070
     0
1002
}
1002
{
1000
NOSEL
1070
     0
1002
}
1002
{
1000
BEHIND
1070
     0
1002
}
1002
{
1000
REACTOR
1002
}
1001
GENIUS_GENOBJ-N-CEN_13
1002
{
1000
OWNER
1000
GEN
1002
}
  0
LINE
  5
1044
330
1F
100
AcDbEntity
  8
12
 48
0.5
100
AcDbLine
 10
92.11676614290331
 20
241.1861178751273
 30
0.0
 11
92.11676614290331
 21
260.528569055777
 31
0.0
1001
GENIUS_GENODEF_13
1002
{
1000
HIER
1070
     0
1002
}
1002
{
1000
MANEDIT
1070
     0
1002
}
1002
{
1000
NOSEL
1070
     0
1002
}
1002
{
1000
BEHIND
1070
     0
1002
}
1002
{
1000
REACTOR
1002
}
1001
GENIUS_GENOBJ-N-CEN_13
1002
{
1000
OWNER
1000
GEN
1002
}
  0
LINE
  5
1045
330
1F
100
AcDbEntity
  8
10
100
AcDbLine
 10
325.6167661428924
 20
51.54602441085991
 30
0.0
 11
325.6167661428918
 21
48.34602441086008
 31
0.0
  0
LINE
  5
1046
330
1F
100
AcDbEntity
  8
12
100
AcDbLine
 10
321.6167661428918
 20
53.34602441086008
 30
0.0
 11
321.6167661428918
 21
45.34602441086053
 31
0.0
  0
LINE
  5
1047
330
1F
100
AcDbEntity
  8
10
100
AcDbLine
 10
508.4122002909332
 20
192.3460244108568
 30
0.0
 11
556.4122002909329
 21
192.3460244108568
 31
0.0
  0
LINE
  5
1048
330
1F
100
AcDbEntity
  8
10
100
AcDbLine
 10
556.4122002909377
 20
191.3460244108414
 30
0.0
 11
508.4122002909332
 21
191.3460244108414
 31
0.0
  0
LINE
  5
1049
330
1F
100
AcDbEntity
  8
10
100
AcDbLine
 10
556.4122002909312
 20
91.3460244108546
 30
0.0
 11
508.4122002909277
 21
91.34602441085551
 31
0.0
  0
LINE
  5
104A
330
1F
100
AcDbEntity
  8
10
100
AcDbLine
 10
508.4122002909277
 20
92.34602441085602
 30
0.0
 11
556.4122002909305
 21
92.3460244108555
 31
0.0
  0
LINE
  5
104B
330
1F
100
AcDbEntity
  8
10
100
AcDbLine
 10
602.4122002909374
 20
190.3460244108428
 30
0.0
 11
477.4122002909213
 21
190.3460244108428
 31
0.0
1001
GENIUS_GENREC_14
1002
{
1000
PYDIR
1011
602.4122002909374
1021
93.34602441085053
1031
0.0
1002
}
1002
{
1000
PXDIR
1011
477.4122002909213
1021
190.3460244108428
1031
0.0
1002
}
1002
{
1000
PORI
1011
602.4122002909374
1021
190.3460244108428
1031
0.0
1002
}
1002
{
1000
PINS
1011
602.4122002909374
1021
190.3460244108428
1031
0.0
1002
}
1002
{
1000
PINS2
1011
477.4122002909213
1021
93.34602441085053
1031
0.0
1002
}
1002
{
1000
C
1070
     1
1002
}
1001
GENIUS_GENODEF_13
1002
{
1000
HIER
1070
     0
1002
}
1002
{
1000
MANEDIT
1070
     0
1002
}
1002
{
1000
NOSEL
1070
     0
1002
}
1002
{
1000
BEHIND
1070
     0
1002
}
1002
{
1000
OTHER
1070
     0
1002
}
1002
{
1000
REACTOR
1002
}
1001
GENIUS_GENOBJ-N-REC_13
1002
{
1000
OWNER
1000
GEN
1002
}
  0
LINE
  5
104C
330
1F
100
AcDbEntity
  8
10
100
AcDbLine
 10
477.4122002909213
 20
190.3460244108428
 30
0.0
 11
477.4122002909213
 21
93.34602441085053
 31
0.0
1001
GENIUS_GENREC_14
1002
{
1000
PYDIR
1011
602.4122002909374
1021
93.34602441085053
1031
0.0
1002
}
1002
{
1000
PXDIR
1011
477.4122002909213
1021
190.3460244108428
1031
0.0
1002
}
1002
{
1000
PORI
1011
602.4122002909374
1021
190.3460244108428
1031
0.0
1002
}
1002
{
1000
PINS
1011
602.4122002909374
1021
190.3460244108428
1031
0.0
1002
}
1002
{
1000
PINS2
1011
477.4122002909213
1021
93.34602441085053
1031
0.0
1002
}
1002
{
1000
C
1070
     1
1002
}
1001
GENIUS_GENODEF_13
1002
{
1000
HIER
1070
     0
1002
}
1002
{
1000
MANEDIT
1070
     0
1002
}
1002
{
1000
NOSEL
1070
     0
1002
}
1002
{
1000
BEHIND
1070
     0
1002
}
1002
{
1000
OTHER
1070
     0
1002
}
1002
{
1000
REACTOR
1002
}
1001
GENIUS_GENOBJ-N-REC_13
1002
{
1000
OWNER
1000
GEN
1002
}
  0
LINE
  5
104D
330
1F
100
AcDbEntity
  8
10
100
AcDbLine
 10
477.4122002909213
 20
93.34602441085053
 30
0.0
 11
602.4122002909374
 21
93.34602441085053
 31
0.0
1001
GENIUS_GENREC_14
1002
{
1000
PYDIR
1011
602.4122002909374
1021
93.34602441085053
1031
0.0
1002
}
1002
{
1000
PXDIR
1011
477.4122002909213
1021
190.3460244108428
1031
0.0
1002
}
1002
{
1000
PORI
1011
602.4122002909374
1021
190.3460244108428
1031
0.0
1002
}
1002
{
1000
PINS
1011
602.4122002909374
1021
190.3460244108428
1031
0.0
1002
}
1002
{
1000
PINS2
1011
477.4122002909213
1021
93.34602441085053
1031
0.0
1002
}
1002
{
1000
C
1070
     1
1002
}
1001
GENIUS_GENODEF_13
1002
{
1000
HIER
1070
     0
1002
}
1002
{
1000
MANEDIT
1070
     0
1002
}
1002
{
1000
NOSEL
1070
     0
1002
}
1002
{
1000
BEHIND
1070
     0
1002
}
1002
{
1000
OTHER
1070
     0
1002
}
1002
{
1000
REACTOR
1002
}
1001
GENIUS_GENOBJ-N-REC_13
1002
{
1000
OWNER
1000
GEN
1002
}
  0
LINE
  5
104E
330
1F
100
AcDbEntity
  8
10
100
AcDbLine
 10
602.4122002909374
 20
93.34602441085053
 30
0.0
 11
602.4122002909374
 21
190.3460244108428
 31
0.0
1001
GENIUS_GENREC_14
1002
{
1000
PYDIR
1011
602.4122002909374
1021
93.34602441085053
1031
0.0
1002
}
1002
{
1000
PXDIR
1011
477.4122002909213
1021
190.3460244108428
1031
0.0
1002
}
1002
{
1000
PORI
1011
602.4122002909374
1021
190.3460244108428
1031
0.0
1002
}
1002
{
1000
PINS
1011
602.4122002909374
1021
190.3460244108428
1031
0.0
1002
}
1002
{
1000
PINS2
1011
477.4122002909213
1021
93.34602441085053
1031
0.0
1002
}
1002
{
1000
C
1070
     1
1002
}
1001
GENIUS_GENODEF_13
1002
{
1000
HIER
1070
     0
1002
}
1002
{
1000
MANEDIT
1070
     0
1002
}
1002
{
1000
NOSEL
1070
     0
1002
}
1002
{
1000
BEHIND
1070
     0
1002
}
1002
{
1000
OTHER
1070
     0
1002
}
1002
{
1000
REACTOR
1002
}
1001
GENIUS_GENOBJ-N-REC_13
1002
{
1000
OWNER
1000
GEN
1002
}
  0
LINE
  5
104F
330
1F
100
AcDbEntity
  8
12
100
AcDbLine
 10
263.8172126434457
 20
212.3460244108568
 30
0.0
 11
284.4163196423753
 21
212.3460244108568
 31
0.0
  0
LINE
  5
1050
330
1F
100
AcDbEntity
  8
10
100
AcDbLine
 10
267.6167661429107
 20
208.5932476611242
 30
0.0
 11
274.1167661429104
 21
204.8404709113914
 31
0.0
  0
LINE
  5
1051
330
1F
100
AcDbEntity
  8
10
100
AcDbLine
 10
274.1167661429104
 20
204.8404709113914
 30
0.0
 11
280.6167661429105
 21
208.5932476611238
 31
0.0
  0
LINE
  5
1052
330
1F
100
AcDbEntity
  8
10
100
AcDbLine
 10
280.6167661429105
 20
208.5932476611238
 30
0.0
 11
280.6167661429105
 21
216.0988011605891
 31
0.0
  0
LINE
  5
1053
330
1F
100
AcDbEntity
  8
10
100
AcDbLine
 10
280.6167661429105
 20
216.0988011605891
 30
0.0
 11
274.1167661429104
 21
219.8515779103217
 31
0.0
  0
LINE
  5
1054
330
1F
100
AcDbEntity
  8
10
100
AcDbLine
 10
274.1167661429104
 20
219.8515779103217
 30
0.0
 11
267.6167661429107
 21
216.0988011605896
 31
0.0
  0
LINE
  5
1055
330
1F
100
AcDbEntity
  8
10
100
AcDbLine
 10
267.6167661429107
 20
216.0988011605896
 30
0.0
 11
267.6167661429107
 21
208.5932476611242
 31
0.0
  0
CIRCLE
  5
1056
330
1F
100
AcDbEntity
  8
10
100
AcDbCircle
 10
274.1167661429104
 20
212.3460244108568
 30
0.0
 40
6.5
  0
LINE
  5
1057
330
1F
100
AcDbEntity
  8
12
100
AcDbLine
 10
274.1167661429104
 20
222.6455779103218
 30
0.0
 11
274.1167661429104
 21
202.046470911392
 31
0.0
  0
CIRCLE
  5
1058
330
1F
100
AcDbEntity
  8
10
100
AcDbCircle
 10
274.1167661429104
 20
212.3460244108568
 30
0.0
 40
8.5
  0
LINE
  5
1059
330
1F
100
AcDbEntity
  8
12
100
AcDbLine
 10
262.8227661429105
 20
212.3460244108568
 30
0.0
 11
285.4107661429104
 21
212.3460244108568
 31
0.0
  0
LINE
  5
105A
330
1F
100
AcDbEntity
  8
12
100
AcDbLine
 10
274.1167661429104
 20
223.6400244108569
 30
0.0
 11
274.1167661429104
 21
201.0520244108568
 31
0.0
  0
CIRCLE
  5
105C
330
1F
100
AcDbEntity
  8
10
100
AcDbCircle
 10
274.1167661429104
 20
212.3460244108568
 30
0.0
 40
3.999999999999998
  0
LINE
  5
105D
330
1F
100
AcDbEntity
  8
12
100
AcDbLine
 10
267.3227661429105
 20
212.3460244108568
 30
0.0
 11
280.9107661429104
 21
212.3460244108568
 31
0.0
  0
LINE
  5
105E
330
1F
100
AcDbEntity
  8
12
100
AcDbLine
 10
274.1167661429104
 20
219.1400244108568
 30
0.0
 11
274.1167661429104
 21
205.5520244108568
 31
0.0
  0
LINE
  5
105F
330
1F
100
AcDbEntity
  8
10
100
AcDbLine
 10
294.1167661429005
 20
200.3460244108568
 30
0.0
 11
294.1167661429005
 21
190.3460244108428
 31
0.0
  0
LINE
  5
1060
330
1F
100
AcDbEntity
  8
12
100
AcDbLine
 10
183.8172126434365
 20
212.3460244108568
 30
0.0
 11
204.4163196423662
 21
212.3460244108568
 31
0.0
  0
LINE
  5
1061
330
1F
100
AcDbEntity
  8
10
100
AcDbLine
 10
187.6167661429013
 20
208.5932476611242
 30
0.0
 11
194.1167661429014
 21
204.8404709113914
 31
0.0
  0
LINE
  5
1062
330
1F
100
AcDbEntity
  8
10
100
AcDbLine
 10
194.1167661429014
 20
204.8404709113914
 30
0.0
 11
200.6167661429013
 21
208.5932476611238
 31
0.0
  0
LINE
  5
1063
330
1F
100
AcDbEntity
  8
10
100
AcDbLine
 10
200.6167661429013
 20
208.5932476611238
 30
0.0
 11
200.6167661429013
 21
216.0988011605891
 31
0.0
  0
LINE
  5
1064
330
1F
100
AcDbEntity
  8
10
100
AcDbLine
 10
200.6167661429013
 20
216.0988011605891
 30
0.0
 11
194.1167661429014
 21
219.8515779103217
 31
0.0
  0
LINE
  5
1065
330
1F
100
AcDbEntity
  8
10
100
AcDbLine
 10
194.1167661429014
 20
219.8515779103217
 30
0.0
 11
187.6167661429013
 21
216.0988011605896
 31
0.0
  0
LINE
  5
1066
330
1F
100
AcDbEntity
  8
10
100
AcDbLine
 10
187.6167661429013
 20
216.0988011605896
 30
0.0
 11
187.6167661429013
 21
208.5932476611242
 31
0.0
  0
CIRCLE
  5
1067
330
1F
100
AcDbEntity
  8
10
100
AcDbCircle
 10
194.1167661429014
 20
212.3460244108568
 30
0.0
 40
6.5
  0
LINE
  5
1068
330
1F
100
AcDbEntity
  8
12
100
AcDbLine
 10
194.1167661429014
 20
222.6455779103218
 30
0.0
 11
194.1167661429014
 21
202.046470911392
 31
0.0
  0
CIRCLE
  5
1069
330
1F
100
AcDbEntity
  8
10
100
AcDbCircle
 10
194.1167661429014
 20
212.3460244108568
 30
0.0
 40
8.5
  0
LINE
  5
106A
330
1F
100
AcDbEntity
  8
12
100
AcDbLine
 10
182.8227661429015
 20
212.3460244108568
 30
0.0
 11
205.4107661429013
 21
212.3460244108568
 31
0.0
  0
LINE
  5
106B
330
1F
100
AcDbEntity
  8
12
100
AcDbLine
 10
194.1167661429014
 20
223.6400244108569
 30
0.0
 11
194.1167661429014
 21
201.0520244108568
 31
0.0
  0
CIRCLE
  5
106D
330
1F
100
AcDbEntity
  8
10
100
AcDbCircle
 10
194.1167661429014
 20
212.3460244108568
 30
0.0
 40
3.999999999999998
  0
LINE
  5
106E
330
1F
100
AcDbEntity
  8
12
100
AcDbLine
 10
187.3227661429015
 20
212.3460244108568
 30
0.0
 11
200.9107661429013
 21
212.3460244108568
 31
0.0
  0
LINE
  5
106F
330
1F
100
AcDbEntity
  8
12
100
AcDbLine
 10
194.1167661429014
 20
219.1400244108568
 30
0.0
 11
194.1167661429014
 21
205.5520244108568
 31
0.0
  0
LINE
  5
1070
330
1F
100
AcDbEntity
  8
10
100
AcDbLine
 10
174.1167661429005
 20
190.3460244108428
 30
0.0
 11
174.1167661429005
 21
191.3460244108483
 31
0.0
  0
LINE
  5
1071
330
1F
100
AcDbEntity
  8
10
100
AcDbLine
 10
174.1167661429005
 20
191.3460244108483
 30
0.0
 11
134.1167661429132
 21
191.3460244108596
 31
0.0
  0
LINE
  5
1072
330
1F
100
AcDbEntity
  8
10
100
AcDbLine
 10
134.1167661429132
 20
191.3460244108596
 30
0.0
 11
134.116766142911
 21
190.3460244108428
 31
0.0
  0
LINE
  5
1073
330
1F
100
AcDbEntity
  8
10
100
AcDbLine
 10
194.1167661429033
 20
243.3460244108569
 30
0.0
 11
304.1167661429033
 21
243.3460244108569
 31
0.0
1001
GENIUS_GENOREF_13
1005
0
1005
0
  0
LINE
  5
1074
330
1F
100
AcDbEntity
  8
10
100
AcDbLine
 10
304.1167661429033
 20
243.3460244108569
 30
0.0
 11
304.1167661429005
 21
200.3460244108568
 31
0.0
1001
GENIUS_GENOREF_13
1005
0
1005
0
  0
LINE
  5
1075
330
1F
100
AcDbEntity
  8
10
100
AcDbLine
 10
304.1167661429005
 20
200.3460244108568
 30
0.0
 11
194.1167661429
 21
200.3460244108568
 31
0.0
1001
GENIUS_GENOREF_13
1005
0
1005
0
  0
LINE
  5
1076
330
1F
100
AcDbEntity
  8
10
100
AcDbLine
 10
214.1167661429006
 20
190.3460244108428
 30
0.0
 11
214.1167661429006
 21
191.3460244108428
 31
0.0
  0
LINE
  5
1077
330
1F
100
AcDbEntity
  8
10
100
AcDbLine
 10
214.1167661429006
 20
191.3460244108428
 30
0.0
 11
254.1167661428996
 21
191.3460244108428
 31
0.0
  0
LINE
  5
1078
330
1F
100
AcDbEntity
  8
10
100
AcDbLine
 10
254.1167661428996
 20
191.3460244108428
 30
0.0
 11
254.116766142901
 21
190.3460244108428
 31
0.0
  0
LINE
  5
1079
330
1F
100
AcDbEntity
  8
10
100
AcDbLine
 10
194.1167661429009
 20
192.3460244108568
 30
0.0
 11
294.1167661429001
 21
192.3460244108568
 31
0.0
  0
LINE
  5
107A
330
1F
100
AcDbEntity
  8
10
100
AcDbLine
 10
294.1167661429005
 20
191.3460244108428
 30
0.0
 11
194.1167661429005
 21
191.3460244108428
 31
0.0
  0
LINE
  5
107B
330
1F
100
AcDbEntity
  8
10
100
AcDbLine
 10
294.1167661428938
 20
93.33768300264001
 30
0.0
 11
294.1167661428938
 21
88.3460244108555
 31
0.0
  0
LINE
  5
107C
330
1F
100
AcDbEntity
  8
10
100
AcDbLine
 10
317.6167661428918
 20
51.54602441085991
 30
0.0
 11
317.6167661428918
 21
48.34602441086008
 31
0.0
  0
LINE
  5
107D
330
1F
100
AcDbEntity
  8
10
100
AcDbLine
 10
254.1167661429005
 20
93.3460244108528
 30
0.0
 11
254.116766142901
 21
92.34602441085602
 31
0.0
  0
LINE
  5
107E
330
1F
100
AcDbEntity
  8
12
100
AcDbLine
 10
263.8172126434457
 20
71.34602441085277
 30
0.0
 11
284.4163196423753
 21
71.34602441085277
 31
0.0
  0
LINE
  5
107F
330
1F
100
AcDbEntity
  8
10
100
AcDbLine
 10
267.61676614291
 20
67.59324766112013
 30
0.0
 11
274.1167661429101
 21
63.84047091138747
 31
0.0
  0
LINE
  5
1080
330
1F
100
AcDbEntity
  8
10
100
AcDbLine
 10
274.1167661429101
 20
63.84047091138747
 30
0.0
 11
280.6167661429101
 21
67.59324766112013
 31
0.0
  0
LINE
  5
1081
330
1F
100
AcDbEntity
  8
10
100
AcDbLine
 10
280.6167661429101
 20
67.59324766112013
 30
0.0
 11
280.6167661429101
 21
75.09880116058548
 31
0.0
  0
LINE
  5
1082
330
1F
100
AcDbEntity
  8
10
100
AcDbLine
 10
280.6167661429101
 20
75.09880116058548
 30
0.0
 11
274.1167661429104
 21
78.85157791031772
 31
0.0
  0
LINE
  5
1083
330
1F
100
AcDbEntity
  8
10
100
AcDbLine
 10
274.1167661429104
 20
78.85157791031772
 30
0.0
 11
267.61676614291
 21
75.09880116058548
 31
0.0
  0
LINE
  5
1084
330
1F
100
AcDbEntity
  8
10
100
AcDbLine
 10
267.61676614291
 20
75.09880116058548
 30
0.0
 11
267.61676614291
 21
67.59324766112013
 31
0.0
  0
CIRCLE
  5
1085
330
1F
100
AcDbEntity
  8
10
100
AcDbCircle
 10
274.1167661429101
 20
71.34602441085277
 30
0.0
 40
6.5
  0
LINE
  5
1086
330
1F
100
AcDbEntity
  8
12
100
AcDbLine
 10
274.1167661429101
 20
81.64557791031811
 30
0.0
 11
274.1167661429101
 21
61.04647091138747
 31
0.0
  0
CIRCLE
  5
1087
330
1F
100
AcDbEntity
  8
10
100
AcDbCircle
 10
274.1167661429101
 20
71.34602441085277
 30
0.0
 40
8.5
  0
LINE
  5
1088
330
1F
100
AcDbEntity
  8
12
100
AcDbLine
 10
262.8227661429105
 20
71.34602441085277
 30
0.0
 11
285.4107661429104
 21
71.34602441085277
 31
0.0
  0
LINE
  5
1089
330
1F
100
AcDbEntity
  8
12
100
AcDbLine
 10
274.1167661429101
 20
82.64002441085281
 30
0.0
 11
274.1167661429101
 21
60.05202441085283
 31
0.0
  0
CIRCLE
  5
108B
330
1F
100
AcDbEntity
  8
10
100
AcDbCircle
 10
274.1167661429101
 20
71.34602441085277
 30
0.0
 40
3.999999999999998
  0
LINE
  5
108C
330
1F
100
AcDbEntity
  8
12
100
AcDbLine
 10
267.3227661429105
 20
71.34602441085277
 30
0.0
 11
280.9107661429104
 21
71.34602441085277
 31
0.0
  0
LINE
  5
108D
330
1F
100
AcDbEntity
  8
12
100
AcDbLine
 10
274.1167661429101
 20
78.14002441085282
 30
0.0
 11
274.1167661429101
 21
64.5520244108528
 31
0.0
  0
LINE
  5
108E
330
1F
100
AcDbEntity
  8
10
100
AcDbLine
 10
214.1167661428951
 20
92.34602441085602
 30
0.0
 11
214.1167661428951
 21
93.34602441085511
 31
0.0
  0
LINE
  5
108F
330
1F
100
AcDbEntity
  8
12
100
AcDbLine
 10
183.8172126434284
 20
71.34602441085277
 30
0.0
 11
204.4163196423582
 21
71.34602441085277
 31
0.0
  0
LINE
  5
1090
330
1F
100
AcDbEntity
  8
10
100
AcDbLine
 10
187.6167661428933
 20
67.59324766112013
 30
0.0
 11
194.1167661428933
 21
63.84047091138747
 31
0.0
  0
LINE
  5
1091
330
1F
100
AcDbEntity
  8
10
100
AcDbLine
 10
194.1167661428933
 20
63.84047091138747
 30
0.0
 11
200.6167661428932
 21
67.59324766112013
 31
0.0
  0
LINE
  5
1092
330
1F
100
AcDbEntity
  8
10
100
AcDbLine
 10
200.6167661428932
 20
67.59324766112013
 30
0.0
 11
200.6167661428932
 21
75.09880116058548
 31
0.0
  0
LINE
  5
1093
330
1F
100
AcDbEntity
  8
10
100
AcDbLine
 10
200.6167661428932
 20
75.09880116058548
 30
0.0
 11
194.1167661428933
 21
78.85157791031772
 31
0.0
  0
LINE
  5
1094
330
1F
100
AcDbEntity
  8
10
100
AcDbLine
 10
194.1167661428933
 20
78.85157791031772
 30
0.0
 11
187.6167661428933
 21
75.09880116058548
 31
0.0
  0
LINE
  5
1095
330
1F
100
AcDbEntity
  8
10
100
AcDbLine
 10
187.6167661428933
 20
75.09880116058548
 30
0.0
 11
187.6167661428933
 21
67.59324766112013
 31
0.0
  0
CIRCLE
  5
1096
330
1F
100
AcDbEntity
  8
10
100
AcDbCircle
 10
194.1167661428933
 20
71.34602441085277
 30
0.0
 40
6.5
  0
LINE
  5
1097
330
1F
100
AcDbEntity
  8
12
100
AcDbLine
 10
194.1167661428933
 20
81.64557791031811
 30
0.0
 11
194.1167661428933
 21
61.04647091138747
 31
0.0
  0
CIRCLE
  5
1098
330
1F
100
AcDbEntity
  8
10
100
AcDbCircle
 10
194.1167661428933
 20
71.34602441085277
 30
0.0
 40
8.5
  0
LINE
  5
1099
330
1F
100
AcDbEntity
  8
12
100
AcDbLine
 10
182.8227661428933
 20
71.34602441085277
 30
0.0
 11
205.4107661428933
 21
71.34602441085277
 31
0.0
  0
LINE
  5
109A
330
1F
100
AcDbEntity
  8
12
100
AcDbLine
 10
194.1167661428933
 20
82.64002441085281
 30
0.0
 11
194.1167661428933
 21
60.05202441085283
 31
0.0
  0
CIRCLE
  5
109C
330
1F
100
AcDbEntity
  8
10
100
AcDbCircle
 10
194.1167661428933
 20
71.34602441085277
 30
0.0
 40
3.999999999999998
  0
LINE
  5
109D
330
1F
100
AcDbEntity
  8
12
100
AcDbLine
 10
187.3227661428933
 20
71.34602441085277
 30
0.0
 11
200.9107661428933
 21
71.34602441085277
 31
0.0
  0
LINE
  5
109E
330
1F
100
AcDbEntity
  8
12
100
AcDbLine
 10
194.1167661428933
 20
78.14002441085282
 30
0.0
 11
194.1167661428933
 21
64.5520244108528
 31
0.0
  0
LINE
  5
109F
330
1F
100
AcDbEntity
  8
10
100
AcDbLine
 10
174.1167661428951
 20
92.34602441085602
 30
0.0
 11
174.1167661428954
 21
93.34602441085511
 31
0.0
  0
LINE
  5
10A0
330
1F
100
AcDbEntity
  8
10
100
AcDbLine
 10
134.116766142901
 20
93.34602441085511
 30
0.0
 11
134.116766142901
 21
92.3460244108555
 31
0.0
  0
LINE
  5
10A1
330
1F
100
AcDbEntity
  8
10
100
AcDbLine
 10
160.1167661428946
 20
93.34602441085511
 30
0.0
 11
228.1167661429
 21
93.34602441085511
 31
0.0
1001
GENIUS_GENREC_14
1002
{
1000
PYDIR
1011
160.1167661428946
1021
190.3460244108428
1031
0.0
1002
}
1002
{
1000
PXDIR
1011
228.1167661429
1021
93.34602441085511
1031
0.0
1002
}
1002
{
1000
PORI
1011
160.1167661428946
1021
93.34602441085511
1031
0.0
1002
}
1002
{
1000
PINS
1011
160.1167661428946
1021
93.34602441085511
1031
0.0
1002
}
1002
{
1000
PINS2
1011
228.1167661429
1021
190.3460244108428
1031
0.0
1002
}
1002
{
1000
C
1070
     1
1002
}
1001
GENIUS_GENOBJ-N-REC_13
1002
{
1000
OWNER
1000
GEN
1002
}
1001
GENIUS_GENODEF_13
1002
{
1000
HIER
1070
     0
1002
}
1002
{
1000
MANEDIT
1070
     0
1002
}
1002
{
1000
NOSEL
1070
     0
1002
}
1002
{
1000
BEHIND
1070
     0
1002
}
1002
{
1000
OTHER
1070
     0
1002
}
1002
{
1000
REACTOR
1002
}
  0
LINE
  5
10A2
330
1F
100
AcDbEntity
  8
10
100
AcDbLine
 10
228.1167661429
 20
93.34602441085511
 30
0.0
 11
228.1167661429
 21
190.3460244108428
 31
0.0
1001
GENIUS_GENREC_14
1002
{
1000
PYDIR
1011
160.1167661428946
1021
190.3460244108428
1031
0.0
1002
}
1002
{
1000
PXDIR
1011
228.1167661429
1021
93.34602441085511
1031
0.0
1002
}
1002
{
1000
PORI
1011
160.1167661428946
1021
93.34602441085511
1031
0.0
1002
}
1002
{
1000
PINS
1011
160.1167661428946
1021
93.34602441085511
1031
0.0
1002
}
1002
{
1000
PINS2
1011
228.1167661429
1021
190.3460244108428
1031
0.0
1002
}
1002
{
1000
C
1070
     1
1002
}
1001
GENIUS_GENOBJ-N-REC_13
1002
{
1000
OWNER
1000
GEN
1002
}
1001
GENIUS_GENODEF_13
1002
{
1000
HIER
1070
     0
1002
}
1002
{
1000
MANEDIT
1070
     0
1002
}
1002
{
1000
NOSEL
1070
     0
1002
}
1002
{
1000
BEHIND
1070
     0
1002
}
1002
{
1000
OTHER
1070
     0
1002
}
1002
{
1000
REACTOR
1002
}
  0
LINE
  5
10A3
330
1F
100
AcDbEntity
  8
10
100
AcDbLine
 10
228.1167661429
 20
190.3460244108428
 30
0.0
 11
160.1167661428946
 21
190.3460244108428
 31
0.0
1001
GENIUS_GENREC_14
1002
{
1000
PYDIR
1011
160.1167661428946
1021
190.3460244108428
1031
0.0
1002
}
1002
{
1000
PXDIR
1011
228.1167661429
1021
93.34602441085511
1031
0.0
1002
}
1002
{
1000
PORI
1011
160.1167661428946
1021
93.34602441085511
1031
0.0
1002
}
1002
{
1000
PINS
1011
160.1167661428946
1021
93.34602441085511
1031
0.0
1002
}
1002
{
1000
PINS2
1011
228.1167661429
1021
190.3460244108428
1031
0.0
1002
}
1002
{
1000
C
1070
     1
1002
}
1001
GENIUS_GENOBJ-N-REC_13
1002
{
1000
OWNER
1000
GEN
1002
}
1001
GENIUS_GENODEF_13
1002
{
1000
HIER
1070
     0
1002
}
1002
{
1000
MANEDIT
1070
     0
1002
}
1002
{
1000
NOSEL
1070
     0
1002
}
1002
{
1000
BEHIND
1070
     0
1002
}
1002
{
1000
OTHER
1070
     0
1002
}
1002
{
1000
REACTOR
1002
}
  0
LINE
  5
10A4
330
1F
100
AcDbEntity
  8
10
100
AcDbLine
 10
160.1167661428946
 20
190.3460244108428
 30
0.0
 11
160.1167661428946
 21
93.34602441085511
 31
0.0
1001
GENIUS_GENREC_14
1002
{
1000
PYDIR
1011
160.1167661428946
1021
190.3460244108428
1031
0.0
1002
}
1002
{
1000
PXDIR
1011
228.1167661429
1021
93.34602441085511
1031
0.0
1002
}
1002
{
1000
PORI
1011
160.1167661428946
1021
93.34602441085511
1031
0.0
1002
}
1002
{
1000
PINS
1011
160.1167661428946
1021
93.34602441085511
1031
0.0
1002
}
1002
{
1000
PINS2
1011
228.1167661429
1021
190.3460244108428
1031
0.0
1002
}
1002
{
1000
C
1070
     1
1002
}
1001
GENIUS_GENOBJ-N-REC_13
1002
{
1000
OWNER
1000
GEN
1002
}
1001
GENIUS_GENODEF_13
1002
{
1000
HIER
1070
     0
1002
}
1002
{
1000
MANEDIT
1070
     0
1002
}
1002
{
1000
NOSEL
1070
     0
1002
}
1002
{
1000
BEHIND
1070
     0
1002
}
1002
{
1000
OTHER
1070
     0
1002
}
1002
{
1000
REACTOR
1002
}
  0
LINE
  5
10A5
330
1F
100
AcDbEntity
  8
10
100
AcDbLine
 10
240.1167661429101
 20
190.3460244108428
 30
0.0
 11
308.1167661429105
 21
190.3460244108428
 31
0.0
1001
GENIUS_GENREC_14
1002
{
1000
PYDIR
1011
240.1167661429101
1021
93.3460244108528
1031
0.0
1002
}
1002
{
1000
PXDIR
1011
308.1167661429105
1021
190.3460244108428
1031
0.0
1002
}
1002
{
1000
PORI
1011
240.1167661429101
1021
190.3460244108428
1031
0.0
1002
}
1002
{
1000
PINS
1011
240.1167661429101
1021
190.3460244108428
1031
0.0
1002
}
1002
{
1000
PINS2
1011
308.1167661429105
1021
93.3460244108528
1031
0.0
1002
}
1002
{
1000
C
1070
     1
1002
}
1001
GENIUS_GENOBJ-N-REC_13
1002
{
1000
OWNER
1000
GEN
1002
}
1001
GENIUS_GENODEF_13
1002
{
1000
HIER
1070
     0
1002
}
1002
{
1000
MANEDIT
1070
     0
1002
}
1002
{
1000
NOSEL
1070
     0
1002
}
1002
{
1000
BEHIND
1070
     0
1002
}
1002
{
1000
OTHER
1070
     0
1002
}
1002
{
1000
REACTOR
1002
}
  0
LINE
  5
10A6
330
1F
100
AcDbEntity
  8
10
100
AcDbLine
 10
308.1167661429105
 20
190.3460244108428
 30
0.0
 11
308.1167661429105
 21
93.3460244108528
 31
0.0
1001
GENIUS_GENREC_14
1002
{
1000
PYDIR
1011
240.1167661429101
1021
93.3460244108528
1031
0.0
1002
}
1002
{
1000
PXDIR
1011
308.1167661429105
1021
190.3460244108428
1031
0.0
1002
}
1002
{
1000
PORI
1011
240.1167661429101
1021
190.3460244108428
1031
0.0
1002
}
1002
{
1000
PINS
1011
240.1167661429101
1021
190.3460244108428
1031
0.0
1002
}
1002
{
1000
PINS2
1011
308.1167661429105
1021
93.3460244108528
1031
0.0
1002
}
1002
{
1000
C
1070
     1
1002
}
1001
GENIUS_GENOBJ-N-REC_13
1002
{
1000
OWNER
1000
GEN
1002
}
1001
GENIUS_GENODEF_13
1002
{
1000
HIER
1070
     0
1002
}
1002
{
1000
MANEDIT
1070
     0
1002
}
1002
{
1000
NOSEL
1070
     0
1002
}
1002
{
1000
BEHIND
1070
     0
1002
}
1002
{
1000
OTHER
1070
     0
1002
}
1002
{
1000
REACTOR
1002
}
  0
LINE
  5
10A7
330
1F
100
AcDbEntity
  8
10
100
AcDbLine
 10
308.1167661429105
 20
93.3460244108528
 30
0.0
 11
240.1167661429101
 21
93.3460244108528
 31
0.0
1001
GENIUS_GENREC_14
1002
{
1000
PYDIR
1011
240.1167661429101
1021
93.3460244108528
1031
0.0
1002
}
1002
{
1000
PXDIR
1011
308.1167661429105
1021
190.3460244108428
1031
0.0
1002
}
1002
{
1000
PORI
1011
240.1167661429101
1021
190.3460244108428
1031
0.0
1002
}
1002
{
1000
PINS
1011
240.1167661429101
1021
190.3460244108428
1031
0.0
1002
}
1002
{
1000
PINS2
1011
308.1167661429105
1021
93.3460244108528
1031
0.0
1002
}
1002
{
1000
C
1070
     1
1002
}
1001
GENIUS_GENOBJ-N-REC_13
1002
{
1000
OWNER
1000
GEN
1002
}
1001
GENIUS_GENODEF_13
1002
{
1000
HIER
1070
     0
1002
}
1002
{
1000
MANEDIT
1070
     0
1002
}
1002
{
1000
NOSEL
1070
     0
1002
}
1002
{
1000
BEHIND
1070
     0
1002
}
1002
{
1000
OTHER
1070
     0
1002
}
1002
{
1000
REACTOR
1002
}
  0
LINE
  5
10A8
330
1F
100
AcDbEntity
  8
10
100
AcDbLine
 10
240.1167661429101
 20
93.3460244108528
 30
0.0
 11
240.1167661429101
 21
190.3460244108428
 31
0.0
1001
GENIUS_GENREC_14
1002
{
1000
PYDIR
1011
240.1167661429101
1021
93.3460244108528
1031
0.0
1002
}
1002
{
1000
PXDIR
1011
308.1167661429105
1021
190.3460244108428
1031
0.0
1002
}
1002
{
1000
PORI
1011
240.1167661429101
1021
190.3460244108428
1031
0.0
1002
}
1002
{
1000
PINS
1011
240.1167661429101
1021
190.3460244108428
1031
0.0
1002
}
1002
{
1000
PINS2
1011
308.1167661429105
1021
93.3460244108528
1031
0.0
1002
}
1002
{
1000
C
1070
     1
1002
}
1001
GENIUS_GENOBJ-N-REC_13
1002
{
1000
OWNER
1000
GEN
1002
}
1001
GENIUS_GENODEF_13
1002
{
1000
HIER
1070
     0
1002
}
1002
{
1000
MANEDIT
1070
     0
1002
}
1002
{
1000
NOSEL
1070
     0
1002
}
1002
{
1000
BEHIND
1070
     0
1002
}
1002
{
1000
OTHER
1070
     0
1002
}
1002
{
1000
REACTOR
1002
}
  0
CIRCLE
  5
10AA
330
1F
100
AcDbEntity
  8
10
100
AcDbCircle
 10
114.1167661428834
 20
212.3460244108568
 30
0.0
 40
3.999999999999998
  0
LINE
  5
10AB
330
1F
100
AcDbEntity
  8
12
100
AcDbLine
 10
107.3227661428833
 20
212.3460244108568
 30
0.0
 11
120.9107661428831
 21
212.3460244108568
 31
0.0
  0
LINE
  5
10AC
330
1F
100
AcDbEntity
  8
12
100
AcDbLine
 10
114.1167661428834
 20
219.1400244108568
 30
0.0
 11
114.1167661428834
 21
205.5520244108568
 31
0.0
  0
LINE
  5
10AD
330
1F
100
AcDbEntity
  8
12
100
AcDbLine
 10
103.8172126434178
 20
212.3460244108568
 30
0.0
 11
124.4163196423486
 21
212.3460244108568
 31
0.0
  0
LINE
  5
10AE
330
1F
100
AcDbEntity
  8
10
100
AcDbLine
 10
107.6167661428832
 20
208.5932476611242
 30
0.0
 11
114.1167661428834
 21
204.8404709113914
 31
0.0
  0
LINE
  5
10AF
330
1F
100
AcDbEntity
  8
10
100
AcDbLine
 10
114.1167661428834
 20
204.8404709113914
 30
0.0
 11
120.6167661428831
 21
208.5932476611238
 31
0.0
  0
LINE
  5
10B0
330
1F
100
AcDbEntity
  8
10
100
AcDbLine
 10
120.6167661428831
 20
208.5932476611238
 30
0.0
 11
120.6167661428831
 21
216.0988011605891
 31
0.0
  0
LINE
  5
10B1
330
1F
100
AcDbEntity
  8
10
100
AcDbLine
 10
120.6167661428831
 20
216.0988011605891
 30
0.0
 11
114.1167661428834
 21
219.8515779103217
 31
0.0
  0
LINE
  5
10B2
330
1F
100
AcDbEntity
  8
10
100
AcDbLine
 10
114.1167661428834
 20
219.8515779103217
 30
0.0
 11
107.6167661428832
 21
216.0988011605896
 31
0.0
  0
LINE
  5
10B3
330
1F
100
AcDbEntity
  8
10
100
AcDbLine
 10
107.6167661428832
 20
216.0988011605896
 30
0.0
 11
107.6167661428832
 21
208.5932476611242
 31
0.0
  0
CIRCLE
  5
10B4
330
1F
100
AcDbEntity
  8
10
100
AcDbCircle
 10
114.1167661428834
 20
212.3460244108568
 30
0.0
 40
6.5
  0
LINE
  5
10B5
330
1F
100
AcDbEntity
  8
12
100
AcDbLine
 10
114.1167661428834
 20
222.6455779103218
 30
0.0
 11
114.1167661428834
 21
202.046470911392
 31
0.0
  0
CIRCLE
  5
10B6
330
1F
100
AcDbEntity
  8
10
100
AcDbCircle
 10
114.1167661428834
 20
212.3460244108568
 30
0.0
 40
8.5
  0
LINE
  5
10B7
330
1F
100
AcDbEntity
  8
12
100
AcDbLine
 10
102.8227661428833
 20
212.3460244108568
 30
0.0
 11
125.4107661428831
 21
212.3460244108568
 31
0.0
  0
LINE
  5
10B8
330
1F
100
AcDbEntity
  8
12
100
AcDbLine
 10
114.1167661428834
 20
223.6400244108569
 30
0.0
 11
114.1167661428834
 21
201.0520244108568
 31
0.0
  0
LINE
  5
10B9
330
1F
100
AcDbEntity
  8
10
100
AcDbLine
 10
94.11676614290058
 20
200.3460244108568
 30
0.0
 11
94.11676614289968
 21
190.3460244108428
 31
0.0
  0
CIRCLE
  5
10BB
330
1F
100
AcDbEntity
  8
10
100
AcDbCircle
 10
114.1167661428834
 20
71.34602441085277
 30
0.0
 40
3.999999999999998
  0
LINE
  5
10BC
330
1F
100
AcDbEntity
  8
12
100
AcDbLine
 10
107.3227661428833
 20
71.34602441085277
 30
0.0
 11
120.9107661428831
 21
71.34602441085277
 31
0.0
  0
LINE
  5
10BD
330
1F
100
AcDbEntity
  8
12
100
AcDbLine
 10
114.1167661428834
 20
78.14002441085282
 30
0.0
 11
114.1167661428834
 21
64.5520244108528
 31
0.0
  0
LINE
  5
10BE
330
1F
100
AcDbEntity
  8
12
100
AcDbLine
 10
103.8172126434178
 20
71.34602441085277
 30
0.0
 11
124.4163196423486
 21
71.34602441085277
 31
0.0
  0
LINE
  5
10BF
330
1F
100
AcDbEntity
  8
10
100
AcDbLine
 10
107.6167661428832
 20
67.59324766112013
 30
0.0
 11
114.1167661428834
 21
63.84047091138747
 31
0.0
  0
LINE
  5
10C0
330
1F
100
AcDbEntity
  8
10
100
AcDbLine
 10
114.1167661428834
 20
63.84047091138747
 30
0.0
 11
120.6167661428831
 21
67.59324766112013
 31
0.0
  0
LINE
  5
10C1
330
1F
100
AcDbEntity
  8
10
100
AcDbLine
 10
120.6167661428831
 20
67.59324766112013
 30
0.0
 11
120.6167661428831
 21
75.09880116058548
 31
0.0
  0
LINE
  5
10C2
330
1F
100
AcDbEntity
  8
10
100
AcDbLine
 10
120.6167661428831
 20
75.09880116058548
 30
0.0
 11
114.1167661428834
 21
78.85157791031772
 31
0.0
  0
LINE
  5
10C3
330
1F
100
AcDbEntity
  8
10
100
AcDbLine
 10
114.1167661428834
 20
78.85157791031772
 30
0.0
 11
107.6167661428832
 21
75.09880116058548
 31
0.0
  0
LINE
  5
10C4
330
1F
100
AcDbEntity
  8
10
100
AcDbLine
 10
107.6167661428832
 20
75.09880116058548
 30
0.0
 11
107.6167661428832
 21
67.59324766112013
 31
0.0
  0
CIRCLE
  5
10C5
330
1F
100
AcDbEntity
  8
10
100
AcDbCircle
 10
114.1167661428834
 20
71.34602441085277
 30
0.0
 40
6.5
  0
LINE
  5
10C6
330
1F
100
AcDbEntity
  8
12
100
AcDbLine
 10
114.1167661428834
 20
81.64557791031811
 30
0.0
 11
114.1167661428834
 21
61.04647091138747
 31
0.0
  0
CIRCLE
  5
10C7
330
1F
100
AcDbEntity
  8
10
100
AcDbCircle
 10
114.1167661428834
 20
71.34602441085277
 30
0.0
 40
8.5
  0
LINE
  5
10C8
330
1F
100
AcDbEntity
  8
12
100
AcDbLine
 10
102.8227661428833
 20
71.34602441085277
 30
0.0
 11
125.4107661428831
 21
71.34602441085277
 31
0.0
  0
LINE
  5
10C9
330
1F
100
AcDbEntity
  8
12
100
AcDbLine
 10
114.1167661428834
 20
82.64002441085281
 30
0.0
 11
114.1167661428834
 21
60.05202441085283
 31
0.0
  0
LINE
  5
10CA
330
1F
100
AcDbEntity
  8
10
100
AcDbLine
 10
94.11676614289513
 20
93.34602441085511
 30
0.0
 11
94.11676614289513
 21
88.3460244108555
 31
0.0
  0
LINE
  5
10CB
330
1F
100
AcDbEntity
  8
10
100
AcDbLine
 10
70.61676614289183
 20
51.54602441087536
 30
0.0
 11
70.61676614289183
 21
48.34602441087555
 31
0.0
  0
LINE
  5
10CC
330
1F
100
AcDbEntity
  8
12
100
AcDbLine
 10
66.6167661428924
 20
53.86220887162561
 30
0.0
 11
66.61676614289138
 21
45.71854183019378
 31
0.0
  0
LINE
  5
10CD
330
1F
100
AcDbEntity
  8
10
100
AcDbLine
 10
62.61676614289183
 20
51.54602441087626
 30
0.0
 11
62.61676614289183
 21
48.34602441087646
 31
0.0
  0
LINE
  5
10CE
330
1F
100
AcDbEntity
  8
10
100
AcDbLine
 10
194.1167661429027
 20
243.3460244108569
 30
0.0
 11
84.1167661429027
 21
243.3460244108569
 31
0.0
1001
GENIUS_GENOREF_13
1005
0
1005
0
  0
LINE
  5
10CF
330
1F
100
AcDbEntity
  8
10
100
AcDbLine
 10
84.1167661429027
 20
243.3460244108569
 30
0.0
 11
84.11676614290053
 21
200.3460244108568
 31
0.0
1001
GENIUS_GENOREF_13
1005
0
1005
0
  0
LINE
  5
10D0
330
1F
100
AcDbEntity
  8
10
100
AcDbLine
 10
84.11676614290053
 20
200.3460244108568
 30
0.0
 11
194.1167661429005
 21
200.3460244108568
 31
0.0
1001
GENIUS_GENOREF_13
1005
0
1005
0
  0
LINE
  5
10D1
330
1F
100
AcDbEntity
  8
10
100
AcDbLine
 10
194.1167661428938
 20
88.3460244108555
 30
0.0
 11
54.11676614289376
 21
88.3460244108555
 31
0.0
  0
LINE
  5
10D2
330
1F
100
AcDbEntity
  8
10
100
AcDbLine
 10
54.11676614289376
 20
88.3460244108555
 30
0.0
 11
54.11676614289183
 21
48.34602441087735
 31
0.0
  0
LINE
  5
10D3
330
1F
100
AcDbEntity
  8
10
100
AcDbLine
 10
54.11676614289183
 20
48.34602441087735
 30
0.0
 11
194.1167661428922
 21
48.34602441086008
 31
0.0
  0
LINE
  5
10D4
330
1F
100
AcDbEntity
  8
10
100
AcDbLine
 10
194.1167661428922
 20
51.54602441085991
 30
0.0
 11
54.11676614289183
 21
51.54602441087764
 31
0.0
  0
LINE
  5
10D5
330
1F
100
AcDbEntity
  8
10
100
AcDbLine
 10
194.1167661429
 20
192.3460244108568
 30
0.0
 11
94.11676614290001
 21
192.3460244108705
 31
0.0
  0
LINE
  5
10D6
330
1F
100
AcDbEntity
  8
10
100
AcDbLine
 10
94.11676614290001
 20
191.3460244108564
 30
0.0
 11
194.1167661429
 21
191.3460244108428
 31
0.0
  0
LINE
  5
10D7
330
1F
100
AcDbEntity
  8
10
100
AcDbLine
 10
294.1167661428938
 20
91.34602441085602
 30
0.0
 11
94.11676614289513
 21
91.34602441085551
 31
0.0
  0
LINE
  5
10D8
330
1F
100
AcDbEntity
  8
10
100
AcDbLine
 10
94.11676614289513
 20
92.3460244108555
 30
0.0
 11
294.1167661428938
 21
92.34602441085371
 31
0.0
  0
LINE
  5
10D9
330
1F
100
AcDbEntity
  8
10
100
AcDbLine
 10
80.11676614288962
 20
190.3460244108428
 30
0.0
 11
148.1167661428896
 21
190.3460244108428
 31
0.0
1001
GENIUS_GENREC_14
1002
{
1000
PYDIR
1011
80.11676614288962
1021
93.34602441085511
1031
0.0
1002
}
1002
{
1000
PXDIR
1011
148.1167661428896
1021
190.3460244108428
1031
0.0
1002
}
1002
{
1000
PORI
1011
80.11676614288962
1021
190.3460244108428
1031
0.0
1002
}
1002
{
1000
PINS
1011
80.11676614288962
1021
190.3460244108428
1031
0.0
1002
}
1002
{
1000
PINS2
1011
148.1167661428896
1021
93.34602441085511
1031
0.0
1002
}
1002
{
1000
C
1070
     1
1002
}
1001
GENIUS_GENODEF_13
1002
{
1000
HIER
1070
     0
1002
}
1002
{
1000
MANEDIT
1070
     0
1002
}
1002
{
1000
NOSEL
1070
     0
1002
}
1002
{
1000
BEHIND
1070
     0
1002
}
1002
{
1000
OTHER
1070
     0
1002
}
1002
{
1000
REACTOR
1002
}
1001
GENIUS_GENOBJ-N-REC_13
1002
{
1000
OWNER
1000
GEN
1002
}
  0
LINE
  5
10DA
330
1F
100
AcDbEntity
  8
10
100
AcDbLine
 10
148.1167661428896
 20
190.3460244108428
 30
0.0
 11
148.1167661428896
 21
93.34602441085511
 31
0.0
1001
GENIUS_GENREC_14
1002
{
1000
PYDIR
1011
80.11676614288962
1021
93.34602441085511
1031
0.0
1002
}
1002
{
1000
PXDIR
1011
148.1167661428896
1021
190.3460244108428
1031
0.0
1002
}
1002
{
1000
PORI
1011
80.11676614288962
1021
190.3460244108428
1031
0.0
1002
}
1002
{
1000
PINS
1011
80.11676614288962
1021
190.3460244108428
1031
0.0
1002
}
1002
{
1000
PINS2
1011
148.1167661428896
1021
93.34602441085511
1031
0.0
1002
}
1002
{
1000
C
1070
     1
1002
}
1001
GENIUS_GENODEF_13
1002
{
1000
HIER
1070
     0
1002
}
1002
{
1000
MANEDIT
1070
     0
1002
}
1002
{
1000
NOSEL
1070
     0
1002
}
1002
{
1000
BEHIND
1070
     0
1002
}
1002
{
1000
OTHER
1070
     0
1002
}
1002
{
1000
REACTOR
1002
}
1001
GENIUS_GENOBJ-N-REC_13
1002
{
1000
OWNER
1000
GEN
1002
}
  0
LINE
  5
10DB
330
1F
100
AcDbEntity
  8
10
100
AcDbLine
 10
148.1167661428896
 20
93.34602441085511
 30
0.0
 11
80.11676614288962
 21
93.34602441085511
 31
0.0
1001
GENIUS_GENREC_14
1002
{
1000
PYDIR
1011
80.11676614288962
1021
93.34602441085511
1031
0.0
1002
}
1002
{
1000
PXDIR
1011
148.1167661428896
1021
190.3460244108428
1031
0.0
1002
}
1002
{
1000
PORI
1011
80.11676614288962
1021
190.3460244108428
1031
0.0
1002
}
1002
{
1000
PINS
1011
80.11676614288962
1021
190.3460244108428
1031
0.0
1002
}
1002
{
1000
PINS2
1011
148.1167661428896
1021
93.34602441085511
1031
0.0
1002
}
1002
{
1000
C
1070
     1
1002
}
1001
GENIUS_GENODEF_13
1002
{
1000
HIER
1070
     0
1002
}
1002
{
1000
MANEDIT
1070
     0
1002
}
1002
{
1000
NOSEL
1070
     0
1002
}
1002
{
1000
BEHIND
1070
     0
1002
}
1002
{
1000
OTHER
1070
     0
1002
}
1002
{
1000
REACTOR
1002
}
1001
GENIUS_GENOBJ-N-REC_13
1002
{
1000
OWNER
1000
GEN
1002
}
  0
LINE
  5
10DC
330
1F
100
AcDbEntity
  8
10
100
AcDbLine
 10
80.11676614288962
 20
93.34602441085511
 30
0.0
 11
80.11676614288962
 21
190.3460244108428
 31
0.0
1001
GENIUS_GENREC_14
1002
{
1000
PYDIR
1011
80.11676614288962
1021
93.34602441085511
1031
0.0
1002
}
1002
{
1000
PXDIR
1011
148.1167661428896
1021
190.3460244108428
1031
0.0
1002
}
1002
{
1000
PORI
1011
80.11676614288962
1021
190.3460244108428
1031
0.0
1002
}
1002
{
1000
PINS
1011
80.11676614288962
1021
190.3460244108428
1031
0.0
1002
}
1002
{
1000
PINS2
1011
148.1167661428896
1021
93.34602441085511
1031
0.0
1002
}
1002
{
1000
C
1070
     1
1002
}
1001
GENIUS_GENODEF_13
1002
{
1000
HIER
1070
     0
1002
}
1002
{
1000
MANEDIT
1070
     0
1002
}
1002
{
1000
NOSEL
1070
     0
1002
}
1002
{
1000
BEHIND
1070
     0
1002
}
1002
{
1000
OTHER
1070
     0
1002
}
1002
{
1000
REACTOR
1002
}
1001
GENIUS_GENOBJ-N-REC_13
1002
{
1000
OWNER
1000
GEN
1002
}
  0
LINE
  5
10DD
330
1F
100
AcDbEntity
  8
10
100
AcDbLine
 10
194.1167661428938
 20
88.3460244108555
 30
0.0
 11
334.116766142895
 21
88.3460244108555
 31
0.0
  0
LINE
  5
10DE
330
1F
100
AcDbEntity
  8
10
100
AcDbLine
 10
334.116766142895
 20
88.3460244108555
 30
0.0
 11
334.1167661428918
 21
48.34602441086008
 31
0.0
  0
LINE
  5
10DF
330
1F
100
AcDbEntity
  8
10
100
AcDbLine
 10
334.1167661428918
 20
48.34602441086008
 30
0.0
 11
194.1167661428919
 21
48.34602441086008
 31
0.0
  0
LINE
  5
10E0
330
1F
100
AcDbEntity
  8
10
100
AcDbLine
 10
194.1167661428919
 20
51.54602441085991
 30
0.0
 11
334.1167661428924
 21
51.54602441085991
 31
0.0
  0
LINE
  5
10E1
330
1F
100
AcDbEntity
  8
10
 48
0.5
100
AcDbLine
 10
86.11676614290331
 20
258.3460244108569
 30
0.0
 11
98.61676614290331
 21
258.3460244108569
 31
0.0
1001
GENIUS_GENREC_14
1002
{
1000
PYDIR
1011
200.1167661429033
1021
243.3460244108569
1031
0.0
1002
}
1002
{
1000
PXDIR
1011
187.6167661429033
1021
258.3460244108569
1031
0.0
1002
}
1002
{
1000
PORI
1011
200.1167661429033
1021
258.3460244108569
1031
0.0
1002
}
1002
{
1000
PINS
1011
200.1167661429033
1021
258.3460244108569
1031
0.0
1002
}
1002
{
1000
PINS2
1011
187.6167661429033
1021
243.3460244108569
1031
0.0
1002
}
1002
{
1000
C
1070
     1
1002
}
1001
GENIUS_GENODEF_13
1002
{
1000
HIER
1070
     0
1002
}
1002
{
1000
MANEDIT
1070
     0
1002
}
1002
{
1000
NOSEL
1070
     0
1002
}
1002
{
1000
BEHIND
1070
     0
1002
}
1002
{
1000
REACTOR
1002
}
1001
GENIUS_GENOBJ-N-REC_13
1002
{
1000
OWNER
1000
GEN
1002
}
  0
LINE
  5
10E2
330
1F
100
AcDbEntity
  8
10
 48
0.5
100
AcDbLine
 10
98.61676614290331
 20
258.3460244108569
 30
0.0
 11
98.61676614290331
 21
243.3460244108569
 31
0.0
1001
GENIUS_GENREC_14
1002
{
1000
PYDIR
1011
200.1167661429033
1021
243.3460244108569
1031
0.0
1002
}
1002
{
1000
PXDIR
1011
187.6167661429033
1021
258.3460244108569
1031
0.0
1002
}
1002
{
1000
PORI
1011
200.1167661429033
1021
258.3460244108569
1031
0.0
1002
}
1002
{
1000
PINS
1011
200.1167661429033
1021
258.3460244108569
1031
0.0
1002
}
1002
{
1000
PINS2
1011
187.6167661429033
1021
243.3460244108569
1031
0.0
1002
}
1002
{
1000
C
1070
     1
1002
}
1001
GENIUS_GENODEF_13
1002
{
1000
HIER
1070
     0
1002
}
1002
{
1000
MANEDIT
1070
     0
1002
}
1002
{
1000
NOSEL
1070
     0
1002
}
1002
{
1000
BEHIND
1070
     0
1002
}
1002
{
1000
REACTOR
1002
}
1001
GENIUS_GENOBJ-N-REC_13
1002
{
1000
OWNER
1000
GEN
1002
}
  0
LINE
  5
10E3
330
1F
100
AcDbEntity
  8
10
 48
0.5
100
AcDbLine
 10
98.61676614290331
 20
243.3460244108569
 30
0.0
 11
86.11676614290331
 21
243.3460244108569
 31
0.0
1001
GENIUS_GENREC_14
1002
{
1000
PYDIR
1011
200.1167661429033
1021
243.3460244108569
1031
0.0
1002
}
1002
{
1000
PXDIR
1011
187.6167661429033
1021
258.3460244108569
1031
0.0
1002
}
1002
{
1000
PORI
1011
200.1167661429033
1021
258.3460244108569
1031
0.0
1002
}
1002
{
1000
PINS
1011
200.1167661429033
1021
258.3460244108569
1031
0.0
1002
}
1002
{
1000
PINS2
1011
187.6167661429033
1021
243.3460244108569
1031
0.0
1002
}
1002
{
1000
C
1070
     1
1002
}
1001
GENIUS_GENODEF_13
1002
{
1000
HIER
1070
     0
1002
}
1002
{
1000
MANEDIT
1070
     0
1002
}
1002
{
1000
NOSEL
1070
     0
1002
}
1002
{
1000
BEHIND
1070
     0
1002
}
1002
{
1000
REACTOR
1002
}
1001
GENIUS_GENOBJ-N-REC_13
1002
{
1000
OWNER
1000
GEN
1002
}
  0
LINE
  5
10E4
330
1F
100
AcDbEntity
  8
10
 48
0.5
100
AcDbLine
 10
86.11676614290331
 20
243.3460244108569
 30
0.0
 11
86.11676614290331
 21
258.3460244108569
 31
0.0
1001
GENIUS_GENREC_14
1002
{
1000
PYDIR
1011
200.1167661429033
1021
243.3460244108569
1031
0.0
1002
}
1002
{
1000
PXDIR
1011
187.6167661429033
1021
258.3460244108569
1031
0.0
1002
}
1002
{
1000
PORI
1011
200.1167661429033
1021
258.3460244108569
1031
0.0
1002
}
1002
{
1000
PINS
1011
200.1167661429033
1021
258.3460244108569
1031
0.0
1002
}
1002
{
1000
PINS2
1011
187.6167661429033
1021
243.3460244108569
1031
0.0
1002
}
1002
{
1000
C
1070
     1
1002
}
1001
GENIUS_GENODEF_13
1002
{
1000
HIER
1070
     0
1002
}
1002
{
1000
MANEDIT
1070
     0
1002
}
1002
{
1000
NOSEL
1070
     0
1002
}
1002
{
1000
BEHIND
1070
     0
1002
}
1002
{
1000
REACTOR
1002
}
1001
GENIUS_GENOBJ-N-REC_13
1002
{
1000
OWNER
1000
GEN
1002
}
  0
LINE
  5
10E5
330
1F
100
AcDbEntity
  8
10
 48
0.5
100
AcDbLine
 10
182.6167661429033
 20
290.3460244108568
 30
0.0
 11
103.6167661429033
 21
290.3460244108568
 31
0.0
1001
GENIUS_GENREC_14
1002
{
1000
PYDIR
1011
182.6167661429033
1021
291.3460244108568
1031
0.0
1002
}
1002
{
1000
PXDIR
1011
103.6167661429033
1021
290.3460244108568
1031
0.0
1002
}
1002
{
1000
PORI
1011
182.6167661429033
1021
290.3460244108568
1031
0.0
1002
}
1002
{
1000
PINS
1011
182.6167661429033
1021
290.3460244108568
1031
0.0
1002
}
1002
{
1000
PINS2
1011
103.6167661429033
1021
291.3460244108568
1031
0.0
1002
}
1002
{
1000
C
1070
     1
1002
}
1001
GENIUS_GENODEF_13
1002
{
1000
HIER
1070
     0
1002
}
1002
{
1000
MANEDIT
1070
     0
1002
}
1002
{
1000
NOSEL
1070
     0
1002
}
1002
{
1000
BEHIND
1070
     0
1002
}
1002
{
1000
REACTOR
1002
}
1001
GENIUS_GENOBJ-N-REC_13
1002
{
1000
OWNER
1000
GEN
1002
}
  0
LINE
  5
10E6
330
1F
100
AcDbEntity
  8
10
 48
0.5
100
AcDbLine
 10
103.6167661429033
 20
290.3460244108568
 30
0.0
 11
103.6167661429033
 21
291.3460244108568
 31
0.0
1001
GENIUS_GENREC_14
1002
{
1000
PYDIR
1011
182.6167661429033
1021
291.3460244108568
1031
0.0
1002
}
1002
{
1000
PXDIR
1011
103.6167661429033
1021
290.3460244108568
1031
0.0
1002
}
1002
{
1000
PORI
1011
182.6167661429033
1021
290.3460244108568
1031
0.0
1002
}
1002
{
1000
PINS
1011
182.6167661429033
1021
290.3460244108568
1031
0.0
1002
}
1002
{
1000
PINS2
1011
103.6167661429033
1021
291.3460244108568
1031
0.0
1002
}
1002
{
1000
C
1070
     1
1002
}
1001
GENIUS_GENODEF_13
1002
{
1000
HIER
1070
     0
1002
}
1002
{
1000
MANEDIT
1070
     0
1002
}
1002
{
1000
NOSEL
1070
     0
1002
}
1002
{
1000
BEHIND
1070
     0
1002
}
1002
{
1000
REACTOR
1002
}
1001
GENIUS_GENOBJ-N-REC_13
1002
{
1000
OWNER
1000
GEN
1002
}
  0
LINE
  5
10E7
330
1F
100
AcDbEntity
  8
10
 48
0.5
100
AcDbLine
 10
103.6167661429033
 20
291.3460244108568
 30
0.0
 11
182.6167661429033
 21
291.3460244108568
 31
0.0
1001
GENIUS_GENREC_14
1002
{
1000
PYDIR
1011
182.6167661429033
1021
291.3460244108568
1031
0.0
1002
}
1002
{
1000
PXDIR
1011
103.6167661429033
1021
290.3460244108568
1031
0.0
1002
}
1002
{
1000
PORI
1011
182.6167661429033
1021
290.3460244108568
1031
0.0
1002
}
1002
{
1000
PINS
1011
182.6167661429033
1021
290.3460244108568
1031
0.0
1002
}
1002
{
1000
PINS2
1011
103.6167661429033
1021
291.3460244108568
1031
0.0
1002
}
1002
{
1000
C
1070
     1
1002
}
1001
GENIUS_GENODEF_13
1002
{
1000
HIER
1070
     0
1002
}
1002
{
1000
MANEDIT
1070
     0
1002
}
1002
{
1000
NOSEL
1070
     0
1002
}
1002
{
1000
BEHIND
1070
     0
1002
}
1002
{
1000
REACTOR
1002
}
1001
GENIUS_GENOBJ-N-REC_13
1002
{
1000
OWNER
1000
GEN
1002
}
  0
LINE
  5
10E8
330
1F
100
AcDbEntity
  8
10
 48
0.5
100
AcDbLine
 10
182.6167661429033
 20
291.3460244108568
 30
0.0
 11
182.6167661429033
 21
290.3460244108568
 31
0.0
1001
GENIUS_GENREC_14
1002
{
1000
PYDIR
1011
182.6167661429033
1021
291.3460244108568
1031
0.0
1002
}
1002
{
1000
PXDIR
1011
103.6167661429033
1021
290.3460244108568
1031
0.0
1002
}
1002
{
1000
PORI
1011
182.6167661429033
1021
290.3460244108568
1031
0.0
1002
}
1002
{
1000
PINS
1011
182.6167661429033
1021
290.3460244108568
1031
0.0
1002
}
1002
{
1000
PINS2
1011
103.6167661429033
1021
291.3460244108568
1031
0.0
1002
}
1002
{
1000
C
1070
     1
1002
}
1001
GENIUS_GENODEF_13
1002
{
1000
HIER
1070
     0
1002
}
1002
{
1000
MANEDIT
1070
     0
1002
}
1002
{
1000
NOSEL
1070
     0
1002
}
1002
{
1000
BEHIND
1070
     0
1002
}
1002
{
1000
REACTOR
1002
}
1001
GENIUS_GENOBJ-N-REC_13
1002
{
1000
OWNER
1000
GEN
1002
}
  0
LINE
  5
10E9
330
1F
100
AcDbEntity
  8
10
 48
0.5
100
AcDbLine
 10
200.1167661429033
 20
258.3460244108569
 30
0.0
 11
187.6167661429033
 21
258.3460244108569
 31
0.0
1001
GENIUS_GENREC_14
1002
{
1000
PYDIR
1011
200.1167661429033
1021
243.3460244108569
1031
0.0
1002
}
1002
{
1000
PXDIR
1011
187.6167661429033
1021
258.3460244108569
1031
0.0
1002
}
1002
{
1000
PORI
1011
200.1167661429033
1021
258.3460244108569
1031
0.0
1002
}
1002
{
1000
PINS
1011
200.1167661429033
1021
258.3460244108569
1031
0.0
1002
}
1002
{
1000
PINS2
1011
187.6167661429033
1021
243.3460244108569
1031
0.0
1002
}
1002
{
1000
C
1070
     1
1002
}
1001
GENIUS_GENODEF_13
1002
{
1000
HIER
1070
     0
1002
}
1002
{
1000
MANEDIT
1070
     0
1002
}
1002
{
1000
NOSEL
1070
     0
1002
}
1002
{
1000
BEHIND
1070
     0
1002
}
1002
{
1000
REACTOR
1002
}
1001
GENIUS_GENOBJ-N-REC_13
1002
{
1000
OWNER
1000
GEN
1002
}
  0
LINE
  5
10EA
330
1F
100
AcDbEntity
  8
10
 48
0.5
100
AcDbLine
 10
187.6167661429033
 20
258.3460244108569
 30
0.0
 11
187.6167661429033
 21
243.3460244108569
 31
0.0
1001
GENIUS_GENREC_14
1002
{
1000
PYDIR
1011
200.1167661429033
1021
243.3460244108569
1031
0.0
1002
}
1002
{
1000
PXDIR
1011
187.6167661429033
1021
258.3460244108569
1031
0.0
1002
}
1002
{
1000
PORI
1011
200.1167661429033
1021
258.3460244108569
1031
0.0
1002
}
1002
{
1000
PINS
1011
200.1167661429033
1021
258.3460244108569
1031
0.0
1002
}
1002
{
1000
PINS2
1011
187.6167661429033
1021
243.3460244108569
1031
0.0
1002
}
1002
{
1000
C
1070
     1
1002
}
1001
GENIUS_GENODEF_13
1002
{
1000
HIER
1070
     0
1002
}
1002
{
1000
MANEDIT
1070
     0
1002
}
1002
{
1000
NOSEL
1070
     0
1002
}
1002
{
1000
BEHIND
1070
     0
1002
}
1002
{
1000
REACTOR
1002
}
1001
GENIUS_GENOBJ-N-REC_13
1002
{
1000
OWNER
1000
GEN
1002
}
  0
LINE
  5
10EB
330
1F
100
AcDbEntity
  8
10
 48
0.5
100
AcDbLine
 10
187.6167661429033
 20
243.3460244108569
 30
0.0
 11
200.1167661429033
 21
243.3460244108569
 31
0.0
1001
GENIUS_GENREC_14
1002
{
1000
PYDIR
1011
200.1167661429033
1021
243.3460244108569
1031
0.0
1002
}
1002
{
1000
PXDIR
1011
187.6167661429033
1021
258.3460244108569
1031
0.0
1002
}
1002
{
1000
PORI
1011
200.1167661429033
1021
258.3460244108569
1031
0.0
1002
}
1002
{
1000
PINS
1011
200.1167661429033
1021
258.3460244108569
1031
0.0
1002
}
1002
{
1000
PINS2
1011
187.6167661429033
1021
243.3460244108569
1031
0.0
1002
}
1002
{
1000
C
1070
     1
1002
}
1001
GENIUS_GENODEF_13
1002
{
1000
HIER
1070
     0
1002
}
1002
{
1000
MANEDIT
1070
     0
1002
}
1002
{
1000
NOSEL
1070
     0
1002
}
1002
{
1000
BEHIND
1070
     0
1002
}
1002
{
1000
REACTOR
1002
}
1001
GENIUS_GENOBJ-N-REC_13
1002
{
1000
OWNER
1000
GEN
1002
}
  0
LINE
  5
10EC
330
1F
100
AcDbEntity
  8
10
 48
0.5
100
AcDbLine
 10
200.1167661429033
 20
243.3460244108569
 30
0.0
 11
200.1167661429033
 21
258.3460244108569
 31
0.0
1001
GENIUS_GENREC_14
1002
{
1000
PYDIR
1011
200.1167661429033
1021
243.3460244108569
1031
0.0
1002
}
1002
{
1000
PXDIR
1011
187.6167661429033
1021
258.3460244108569
1031
0.0
1002
}
1002
{
1000
PORI
1011
200.1167661429033
1021
258.3460244108569
1031
0.0
1002
}
1002
{
1000
PINS
1011
200.1167661429033
1021
258.3460244108569
1031
0.0
1002
}
1002
{
1000
PINS2
1011
187.6167661429033
1021
243.3460244108569
1031
0.0
1002
}
1002
{
1000
C
1070
     1
1002
}
1001
GENIUS_GENODEF_13
1002
{
1000
HIER
1070
     0
1002
}
1002
{
1000
MANEDIT
1070
     0
1002
}
1002
{
1000
NOSEL
1070
     0
1002
}
1002
{
1000
BEHIND
1070
     0
1002
}
1002
{
1000
REACTOR
1002
}
1001
GENIUS_GENOBJ-N-REC_13
1002
{
1000
OWNER
1000
GEN
1002
}
  0
LINE
  5
10ED
330
1F
100
AcDbEntity
  8
10
 48
0.5
100
AcDbLine
 10
126.6167661429033
 20
267.3460244108568
 30
0.0
 11
103.6167661429033
 21
267.3460244108568
 31
0.0
  0
LINE
  5
10EE
330
1F
100
AcDbEntity
  8
10
 48
0.5
100
AcDbLine
 10
154.6167661429033
 20
267.3460244108568
 30
0.0
 11
131.6167661429033
 21
267.3460244108568
 31
0.0
  0
LINE
  5
10EF
330
1F
100
AcDbEntity
  8
10
 48
0.5
100
AcDbLine
 10
182.6167661429033
 20
267.3460244108568
 30
0.0
 11
159.6167661429033
 21
267.3460244108568
 31
0.0
  0
LINE
  5
10F0
330
1F
100
AcDbEntity
  8
10
 48
0.5
100
AcDbLine
 10
187.6167661429033
 20
256.3460244108568
 30
0.0
 11
187.6167661429033
 21
243.3460244108569
 31
0.0
  0
LINE
  5
10F1
330
1F
100
AcDbEntity
  8
10
 48
0.5
100
AcDbLine
 10
187.6167661429033
 20
243.3460244108569
 30
0.0
 11
98.61676614290331
 21
243.3460244108569
 31
0.0
  0
LINE
  5
10F2
330
1F
100
AcDbEntity
  8
10
 48
0.5
100
AcDbLine
 10
98.61676614290331
 20
243.3460244108569
 30
0.0
 11
98.61676614290331
 21
256.3460244108568
 31
0.0
  0
LINE
  5
10F3
330
1F
100
AcDbEntity
  8
10
 48
0.5
100
AcDbLine
 10
187.6167661429033
 20
256.3460244108568
 30
0.0
 11
182.6167661429033
 21
256.3460244108568
 31
0.0
1001
GENIUS_GENREC_14
1002
{
1000
PYDIR
1011
187.6167661429033
1021
293.3460244108569
1031
0.0
1002
}
1002
{
1000
PXDIR
1011
182.6167661429033
1021
256.3460244108568
1031
0.0
1002
}
1002
{
1000
PORI
1011
187.6167661429033
1021
256.3460244108568
1031
0.0
1002
}
1002
{
1000
PINS
1011
187.6167661429033
1021
256.3460244108568
1031
0.0
1002
}
1002
{
1000
PINS2
1011
182.6167661429033
1021
293.3460244108569
1031
0.0
1002
}
1002
{
1000
C
1070
     1
1002
}
1001
GENIUS_GENODEF_13
1002
{
1000
HIER
1070
     0
1002
}
1002
{
1000
MANEDIT
1070
     0
1002
}
1002
{
1000
NOSEL
1070
     0
1002
}
1002
{
1000
BEHIND
1070
     0
1002
}
1002
{
1000
REACTOR
1002
}
1001
GENIUS_GENOBJ-N-REC_13
1002
{
1000
OWNER
1000
GEN
1002
}
  0
LINE
  5
10F4
330
1F
100
AcDbEntity
  8
10
 48
0.5
100
AcDbLine
 10
182.6167661429033
 20
256.3460244108568
 30
0.0
 11
182.6167661429033
 21
293.3460244108569
 31
0.0
1001
GENIUS_GENREC_14
1002
{
1000
PYDIR
1011
187.6167661429033
1021
293.3460244108569
1031
0.0
1002
}
1002
{
1000
PXDIR
1011
182.6167661429033
1021
256.3460244108568
1031
0.0
1002
}
1002
{
1000
PORI
1011
187.6167661429033
1021
256.3460244108568
1031
0.0
1002
}
1002
{
1000
PINS
1011
187.6167661429033
1021
256.3460244108568
1031
0.0
1002
}
1002
{
1000
PINS2
1011
182.6167661429033
1021
293.3460244108569
1031
0.0
1002
}
1002
{
1000
C
1070
     1
1002
}
1001
GENIUS_GENODEF_13
1002
{
1000
HIER
1070
     0
1002
}
1002
{
1000
MANEDIT
1070
     0
1002
}
1002
{
1000
NOSEL
1070
     0
1002
}
1002
{
1000
BEHIND
1070
     0
1002
}
1002
{
1000
REACTOR
1002
}
1001
GENIUS_GENOBJ-N-REC_13
1002
{
1000
OWNER
1000
GEN
1002
}
  0
LINE
  5
10F5
330
1F
100
AcDbEntity
  8
10
 48
0.5
100
AcDbLine
 10
182.6167661429033
 20
293.3460244108569
 30
0.0
 11
187.6167661429033
 21
293.3460244108569
 31
0.0
1001
GENIUS_GENREC_14
1002
{
1000
PYDIR
1011
187.6167661429033
1021
293.3460244108569
1031
0.0
1002
}
1002
{
1000
PXDIR
1011
182.6167661429033
1021
256.3460244108568
1031
0.0
1002
}
1002
{
1000
PORI
1011
187.6167661429033
1021
256.3460244108568
1031
0.0
1002
}
1002
{
1000
PINS
1011
187.6167661429033
1021
256.3460244108568
1031
0.0
1002
}
1002
{
1000
PINS2
1011
182.6167661429033
1021
293.3460244108569
1031
0.0
1002
}
1002
{
1000
C
1070
     1
1002
}
1001
GENIUS_GENODEF_13
1002
{
1000
HIER
1070
     0
1002
}
1002
{
1000
MANEDIT
1070
     0
1002
}
1002
{
1000
NOSEL
1070
     0
1002
}
1002
{
1000
BEHIND
1070
     0
1002
}
1002
{
1000
REACTOR
1002
}
1001
GENIUS_GENOBJ-N-REC_13
1002
{
1000
OWNER
1000
GEN
1002
}
  0
LINE
  5
10F6
330
1F
100
AcDbEntity
  8
10
 48
0.5
100
AcDbLine
 10
187.6167661429033
 20
293.3460244108569
 30
0.0
 11
187.6167661429033
 21
256.3460244108568
 31
0.0
1001
GENIUS_GENREC_14
1002
{
1000
PYDIR
1011
187.6167661429033
1021
293.3460244108569
1031
0.0
1002
}
1002
{
1000
PXDIR
1011
182.6167661429033
1021
256.3460244108568
1031
0.0
1002
}
1002
{
1000
PORI
1011
187.6167661429033
1021
256.3460244108568
1031
0.0
1002
}
1002
{
1000
PINS
1011
187.6167661429033
1021
256.3460244108568
1031
0.0
1002
}
1002
{
1000
PINS2
1011
182.6167661429033
1021
293.3460244108569
1031
0.0
1002
}
1002
{
1000
C
1070
     1
1002
}
1001
GENIUS_GENODEF_13
1002
{
1000
HIER
1070
     0
1002
}
1002
{
1000
MANEDIT
1070
     0
1002
}
1002
{
1000
NOSEL
1070
     0
1002
}
1002
{
1000
BEHIND
1070
     0
1002
}
1002
{
1000
REACTOR
1002
}
1001
GENIUS_GENOBJ-N-REC_13
1002
{
1000
OWNER
1000
GEN
1002
}
  0
LINE
  5
10F7
330
1F
100
AcDbEntity
  8
10
100
AcDbLine
 10
107.4167661429032
 20
270.9460244108568
 30
0.0
 11
122.8167661429033
 21
270.9460244108568
 31
0.0
  0
LINE
  5
10F8
330
1F
100
AcDbEntity
  8
10
100
AcDbLine
 10
122.8167661429033
 20
268.9460244108567
 30
0.0
 11
107.4167661429032
 21
268.9460244108567
 31
0.0
  0
LINE
  5
10F9
330
1F
100
AcDbEntity
  8
10
100
AcDbLine
 10
122.8167661429033
 20
270.9460244108568
 30
0.0
 11
122.8167661429033
 21
268.9460244108567
 31
0.0
  0
LINE
  5
10FA
330
1F
100
AcDbEntity
  8
17
100
AcDbLine
 10
115.1167661429033
 20
273.7400244108568
 30
0.0
 11
115.1167661429033
 21
266.1520244108568
 31
0.0
  0
LINE
  5
10FB
330
1F
100
AcDbEntity
  8
10
100
AcDbLine
 10
107.4167661429032
 20
268.9460244108567
 30
0.0
 11
107.4167661429032
 21
270.9460244108568
 31
0.0
  0
LINE
  5
10FC
330
1F
100
AcDbEntity
  8
17
100
AcDbLine
 10
115.1167661429033
 20
264.5520244108569
 30
0.0
 11
115.1167661429033
 21
271.7400244108568
 31
0.0
  0
LINE
  5
10FD
330
1F
100
AcDbEntity
  8
10
100
AcDbLine
 10
106.6167661429033
 20
267.3460244108568
 30
0.0
 11
123.6167661429033
 21
267.3460244108568
 31
0.0
  0
LINE
  5
10FE
330
1F
100
AcDbEntity
  8
10
100
AcDbLine
 10
123.6167661429033
 20
268.9460244108567
 30
0.0
 11
106.6167661429033
 21
268.9460244108567
 31
0.0
  0
LINE
  5
10FF
330
1F
100
AcDbEntity
  8
10
100
AcDbLine
 10
123.6167661429033
 20
267.3460244108568
 30
0.0
 11
123.6167661429033
 21
268.9460244108567
 31
0.0
  0
LINE
  5
1100
330
1F
100
AcDbEntity
  8
10
100
AcDbLine
 10
106.6167661429033
 20
268.9460244108567
 30
0.0
 11
106.6167661429033
 21
267.3460244108568
 31
0.0
  0
LINE
  5
1101
330
1F
100
AcDbEntity
  8
10
100
AcDbLine
 10
107.6092661429031
 20
277.4460244108567
 30
0.0
 11
122.6242661429034
 21
277.4460244108567
 31
0.0
  0
LINE
  5
1102
330
1F
100
AcDbEntity
  8
10
100
AcDbLine
 10
107.6092661429031
 20
270.9460244108568
 30
0.0
 11
122.6242661429034
 21
270.9460244108568
 31
0.0
  0
LINE
  5
1103
330
1F
100
AcDbEntity
  8
10
100
AcDbLine
 10
122.6242661429034
 20
270.9460244108568
 30
0.0
 11
122.6242661429034
 21
277.4460244108567
 31
0.0
  0
LINE
  5
1104
330
1F
100
AcDbEntity
  8
10
100
AcDbLine
 10
118.8705161429031
 20
270.9460244108568
 30
0.0
 11
118.8705161429031
 21
277.4460244108567
 31
0.0
  0
LINE
  5
1105
330
1F
100
AcDbEntity
  8
17
100
AcDbLine
 10
115.1167661429033
 20
268.1520244108568
 30
0.0
 11
115.1167661429033
 21
280.2400244108568
 31
0.0
  0
LINE
  5
1106
330
1F
100
AcDbEntity
  8
10
100
AcDbLine
 10
111.3630161429034
 20
270.9460244108568
 30
0.0
 11
111.3630161429034
 21
277.4460244108567
 31
0.0
  0
LINE
  5
1107
330
1F
100
AcDbEntity
  8
10
100
AcDbLine
 10
107.6092661429031
 20
270.9460244108568
 30
0.0
 11
107.6092661429031
 21
277.4460244108567
 31
0.0
  0
LINE
  5
1108
330
1F
100
AcDbEntity
  8
10
 48
0.5
100
AcDbLine
 10
103.6167661429033
 20
256.3460244108568
 30
0.0
 11
98.61676614290331
 21
256.3460244108568
 31
0.0
1001
GENIUS_GENREC_14
1002
{
1000
PYDIR
1011
103.6167661429033
1021
293.3460244108569
1031
0.0
1002
}
1002
{
1000
PXDIR
1011
98.61676614290331
1021
256.3460244108568
1031
0.0
1002
}
1002
{
1000
PORI
1011
103.6167661429033
1021
256.3460244108568
1031
0.0
1002
}
1002
{
1000
PINS
1011
103.6167661429033
1021
256.3460244108568
1031
0.0
1002
}
1002
{
1000
PINS2
1011
98.61676614290331
1021
293.3460244108569
1031
0.0
1002
}
1002
{
1000
C
1070
     1
1002
}
1001
GENIUS_GENODEF_13
1002
{
1000
HIER
1070
     0
1002
}
1002
{
1000
MANEDIT
1070
     0
1002
}
1002
{
1000
NOSEL
1070
     0
1002
}
1002
{
1000
BEHIND
1070
     0
1002
}
1002
{
1000
REACTOR
1002
}
1001
GENIUS_GENOBJ-N-REC_13
1002
{
1000
OWNER
1000
GEN
1002
}
  0
LINE
  5
1109
330
1F
100
AcDbEntity
  8
10
 48
0.5
100
AcDbLine
 10
98.61676614290331
 20
256.3460244108568
 30
0.0
 11
98.61676614290331
 21
293.3460244108569
 31
0.0
1001
GENIUS_GENREC_14
1002
{
1000
PYDIR
1011
103.6167661429033
1021
293.3460244108569
1031
0.0
1002
}
1002
{
1000
PXDIR
1011
98.61676614290331
1021
256.3460244108568
1031
0.0
1002
}
1002
{
1000
PORI
1011
103.6167661429033
1021
256.3460244108568
1031
0.0
1002
}
1002
{
1000
PINS
1011
103.6167661429033
1021
256.3460244108568
1031
0.0
1002
}
1002
{
1000
PINS2
1011
98.61676614290331
1021
293.3460244108569
1031
0.0
1002
}
1002
{
1000
C
1070
     1
1002
}
1001
GENIUS_GENODEF_13
1002
{
1000
HIER
1070
     0
1002
}
1002
{
1000
MANEDIT
1070
     0
1002
}
1002
{
1000
NOSEL
1070
     0
1002
}
1002
{
1000
BEHIND
1070
     0
1002
}
1002
{
1000
REACTOR
1002
}
1001
GENIUS_GENOBJ-N-REC_13
1002
{
1000
OWNER
1000
GEN
1002
}
  0
LINE
  5
110A
330
1F
100
AcDbEntity
  8
10
 48
0.5
100
AcDbLine
 10
98.61676614290331
 20
293.3460244108569
 30
0.0
 11
103.6167661429033
 21
293.3460244108569
 31
0.0
1001
GENIUS_GENREC_14
1002
{
1000
PYDIR
1011
103.6167661429033
1021
293.3460244108569
1031
0.0
1002
}
1002
{
1000
PXDIR
1011
98.61676614290331
1021
256.3460244108568
1031
0.0
1002
}
1002
{
1000
PORI
1011
103.6167661429033
1021
256.3460244108568
1031
0.0
1002
}
1002
{
1000
PINS
1011
103.6167661429033
1021
256.3460244108568
1031
0.0
1002
}
1002
{
1000
PINS2
1011
98.61676614290331
1021
293.3460244108569
1031
0.0
1002
}
1002
{
1000
C
1070
     1
1002
}
1001
GENIUS_GENODEF_13
1002
{
1000
HIER
1070
     0
1002
}
1002
{
1000
MANEDIT
1070
     0
1002
}
1002
{
1000
NOSEL
1070
     0
1002
}
1002
{
1000
BEHIND
1070
     0
1002
}
1002
{
1000
REACTOR
1002
}
1001
GENIUS_GENOBJ-N-REC_13
1002
{
1000
OWNER
1000
GEN
1002
}
  0
LINE
  5
110B
330
1F
100
AcDbEntity
  8
10
 48
0.5
100
AcDbLine
 10
103.6167661429033
 20
293.3460244108569
 30
0.0
 11
103.6167661429033
 21
256.3460244108568
 31
0.0
1001
GENIUS_GENREC_14
1002
{
1000
PYDIR
1011
103.6167661429033
1021
293.3460244108569
1031
0.0
1002
}
1002
{
1000
PXDIR
1011
98.61676614290331
1021
256.3460244108568
1031
0.0
1002
}
1002
{
1000
PORI
1011
103.6167661429033
1021
256.3460244108568
1031
0.0
1002
}
1002
{
1000
PINS
1011
103.6167661429033
1021
256.3460244108568
1031
0.0
1002
}
1002
{
1000
PINS2
1011
98.61676614290331
1021
293.3460244108569
1031
0.0
1002
}
1002
{
1000
C
1070
     1
1002
}
1001
GENIUS_GENODEF_13
1002
{
1000
HIER
1070
     0
1002
}
1002
{
1000
MANEDIT
1070
     0
1002
}
1002
{
1000
NOSEL
1070
     0
1002
}
1002
{
1000
BEHIND
1070
     0
1002
}
1002
{
1000
REACTOR
1002
}
1001
GENIUS_GENOBJ-N-REC_13
1002
{
1000
OWNER
1000
GEN
1002
}
  0
LINE
  5
110C
330
1F
100
AcDbEntity
  8
10
 48
0.5
100
AcDbLine
 10
131.6167661429033
 20
256.3460244108568
 30
0.0
 11
126.6167661429033
 21
256.3460244108568
 31
0.0
1001
GENIUS_GENREC_14
1002
{
1000
PYDIR
1011
131.6167661429033
1021
290.3460244108568
1031
0.0
1002
}
1002
{
1000
PXDIR
1011
126.6167661429033
1021
256.3460244108568
1031
0.0
1002
}
1002
{
1000
PORI
1011
131.6167661429033
1021
256.3460244108568
1031
0.0
1002
}
1002
{
1000
PINS
1011
131.6167661429033
1021
256.3460244108568
1031
0.0
1002
}
1002
{
1000
PINS2
1011
126.6167661429033
1021
290.3460244108568
1031
0.0
1002
}
1002
{
1000
C
1070
     1
1002
}
1001
GENIUS_GENODEF_13
1002
{
1000
HIER
1070
     0
1002
}
1002
{
1000
MANEDIT
1070
     0
1002
}
1002
{
1000
NOSEL
1070
     0
1002
}
1002
{
1000
BEHIND
1070
     0
1002
}
1002
{
1000
REACTOR
1002
}
1001
GENIUS_GENOBJ-N-REC_13
1002
{
1000
OWNER
1000
GEN
1002
}
  0
LINE
  5
110D
330
1F
100
AcDbEntity
  8
10
 48
0.5
100
AcDbLine
 10
126.6167661429033
 20
256.3460244108568
 30
0.0
 11
126.6167661429033
 21
290.3460244108568
 31
0.0
1001
GENIUS_GENREC_14
1002
{
1000
PYDIR
1011
131.6167661429033
1021
290.3460244108568
1031
0.0
1002
}
1002
{
1000
PXDIR
1011
126.6167661429033
1021
256.3460244108568
1031
0.0
1002
}
1002
{
1000
PORI
1011
131.6167661429033
1021
256.3460244108568
1031
0.0
1002
}
1002
{
1000
PINS
1011
131.6167661429033
1021
256.3460244108568
1031
0.0
1002
}
1002
{
1000
PINS2
1011
126.6167661429033
1021
290.3460244108568
1031
0.0
1002
}
1002
{
1000
C
1070
     1
1002
}
1001
GENIUS_GENODEF_13
1002
{
1000
HIER
1070
     0
1002
}
1002
{
1000
MANEDIT
1070
     0
1002
}
1002
{
1000
NOSEL
1070
     0
1002
}
1002
{
1000
BEHIND
1070
     0
1002
}
1002
{
1000
REACTOR
1002
}
1001
GENIUS_GENOBJ-N-REC_13
1002
{
1000
OWNER
1000
GEN
1002
}
  0
LINE
  5
110E
330
1F
100
AcDbEntity
  8
10
 48
0.5
100
AcDbLine
 10
126.6167661429033
 20
290.3460244108568
 30
0.0
 11
131.6167661429033
 21
290.3460244108568
 31
0.0
1001
GENIUS_GENREC_14
1002
{
1000
PYDIR
1011
131.6167661429033
1021
290.3460244108568
1031
0.0
1002
}
1002
{
1000
PXDIR
1011
126.6167661429033
1021
256.3460244108568
1031
0.0
1002
}
1002
{
1000
PORI
1011
131.6167661429033
1021
256.3460244108568
1031
0.0
1002
}
1002
{
1000
PINS
1011
131.6167661429033
1021
256.3460244108568
1031
0.0
1002
}
1002
{
1000
PINS2
1011
126.6167661429033
1021
290.3460244108568
1031
0.0
1002
}
1002
{
1000
C
1070
     1
1002
}
1001
GENIUS_GENODEF_13
1002
{
1000
HIER
1070
     0
1002
}
1002
{
1000
MANEDIT
1070
     0
1002
}
1002
{
1000
NOSEL
1070
     0
1002
}
1002
{
1000
BEHIND
1070
     0
1002
}
1002
{
1000
REACTOR
1002
}
1001
GENIUS_GENOBJ-N-REC_13
1002
{
1000
OWNER
1000
GEN
1002
}
  0
LINE
  5
110F
330
1F
100
AcDbEntity
  8
10
 48
0.5
100
AcDbLine
 10
131.6167661429033
 20
290.3460244108568
 30
0.0
 11
131.6167661429033
 21
256.3460244108568
 31
0.0
1001
GENIUS_GENREC_14
1002
{
1000
PYDIR
1011
131.6167661429033
1021
290.3460244108568
1031
0.0
1002
}
1002
{
1000
PXDIR
1011
126.6167661429033
1021
256.3460244108568
1031
0.0
1002
}
1002
{
1000
PORI
1011
131.6167661429033
1021
256.3460244108568
1031
0.0
1002
}
1002
{
1000
PINS
1011
131.6167661429033
1021
256.3460244108568
1031
0.0
1002
}
1002
{
1000
PINS2
1011
126.6167661429033
1021
290.3460244108568
1031
0.0
1002
}
1002
{
1000
C
1070
     1
1002
}
1001
GENIUS_GENODEF_13
1002
{
1000
HIER
1070
     0
1002
}
1002
{
1000
MANEDIT
1070
     0
1002
}
1002
{
1000
NOSEL
1070
     0
1002
}
1002
{
1000
BEHIND
1070
     0
1002
}
1002
{
1000
REACTOR
1002
}
1001
GENIUS_GENOBJ-N-REC_13
1002
{
1000
OWNER
1000
GEN
1002
}
  0
LINE
  5
1110
330
1F
100
AcDbEntity
  8
17
100
AcDbLine
 10
143.1167661429033
 20
264.5520244108569
 30
0.0
 11
143.1167661429033
 21
271.7400244108568
 31
0.0
  0
LINE
  5
1111
330
1F
100
AcDbEntity
  8
10
100
AcDbLine
 10
134.6167661429033
 20
267.3460244108568
 30
0.0
 11
151.6167661429033
 21
267.3460244108568
 31
0.0
  0
LINE
  5
1112
330
1F
100
AcDbEntity
  8
10
100
AcDbLine
 10
151.6167661429033
 20
268.9460244108567
 30
0.0
 11
134.6167661429033
 21
268.9460244108567
 31
0.0
  0
LINE
  5
1113
330
1F
100
AcDbEntity
  8
10
100
AcDbLine
 10
151.6167661429033
 20
267.3460244108568
 30
0.0
 11
151.6167661429033
 21
268.9460244108567
 31
0.0
  0
LINE
  5
1114
330
1F
100
AcDbEntity
  8
10
100
AcDbLine
 10
134.6167661429033
 20
268.9460244108567
 30
0.0
 11
134.6167661429033
 21
267.3460244108568
 31
0.0
  0
LINE
  5
1115
330
1F
100
AcDbEntity
  8
10
100
AcDbLine
 10
135.4167661429032
 20
270.9460244108568
 30
0.0
 11
150.8167661429033
 21
270.9460244108568
 31
0.0
  0
LINE
  5
1116
330
1F
100
AcDbEntity
  8
10
100
AcDbLine
 10
150.8167661429033
 20
268.9460244108567
 30
0.0
 11
135.4167661429032
 21
268.9460244108567
 31
0.0
  0
LINE
  5
1117
330
1F
100
AcDbEntity
  8
10
100
AcDbLine
 10
150.8167661429033
 20
270.9460244108568
 30
0.0
 11
150.8167661429033
 21
268.9460244108567
 31
0.0
  0
LINE
  5
1118
330
1F
100
AcDbEntity
  8
17
100
AcDbLine
 10
143.1167661429033
 20
273.7400244108568
 30
0.0
 11
143.1167661429033
 21
266.1520244108568
 31
0.0
  0
LINE
  5
1119
330
1F
100
AcDbEntity
  8
10
100
AcDbLine
 10
135.4167661429032
 20
268.9460244108567
 30
0.0
 11
135.4167661429032
 21
270.9460244108568
 31
0.0
  0
LINE
  5
111A
330
1F
100
AcDbEntity
  8
10
100
AcDbLine
 10
135.6092661429031
 20
277.4460244108567
 30
0.0
 11
150.6242661429034
 21
277.4460244108567
 31
0.0
  0
LINE
  5
111B
330
1F
100
AcDbEntity
  8
10
100
AcDbLine
 10
135.6092661429031
 20
270.9460244108568
 30
0.0
 11
150.6242661429034
 21
270.9460244108568
 31
0.0
  0
LINE
  5
111C
330
1F
100
AcDbEntity
  8
10
100
AcDbLine
 10
150.6242661429034
 20
270.9460244108568
 30
0.0
 11
150.6242661429034
 21
277.4460244108567
 31
0.0
  0
LINE
  5
111D
330
1F
100
AcDbEntity
  8
10
100
AcDbLine
 10
146.8705161429031
 20
270.9460244108568
 30
0.0
 11
146.8705161429031
 21
277.4460244108567
 31
0.0
  0
LINE
  5
111E
330
1F
100
AcDbEntity
  8
17
100
AcDbLine
 10
143.1167661429033
 20
268.1520244108568
 30
0.0
 11
143.1167661429033
 21
280.2400244108568
 31
0.0
  0
LINE
  5
111F
330
1F
100
AcDbEntity
  8
10
100
AcDbLine
 10
139.3630161429034
 20
270.9460244108568
 30
0.0
 11
139.3630161429034
 21
277.4460244108567
 31
0.0
  0
LINE
  5
1120
330
1F
100
AcDbEntity
  8
10
100
AcDbLine
 10
135.6092661429031
 20
270.9460244108568
 30
0.0
 11
135.6092661429031
 21
277.4460244108567
 31
0.0
  0
LINE
  5
1121
330
1F
100
AcDbEntity
  8
10
 48
0.5
100
AcDbLine
 10
159.6167661429033
 20
256.3460244108568
 30
0.0
 11
154.6167661429033
 21
256.3460244108568
 31
0.0
1001
GENIUS_GENREC_14
1002
{
1000
PYDIR
1011
159.6167661429033
1021
290.3460244108568
1031
0.0
1002
}
1002
{
1000
PXDIR
1011
154.6167661429033
1021
256.3460244108568
1031
0.0
1002
}
1002
{
1000
PORI
1011
159.6167661429033
1021
256.3460244108568
1031
0.0
1002
}
1002
{
1000
PINS
1011
159.6167661429033
1021
256.3460244108568
1031
0.0
1002
}
1002
{
1000
PINS2
1011
154.6167661429033
1021
290.3460244108568
1031
0.0
1002
}
1002
{
1000
C
1070
     1
1002
}
1001
GENIUS_GENODEF_13
1002
{
1000
HIER
1070
     0
1002
}
1002
{
1000
MANEDIT
1070
     0
1002
}
1002
{
1000
NOSEL
1070
     0
1002
}
1002
{
1000
BEHIND
1070
     0
1002
}
1002
{
1000
REACTOR
1002
}
1001
GENIUS_GENOBJ-N-REC_13
1002
{
1000
OWNER
1000
GEN
1002
}
  0
LINE
  5
1122
330
1F
100
AcDbEntity
  8
10
 48
0.5
100
AcDbLine
 10
154.6167661429033
 20
256.3460244108568
 30
0.0
 11
154.6167661429033
 21
290.3460244108568
 31
0.0
1001
GENIUS_GENREC_14
1002
{
1000
PYDIR
1011
159.6167661429033
1021
290.3460244108568
1031
0.0
1002
}
1002
{
1000
PXDIR
1011
154.6167661429033
1021
256.3460244108568
1031
0.0
1002
}
1002
{
1000
PORI
1011
159.6167661429033
1021
256.3460244108568
1031
0.0
1002
}
1002
{
1000
PINS
1011
159.6167661429033
1021
256.3460244108568
1031
0.0
1002
}
1002
{
1000
PINS2
1011
154.6167661429033
1021
290.3460244108568
1031
0.0
1002
}
1002
{
1000
C
1070
     1
1002
}
1001
GENIUS_GENODEF_13
1002
{
1000
HIER
1070
     0
1002
}
1002
{
1000
MANEDIT
1070
     0
1002
}
1002
{
1000
NOSEL
1070
     0
1002
}
1002
{
1000
BEHIND
1070
     0
1002
}
1002
{
1000
REACTOR
1002
}
1001
GENIUS_GENOBJ-N-REC_13
1002
{
1000
OWNER
1000
GEN
1002
}
  0
LINE
  5
1123
330
1F
100
AcDbEntity
  8
10
 48
0.5
100
AcDbLine
 10
154.6167661429033
 20
290.3460244108568
 30
0.0
 11
159.6167661429033
 21
290.3460244108568
 31
0.0
1001
GENIUS_GENREC_14
1002
{
1000
PYDIR
1011
159.6167661429033
1021
290.3460244108568
1031
0.0
1002
}
1002
{
1000
PXDIR
1011
154.6167661429033
1021
256.3460244108568
1031
0.0
1002
}
1002
{
1000
PORI
1011
159.6167661429033
1021
256.3460244108568
1031
0.0
1002
}
1002
{
1000
PINS
1011
159.6167661429033
1021
256.3460244108568
1031
0.0
1002
}
1002
{
1000
PINS2
1011
154.6167661429033
1021
290.3460244108568
1031
0.0
1002
}
1002
{
1000
C
1070
     1
1002
}
1001
GENIUS_GENODEF_13
1002
{
1000
HIER
1070
     0
1002
}
1002
{
1000
MANEDIT
1070
     0
1002
}
1002
{
1000
NOSEL
1070
     0
1002
}
1002
{
1000
BEHIND
1070
     0
1002
}
1002
{
1000
REACTOR
1002
}
1001
GENIUS_GENOBJ-N-REC_13
1002
{
1000
OWNER
1000
GEN
1002
}
  0
LINE
  5
1124
330
1F
100
AcDbEntity
  8
10
 48
0.5
100
AcDbLine
 10
159.6167661429033
 20
290.3460244108568
 30
0.0
 11
159.6167661429033
 21
256.3460244108568
 31
0.0
1001
GENIUS_GENREC_14
1002
{
1000
PYDIR
1011
159.6167661429033
1021
290.3460244108568
1031
0.0
1002
}
1002
{
1000
PXDIR
1011
154.6167661429033
1021
256.3460244108568
1031
0.0
1002
}
1002
{
1000
PORI
1011
159.6167661429033
1021
256.3460244108568
1031
0.0
1002
}
1002
{
1000
PINS
1011
159.6167661429033
1021
256.3460244108568
1031
0.0
1002
}
1002
{
1000
PINS2
1011
154.6167661429033
1021
290.3460244108568
1031
0.0
1002
}
1002
{
1000
C
1070
     1
1002
}
1001
GENIUS_GENODEF_13
1002
{
1000
HIER
1070
     0
1002
}
1002
{
1000
MANEDIT
1070
     0
1002
}
1002
{
1000
NOSEL
1070
     0
1002
}
1002
{
1000
BEHIND
1070
     0
1002
}
1002
{
1000
REACTOR
1002
}
1001
GENIUS_GENOBJ-N-REC_13
1002
{
1000
OWNER
1000
GEN
1002
}
  0
LINE
  5
1125
330
1F
100
AcDbEntity
  8
10
100
AcDbLine
 10
163.4167661429032
 20
270.9460244108568
 30
0.0
 11
178.8167661429033
 21
270.9460244108568
 31
0.0
  0
LINE
  5
1126
330
1F
100
AcDbEntity
  8
10
100
AcDbLine
 10
178.8167661429033
 20
268.9460244108567
 30
0.0
 11
163.4167661429032
 21
268.9460244108567
 31
0.0
  0
LINE
  5
1127
330
1F
100
AcDbEntity
  8
10
100
AcDbLine
 10
178.8167661429033
 20
270.9460244108568
 30
0.0
 11
178.8167661429033
 21
268.9460244108567
 31
0.0
  0
LINE
  5
1128
330
1F
100
AcDbEntity
  8
17
100
AcDbLine
 10
171.1167661429033
 20
273.7400244108568
 30
0.0
 11
171.1167661429033
 21
266.1520244108568
 31
0.0
  0
LINE
  5
1129
330
1F
100
AcDbEntity
  8
10
100
AcDbLine
 10
163.4167661429032
 20
268.9460244108567
 30
0.0
 11
163.4167661429032
 21
270.9460244108568
 31
0.0
  0
LINE
  5
112A
330
1F
100
AcDbEntity
  8
10
100
AcDbLine
 10
163.6092661429031
 20
277.4460244108567
 30
0.0
 11
178.6242661429032
 21
277.4460244108567
 31
0.0
  0
LINE
  5
112B
330
1F
100
AcDbEntity
  8
10
100
AcDbLine
 10
163.6092661429031
 20
270.9460244108568
 30
0.0
 11
178.6242661429032
 21
270.9460244108568
 31
0.0
  0
LINE
  5
112C
330
1F
100
AcDbEntity
  8
10
100
AcDbLine
 10
178.6242661429032
 20
270.9460244108568
 30
0.0
 11
178.6242661429032
 21
277.4460244108567
 31
0.0
  0
LINE
  5
112D
330
1F
100
AcDbEntity
  8
10
100
AcDbLine
 10
174.8705161429034
 20
270.9460244108568
 30
0.0
 11
174.8705161429034
 21
277.4460244108567
 31
0.0
  0
LINE
  5
112E
330
1F
100
AcDbEntity
  8
17
100
AcDbLine
 10
171.1167661429033
 20
268.1520244108568
 30
0.0
 11
171.1167661429033
 21
280.2400244108568
 31
0.0
  0
LINE
  5
112F
330
1F
100
AcDbEntity
  8
10
100
AcDbLine
 10
167.3630161429032
 20
270.9460244108568
 30
0.0
 11
167.3630161429032
 21
277.4460244108567
 31
0.0
  0
LINE
  5
1130
330
1F
100
AcDbEntity
  8
10
100
AcDbLine
 10
163.6092661429031
 20
270.9460244108568
 30
0.0
 11
163.6092661429031
 21
277.4460244108567
 31
0.0
  0
LINE
  5
1131
330
1F
100
AcDbEntity
  8
17
100
AcDbLine
 10
171.1167661429033
 20
264.5520244108569
 30
0.0
 11
171.1167661429033
 21
271.7400244108568
 31
0.0
  0
LINE
  5
1132
330
1F
100
AcDbEntity
  8
10
100
AcDbLine
 10
162.6167661429033
 20
267.3460244108568
 30
0.0
 11
179.6167661429033
 21
267.3460244108568
 31
0.0
  0
LINE
  5
1133
330
1F
100
AcDbEntity
  8
10
100
AcDbLine
 10
179.6167661429033
 20
268.9460244108567
 30
0.0
 11
162.6167661429033
 21
268.9460244108567
 31
0.0
  0
LINE
  5
1134
330
1F
100
AcDbEntity
  8
10
100
AcDbLine
 10
179.6167661429033
 20
267.3460244108568
 30
0.0
 11
179.6167661429033
 21
268.9460244108567
 31
0.0
  0
LINE
  5
1135
330
1F
100
AcDbEntity
  8
10
100
AcDbLine
 10
162.6167661429033
 20
268.9460244108567
 30
0.0
 11
162.6167661429033
 21
267.3460244108568
 31
0.0
  0
LINE
  5
1136
330
1F
100
AcDbEntity
  8
10
 48
0.5
100
AcDbLine
 10
188.1167661429028
 20
258.3460244108508
 30
0.0
 11
200.6167661429028
 21
258.3460244108508
 31
0.0
1001
GENIUS_GENREC_14
1002
{
1000
PYDIR
1011
302.1167661429028
1021
243.3460244108508
1031
0.0
1002
}
1002
{
1000
PXDIR
1011
289.6167661429028
1021
258.3460244108508
1031
0.0
1002
}
1002
{
1000
PORI
1011
302.1167661429028
1021
258.3460244108508
1031
0.0
1002
}
1002
{
1000
PINS
1011
302.1167661429028
1021
258.3460244108508
1031
0.0
1002
}
1002
{
1000
PINS2
1011
289.6167661429028
1021
243.3460244108508
1031
0.0
1002
}
1002
{
1000
C
1070
     1
1002
}
1001
GENIUS_GENODEF_13
1002
{
1000
HIER
1070
     0
1002
}
1002
{
1000
MANEDIT
1070
     0
1002
}
1002
{
1000
NOSEL
1070
     0
1002
}
1002
{
1000
BEHIND
1070
     0
1002
}
1002
{
1000
REACTOR
1002
}
1001
GENIUS_GENOBJ-N-REC_13
1002
{
1000
OWNER
1000
GEN
1002
}
  0
LINE
  5
1137
330
1F
100
AcDbEntity
  8
10
 48
0.5
100
AcDbLine
 10
200.6167661429028
 20
258.3460244108508
 30
0.0
 11
200.6167661429028
 21
243.3460244108508
 31
0.0
1001
GENIUS_GENREC_14
1002
{
1000
PYDIR
1011
302.1167661429028
1021
243.3460244108508
1031
0.0
1002
}
1002
{
1000
PXDIR
1011
289.6167661429028
1021
258.3460244108508
1031
0.0
1002
}
1002
{
1000
PORI
1011
302.1167661429028
1021
258.3460244108508
1031
0.0
1002
}
1002
{
1000
PINS
1011
302.1167661429028
1021
258.3460244108508
1031
0.0
1002
}
1002
{
1000
PINS2
1011
289.6167661429028
1021
243.3460244108508
1031
0.0
1002
}
1002
{
1000
C
1070
     1
1002
}
1001
GENIUS_GENODEF_13
1002
{
1000
HIER
1070
     0
1002
}
1002
{
1000
MANEDIT
1070
     0
1002
}
1002
{
1000
NOSEL
1070
     0
1002
}
1002
{
1000
BEHIND
1070
     0
1002
}
1002
{
1000
REACTOR
1002
}
1001
GENIUS_GENOBJ-N-REC_13
1002
{
1000
OWNER
1000
GEN
1002
}
  0
LINE
  5
1138
330
1F
100
AcDbEntity
  8
10
 48
0.5
100
AcDbLine
 10
200.6167661429028
 20
243.3460244108508
 30
0.0
 11
188.1167661429028
 21
243.3460244108508
 31
0.0
1001
GENIUS_GENREC_14
1002
{
1000
PYDIR
1011
302.1167661429028
1021
243.3460244108508
1031
0.0
1002
}
1002
{
1000
PXDIR
1011
289.6167661429028
1021
258.3460244108508
1031
0.0
1002
}
1002
{
1000
PORI
1011
302.1167661429028
1021
258.3460244108508
1031
0.0
1002
}
1002
{
1000
PINS
1011
302.1167661429028
1021
258.3460244108508
1031
0.0
1002
}
1002
{
1000
PINS2
1011
289.6167661429028
1021
243.3460244108508
1031
0.0
1002
}
1002
{
1000
C
1070
     1
1002
}
1001
GENIUS_GENODEF_13
1002
{
1000
HIER
1070
     0
1002
}
1002
{
1000
MANEDIT
1070
     0
1002
}
1002
{
1000
NOSEL
1070
     0
1002
}
1002
{
1000
BEHIND
1070
     0
1002
}
1002
{
1000
REACTOR
1002
}
1001
GENIUS_GENOBJ-N-REC_13
1002
{
1000
OWNER
1000
GEN
1002
}
  0
LINE
  5
1139
330
1F
100
AcDbEntity
  8
10
 48
0.5
100
AcDbLine
 10
188.1167661429028
 20
243.3460244108508
 30
0.0
 11
188.1167661429028
 21
258.3460244108508
 31
0.0
1001
GENIUS_GENREC_14
1002
{
1000
PYDIR
1011
302.1167661429028
1021
243.3460244108508
1031
0.0
1002
}
1002
{
1000
PXDIR
1011
289.6167661429028
1021
258.3460244108508
1031
0.0
1002
}
1002
{
1000
PORI
1011
302.1167661429028
1021
258.3460244108508
1031
0.0
1002
}
1002
{
1000
PINS
1011
302.1167661429028
1021
258.3460244108508
1031
0.0
1002
}
1002
{
1000
PINS2
1011
289.6167661429028
1021
243.3460244108508
1031
0.0
1002
}
1002
{
1000
C
1070
     1
1002
}
1001
GENIUS_GENODEF_13
1002
{
1000
HIER
1070
     0
1002
}
1002
{
1000
MANEDIT
1070
     0
1002
}
1002
{
1000
NOSEL
1070
     0
1002
}
1002
{
1000
BEHIND
1070
     0
1002
}
1002
{
1000
REACTOR
1002
}
1001
GENIUS_GENOBJ-N-REC_13
1002
{
1000
OWNER
1000
GEN
1002
}
  0
LINE
  5
113A
330
1F
100
AcDbEntity
  8
10
 48
0.5
100
AcDbLine
 10
284.6167661429028
 20
290.3460244108508
 30
0.0
 11
205.6167661429028
 21
290.3460244108508
 31
0.0
1001
GENIUS_GENREC_14
1002
{
1000
PYDIR
1011
284.6167661429028
1021
291.3460244108508
1031
0.0
1002
}
1002
{
1000
PXDIR
1011
205.6167661429028
1021
290.3460244108508
1031
0.0
1002
}
1002
{
1000
PORI
1011
284.6167661429028
1021
290.3460244108508
1031
0.0
1002
}
1002
{
1000
PINS
1011
284.6167661429028
1021
290.3460244108508
1031
0.0
1002
}
1002
{
1000
PINS2
1011
205.6167661429028
1021
291.3460244108508
1031
0.0
1002
}
1002
{
1000
C
1070
     1
1002
}
1001
GENIUS_GENODEF_13
1002
{
1000
HIER
1070
     0
1002
}
1002
{
1000
MANEDIT
1070
     0
1002
}
1002
{
1000
NOSEL
1070
     0
1002
}
1002
{
1000
BEHIND
1070
     0
1002
}
1002
{
1000
REACTOR
1002
}
1001
GENIUS_GENOBJ-N-REC_13
1002
{
1000
OWNER
1000
GEN
1002
}
  0
LINE
  5
113B
330
1F
100
AcDbEntity
  8
10
 48
0.5
100
AcDbLine
 10
205.6167661429028
 20
290.3460244108508
 30
0.0
 11
205.6167661429028
 21
291.3460244108508
 31
0.0
1001
GENIUS_GENREC_14
1002
{
1000
PYDIR
1011
284.6167661429028
1021
291.3460244108508
1031
0.0
1002
}
1002
{
1000
PXDIR
1011
205.6167661429028
1021
290.3460244108508
1031
0.0
1002
}
1002
{
1000
PORI
1011
284.6167661429028
1021
290.3460244108508
1031
0.0
1002
}
1002
{
1000
PINS
1011
284.6167661429028
1021
290.3460244108508
1031
0.0
1002
}
1002
{
1000
PINS2
1011
205.6167661429028
1021
291.3460244108508
1031
0.0
1002
}
1002
{
1000
C
1070
     1
1002
}
1001
GENIUS_GENODEF_13
1002
{
1000
HIER
1070
     0
1002
}
1002
{
1000
MANEDIT
1070
     0
1002
}
1002
{
1000
NOSEL
1070
     0
1002
}
1002
{
1000
BEHIND
1070
     0
1002
}
1002
{
1000
REACTOR
1002
}
1001
GENIUS_GENOBJ-N-REC_13
1002
{
1000
OWNER
1000
GEN
1002
}
  0
LINE
  5
113C
330
1F
100
AcDbEntity
  8
10
 48
0.5
100
AcDbLine
 10
205.6167661429028
 20
291.3460244108508
 30
0.0
 11
284.6167661429028
 21
291.3460244108508
 31
0.0
1001
GENIUS_GENREC_14
1002
{
1000
PYDIR
1011
284.6167661429028
1021
291.3460244108508
1031
0.0
1002
}
1002
{
1000
PXDIR
1011
205.6167661429028
1021
290.3460244108508
1031
0.0
1002
}
1002
{
1000
PORI
1011
284.6167661429028
1021
290.3460244108508
1031
0.0
1002
}
1002
{
1000
PINS
1011
284.6167661429028
1021
290.3460244108508
1031
0.0
1002
}
1002
{
1000
PINS2
1011
205.6167661429028
1021
291.3460244108508
1031
0.0
1002
}
1002
{
1000
C
1070
     1
1002
}
1001
GENIUS_GENODEF_13
1002
{
1000
HIER
1070
     0
1002
}
1002
{
1000
MANEDIT
1070
     0
1002
}
1002
{
1000
NOSEL
1070
     0
1002
}
1002
{
1000
BEHIND
1070
     0
1002
}
1002
{
1000
REACTOR
1002
}
1001
GENIUS_GENOBJ-N-REC_13
1002
{
1000
OWNER
1000
GEN
1002
}
  0
LINE
  5
113D
330
1F
100
AcDbEntity
  8
10
 48
0.5
100
AcDbLine
 10
284.6167661429028
 20
291.3460244108508
 30
0.0
 11
284.6167661429028
 21
290.3460244108508
 31
0.0
1001
GENIUS_GENREC_14
1002
{
1000
PYDIR
1011
284.6167661429028
1021
291.3460244108508
1031
0.0
1002
}
1002
{
1000
PXDIR
1011
205.6167661429028
1021
290.3460244108508
1031
0.0
1002
}
1002
{
1000
PORI
1011
284.6167661429028
1021
290.3460244108508
1031
0.0
1002
}
1002
{
1000
PINS
1011
284.6167661429028
1021
290.3460244108508
1031
0.0
1002
}
1002
{
1000
PINS2
1011
205.6167661429028
1021
291.3460244108508
1031
0.0
1002
}
1002
{
1000
C
1070
     1
1002
}
1001
GENIUS_GENODEF_13
1002
{
1000
HIER
1070
     0
1002
}
1002
{
1000
MANEDIT
1070
     0
1002
}
1002
{
1000
NOSEL
1070
     0
1002
}
1002
{
1000
BEHIND
1070
     0
1002
}
1002
{
1000
REACTOR
1002
}
1001
GENIUS_GENOBJ-N-REC_13
1002
{
1000
OWNER
1000
GEN
1002
}
  0
LINE
  5
113E
330
1F
100
AcDbEntity
  8
10
 48
0.5
100
AcDbLine
 10
302.1167661429028
 20
258.3460244108508
 30
0.0
 11
289.6167661429028
 21
258.3460244108508
 31
0.0
1001
GENIUS_GENREC_14
1002
{
1000
PYDIR
1011
302.1167661429028
1021
243.3460244108508
1031
0.0
1002
}
1002
{
1000
PXDIR
1011
289.6167661429028
1021
258.3460244108508
1031
0.0
1002
}
1002
{
1000
PORI
1011
302.1167661429028
1021
258.3460244108508
1031
0.0
1002
}
1002
{
1000
PINS
1011
302.1167661429028
1021
258.3460244108508
1031
0.0
1002
}
1002
{
1000
PINS2
1011
289.6167661429028
1021
243.3460244108508
1031
0.0
1002
}
1002
{
1000
C
1070
     1
1002
}
1001
GENIUS_GENODEF_13
1002
{
1000
HIER
1070
     0
1002
}
1002
{
1000
MANEDIT
1070
     0
1002
}
1002
{
1000
NOSEL
1070
     0
1002
}
1002
{
1000
BEHIND
1070
     0
1002
}
1002
{
1000
REACTOR
1002
}
1001
GENIUS_GENOBJ-N-REC_13
1002
{
1000
OWNER
1000
GEN
1002
}
  0
LINE
  5
113F
330
1F
100
AcDbEntity
  8
10
 48
0.5
100
AcDbLine
 10
289.6167661429028
 20
258.3460244108508
 30
0.0
 11
289.6167661429028
 21
243.3460244108508
 31
0.0
1001
GENIUS_GENREC_14
1002
{
1000
PYDIR
1011
302.1167661429028
1021
243.3460244108508
1031
0.0
1002
}
1002
{
1000
PXDIR
1011
289.6167661429028
1021
258.3460244108508
1031
0.0
1002
}
1002
{
1000
PORI
1011
302.1167661429028
1021
258.3460244108508
1031
0.0
1002
}
1002
{
1000
PINS
1011
302.1167661429028
1021
258.3460244108508
1031
0.0
1002
}
1002
{
1000
PINS2
1011
289.6167661429028
1021
243.3460244108508
1031
0.0
1002
}
1002
{
1000
C
1070
     1
1002
}
1001
GENIUS_GENODEF_13
1002
{
1000
HIER
1070
     0
1002
}
1002
{
1000
MANEDIT
1070
     0
1002
}
1002
{
1000
NOSEL
1070
     0
1002
}
1002
{
1000
BEHIND
1070
     0
1002
}
1002
{
1000
REACTOR
1002
}
1001
GENIUS_GENOBJ-N-REC_13
1002
{
1000
OWNER
1000
GEN
1002
}
  0
LINE
  5
1140
330
1F
100
AcDbEntity
  8
10
 48
0.5
100
AcDbLine
 10
289.6167661429028
 20
243.3460244108508
 30
0.0
 11
302.1167661429028
 21
243.3460244108508
 31
0.0
1001
GENIUS_GENREC_14
1002
{
1000
PYDIR
1011
302.1167661429028
1021
243.3460244108508
1031
0.0
1002
}
1002
{
1000
PXDIR
1011
289.6167661429028
1021
258.3460244108508
1031
0.0
1002
}
1002
{
1000
PORI
1011
302.1167661429028
1021
258.3460244108508
1031
0.0
1002
}
1002
{
1000
PINS
1011
302.1167661429028
1021
258.3460244108508
1031
0.0
1002
}
1002
{
1000
PINS2
1011
289.6167661429028
1021
243.3460244108508
1031
0.0
1002
}
1002
{
1000
C
1070
     1
1002
}
1001
GENIUS_GENODEF_13
1002
{
1000
HIER
1070
     0
1002
}
1002
{
1000
MANEDIT
1070
     0
1002
}
1002
{
1000
NOSEL
1070
     0
1002
}
1002
{
1000
BEHIND
1070
     0
1002
}
1002
{
1000
REACTOR
1002
}
1001
GENIUS_GENOBJ-N-REC_13
1002
{
1000
OWNER
1000
GEN
1002
}
  0
LINE
  5
1141
330
1F
100
AcDbEntity
  8
10
 48
0.5
100
AcDbLine
 10
302.1167661429028
 20
243.3460244108508
 30
0.0
 11
302.1167661429028
 21
258.3460244108508
 31
0.0
1001
GENIUS_GENREC_14
1002
{
1000
PYDIR
1011
302.1167661429028
1021
243.3460244108508
1031
0.0
1002
}
1002
{
1000
PXDIR
1011
289.6167661429028
1021
258.3460244108508
1031
0.0
1002
}
1002
{
1000
PORI
1011
302.1167661429028
1021
258.3460244108508
1031
0.0
1002
}
1002
{
1000
PINS
1011
302.1167661429028
1021
258.3460244108508
1031
0.0
1002
}
1002
{
1000
PINS2
1011
289.6167661429028
1021
243.3460244108508
1031
0.0
1002
}
1002
{
1000
C
1070
     1
1002
}
1001
GENIUS_GENODEF_13
1002
{
1000
HIER
1070
     0
1002
}
1002
{
1000
MANEDIT
1070
     0
1002
}
1002
{
1000
NOSEL
1070
     0
1002
}
1002
{
1000
BEHIND
1070
     0
1002
}
1002
{
1000
REACTOR
1002
}
1001
GENIUS_GENOBJ-N-REC_13
1002
{
1000
OWNER
1000
GEN
1002
}
  0
LINE
  5
1142
330
1F
100
AcDbEntity
  8
10
 48
0.5
100
AcDbLine
 10
228.6167661429028
 20
267.3460244108508
 30
0.0
 11
205.6167661429028
 21
267.3460244108508
 31
0.0
  0
LINE
  5
1143
330
1F
100
AcDbEntity
  8
10
 48
0.5
100
AcDbLine
 10
256.6167661429028
 20
267.3460244108508
 30
0.0
 11
233.6167661429028
 21
267.3460244108508
 31
0.0
  0
LINE
  5
1144
330
1F
100
AcDbEntity
  8
10
 48
0.5
100
AcDbLine
 10
284.6167661429028
 20
267.3460244108508
 30
0.0
 11
261.6167661429028
 21
267.3460244108508
 31
0.0
  0
LINE
  5
1145
330
1F
100
AcDbEntity
  8
10
 48
0.5
100
AcDbLine
 10
289.6167661429028
 20
256.3460244108508
 30
0.0
 11
289.6167661429028
 21
243.3460244108508
 31
0.0
  0
LINE
  5
1146
330
1F
100
AcDbEntity
  8
10
 48
0.5
100
AcDbLine
 10
289.6167661429028
 20
243.3460244108508
 30
0.0
 11
200.6167661429028
 21
243.3460244108508
 31
0.0
  0
LINE
  5
1147
330
1F
100
AcDbEntity
  8
10
 48
0.5
100
AcDbLine
 10
200.6167661429028
 20
243.3460244108508
 30
0.0
 11
200.6167661429028
 21
256.3460244108508
 31
0.0
  0
LINE
  5
1148
330
1F
100
AcDbEntity
  8
10
 48
0.5
100
AcDbLine
 10
289.6167661429028
 20
256.3460244108508
 30
0.0
 11
284.6167661429028
 21
256.3460244108508
 31
0.0
1001
GENIUS_GENREC_14
1002
{
1000
PYDIR
1011
289.6167661429028
1021
293.3460244108508
1031
0.0
1002
}
1002
{
1000
PXDIR
1011
284.6167661429028
1021
256.3460244108508
1031
0.0
1002
}
1002
{
1000
PORI
1011
289.6167661429028
1021
256.3460244108508
1031
0.0
1002
}
1002
{
1000
PINS
1011
289.6167661429028
1021
256.3460244108508
1031
0.0
1002
}
1002
{
1000
PINS2
1011
284.6167661429028
1021
293.3460244108508
1031
0.0
1002
}
1002
{
1000
C
1070
     1
1002
}
1001
GENIUS_GENODEF_13
1002
{
1000
HIER
1070
     0
1002
}
1002
{
1000
MANEDIT
1070
     0
1002
}
1002
{
1000
NOSEL
1070
     0
1002
}
1002
{
1000
BEHIND
1070
     0
1002
}
1002
{
1000
REACTOR
1002
}
1001
GENIUS_GENOBJ-N-REC_13
1002
{
1000
OWNER
1000
GEN
1002
}
  0
LINE
  5
1149
330
1F
100
AcDbEntity
  8
10
 48
0.5
100
AcDbLine
 10
284.6167661429028
 20
256.3460244108508
 30
0.0
 11
284.6167661429028
 21
293.3460244108508
 31
0.0
1001
GENIUS_GENREC_14
1002
{
1000
PYDIR
1011
289.6167661429028
1021
293.3460244108508
1031
0.0
1002
}
1002
{
1000
PXDIR
1011
284.6167661429028
1021
256.3460244108508
1031
0.0
1002
}
1002
{
1000
PORI
1011
289.6167661429028
1021
256.3460244108508
1031
0.0
1002
}
1002
{
1000
PINS
1011
289.6167661429028
1021
256.3460244108508
1031
0.0
1002
}
1002
{
1000
PINS2
1011
284.6167661429028
1021
293.3460244108508
1031
0.0
1002
}
1002
{
1000
C
1070
     1
1002
}
1001
GENIUS_GENODEF_13
1002
{
1000
HIER
1070
     0
1002
}
1002
{
1000
MANEDIT
1070
     0
1002
}
1002
{
1000
NOSEL
1070
     0
1002
}
1002
{
1000
BEHIND
1070
     0
1002
}
1002
{
1000
REACTOR
1002
}
1001
GENIUS_GENOBJ-N-REC_13
1002
{
1000
OWNER
1000
GEN
1002
}
  0
LINE
  5
114A
330
1F
100
AcDbEntity
  8
10
 48
0.5
100
AcDbLine
 10
284.6167661429028
 20
293.3460244108508
 30
0.0
 11
289.6167661429028
 21
293.3460244108508
 31
0.0
1001
GENIUS_GENREC_14
1002
{
1000
PYDIR
1011
289.6167661429028
1021
293.3460244108508
1031
0.0
1002
}
1002
{
1000
PXDIR
1011
284.6167661429028
1021
256.3460244108508
1031
0.0
1002
}
1002
{
1000
PORI
1011
289.6167661429028
1021
256.3460244108508
1031
0.0
1002
}
1002
{
1000
PINS
1011
289.6167661429028
1021
256.3460244108508
1031
0.0
1002
}
1002
{
1000
PINS2
1011
284.6167661429028
1021
293.3460244108508
1031
0.0
1002
}
1002
{
1000
C
1070
     1
1002
}
1001
GENIUS_GENODEF_13
1002
{
1000
HIER
1070
     0
1002
}
1002
{
1000
MANEDIT
1070
     0
1002
}
1002
{
1000
NOSEL
1070
     0
1002
}
1002
{
1000
BEHIND
1070
     0
1002
}
1002
{
1000
REACTOR
1002
}
1001
GENIUS_GENOBJ-N-REC_13
1002
{
1000
OWNER
1000
GEN
1002
}
  0
LINE
  5
114B
330
1F
100
AcDbEntity
  8
10
 48
0.5
100
AcDbLine
 10
289.6167661429028
 20
293.3460244108508
 30
0.0
 11
289.6167661429028
 21
256.3460244108508
 31
0.0
1001
GENIUS_GENREC_14
1002
{
1000
PYDIR
1011
289.6167661429028
1021
293.3460244108508
1031
0.0
1002
}
1002
{
1000
PXDIR
1011
284.6167661429028
1021
256.3460244108508
1031
0.0
1002
}
1002
{
1000
PORI
1011
289.6167661429028
1021
256.3460244108508
1031
0.0
1002
}
1002
{
1000
PINS
1011
289.6167661429028
1021
256.3460244108508
1031
0.0
1002
}
1002
{
1000
PINS2
1011
284.6167661429028
1021
293.3460244108508
1031
0.0
1002
}
1002
{
1000
C
1070
     1
1002
}
1001
GENIUS_GENODEF_13
1002
{
1000
HIER
1070
     0
1002
}
1002
{
1000
MANEDIT
1070
     0
1002
}
1002
{
1000
NOSEL
1070
     0
1002
}
1002
{
1000
BEHIND
1070
     0
1002
}
1002
{
1000
REACTOR
1002
}
1001
GENIUS_GENOBJ-N-REC_13
1002
{
1000
OWNER
1000
GEN
1002
}
  0
LINE
  5
114C
330
1F
100
AcDbEntity
  8
10
100
AcDbLine
 10
209.4167661429028
 20
270.9460244108508
 30
0.0
 11
224.8167661429028
 21
270.9460244108508
 31
0.0
  0
LINE
  5
114D
330
1F
100
AcDbEntity
  8
10
100
AcDbLine
 10
224.8167661429028
 20
268.9460244108508
 30
0.0
 11
209.4167661429028
 21
268.9460244108508
 31
0.0
  0
LINE
  5
114E
330
1F
100
AcDbEntity
  8
10
100
AcDbLine
 10
224.8167661429028
 20
270.9460244108508
 30
0.0
 11
224.8167661429028
 21
268.9460244108508
 31
0.0
  0
LINE
  5
114F
330
1F
100
AcDbEntity
  8
17
100
AcDbLine
 10
217.1167661429028
 20
273.7400244108507
 30
0.0
 11
217.1167661429028
 21
266.1520244108507
 31
0.0
  0
LINE
  5
1150
330
1F
100
AcDbEntity
  8
10
100
AcDbLine
 10
209.4167661429028
 20
268.9460244108508
 30
0.0
 11
209.4167661429028
 21
270.9460244108508
 31
0.0
  0
LINE
  5
1151
330
1F
100
AcDbEntity
  8
17
100
AcDbLine
 10
217.1167661429028
 20
264.5520244108508
 30
0.0
 11
217.1167661429028
 21
271.7400244108507
 31
0.0
  0
LINE
  5
1152
330
1F
100
AcDbEntity
  8
10
100
AcDbLine
 10
208.6167661429028
 20
267.3460244108508
 30
0.0
 11
225.6167661429028
 21
267.3460244108508
 31
0.0
  0
LINE
  5
1153
330
1F
100
AcDbEntity
  8
10
100
AcDbLine
 10
225.6167661429028
 20
268.9460244108508
 30
0.0
 11
208.6167661429028
 21
268.9460244108508
 31
0.0
  0
LINE
  5
1154
330
1F
100
AcDbEntity
  8
10
100
AcDbLine
 10
225.6167661429028
 20
267.3460244108508
 30
0.0
 11
225.6167661429028
 21
268.9460244108508
 31
0.0
  0
LINE
  5
1155
330
1F
100
AcDbEntity
  8
10
100
AcDbLine
 10
208.6167661429028
 20
268.9460244108508
 30
0.0
 11
208.6167661429028
 21
267.3460244108508
 31
0.0
  0
LINE
  5
1156
330
1F
100
AcDbEntity
  8
10
100
AcDbLine
 10
209.6092661429027
 20
277.4460244108508
 30
0.0
 11
224.624266142903
 21
277.4460244108508
 31
0.0
  0
LINE
  5
1157
330
1F
100
AcDbEntity
  8
10
100
AcDbLine
 10
209.6092661429027
 20
270.9460244108508
 30
0.0
 11
224.624266142903
 21
270.9460244108508
 31
0.0
  0
LINE
  5
1158
330
1F
100
AcDbEntity
  8
10
100
AcDbLine
 10
224.624266142903
 20
270.9460244108508
 30
0.0
 11
224.624266142903
 21
277.4460244108508
 31
0.0
  0
LINE
  5
1159
330
1F
100
AcDbEntity
  8
10
100
AcDbLine
 10
220.8705161429027
 20
270.9460244108508
 30
0.0
 11
220.8705161429027
 21
277.4460244108508
 31
0.0
  0
LINE
  5
115A
330
1F
100
AcDbEntity
  8
17
100
AcDbLine
 10
217.1167661429028
 20
268.1520244108507
 30
0.0
 11
217.1167661429028
 21
280.2400244108507
 31
0.0
  0
LINE
  5
115B
330
1F
100
AcDbEntity
  8
10
100
AcDbLine
 10
213.363016142903
 20
270.9460244108508
 30
0.0
 11
213.363016142903
 21
277.4460244108508
 31
0.0
  0
LINE
  5
115C
330
1F
100
AcDbEntity
  8
10
100
AcDbLine
 10
209.6092661429027
 20
270.9460244108508
 30
0.0
 11
209.6092661429027
 21
277.4460244108508
 31
0.0
  0
LINE
  5
115D
330
1F
100
AcDbEntity
  8
10
 48
0.5
100
AcDbLine
 10
205.6167661429028
 20
256.3460244108508
 30
0.0
 11
200.6167661429028
 21
256.3460244108508
 31
0.0
1001
GENIUS_GENREC_14
1002
{
1000
PYDIR
1011
205.6167661429028
1021
293.3460244108508
1031
0.0
1002
}
1002
{
1000
PXDIR
1011
200.6167661429028
1021
256.3460244108508
1031
0.0
1002
}
1002
{
1000
PORI
1011
205.6167661429028
1021
256.3460244108508
1031
0.0
1002
}
1002
{
1000
PINS
1011
205.6167661429028
1021
256.3460244108508
1031
0.0
1002
}
1002
{
1000
PINS2
1011
200.6167661429028
1021
293.3460244108508
1031
0.0
1002
}
1002
{
1000
C
1070
     1
1002
}
1001
GENIUS_GENODEF_13
1002
{
1000
HIER
1070
     0
1002
}
1002
{
1000
MANEDIT
1070
     0
1002
}
1002
{
1000
NOSEL
1070
     0
1002
}
1002
{
1000
BEHIND
1070
     0
1002
}
1002
{
1000
REACTOR
1002
}
1001
GENIUS_GENOBJ-N-REC_13
1002
{
1000
OWNER
1000
GEN
1002
}
  0
LINE
  5
115E
330
1F
100
AcDbEntity
  8
10
 48
0.5
100
AcDbLine
 10
200.6167661429028
 20
256.3460244108508
 30
0.0
 11
200.6167661429028
 21
293.3460244108508
 31
0.0
1001
GENIUS_GENREC_14
1002
{
1000
PYDIR
1011
205.6167661429028
1021
293.3460244108508
1031
0.0
1002
}
1002
{
1000
PXDIR
1011
200.6167661429028
1021
256.3460244108508
1031
0.0
1002
}
1002
{
1000
PORI
1011
205.6167661429028
1021
256.3460244108508
1031
0.0
1002
}
1002
{
1000
PINS
1011
205.6167661429028
1021
256.3460244108508
1031
0.0
1002
}
1002
{
1000
PINS2
1011
200.6167661429028
1021
293.3460244108508
1031
0.0
1002
}
1002
{
1000
C
1070
     1
1002
}
1001
GENIUS_GENODEF_13
1002
{
1000
HIER
1070
     0
1002
}
1002
{
1000
MANEDIT
1070
     0
1002
}
1002
{
1000
NOSEL
1070
     0
1002
}
1002
{
1000
BEHIND
1070
     0
1002
}
1002
{
1000
REACTOR
1002
}
1001
GENIUS_GENOBJ-N-REC_13
1002
{
1000
OWNER
1000
GEN
1002
}
  0
LINE
  5
115F
330
1F
100
AcDbEntity
  8
10
 48
0.5
100
AcDbLine
 10
200.6167661429028
 20
293.3460244108508
 30
0.0
 11
205.6167661429028
 21
293.3460244108508
 31
0.0
1001
GENIUS_GENREC_14
1002
{
1000
PYDIR
1011
205.6167661429028
1021
293.3460244108508
1031
0.0
1002
}
1002
{
1000
PXDIR
1011
200.6167661429028
1021
256.3460244108508
1031
0.0
1002
}
1002
{
1000
PORI
1011
205.6167661429028
1021
256.3460244108508
1031
0.0
1002
}
1002
{
1000
PINS
1011
205.6167661429028
1021
256.3460244108508
1031
0.0
1002
}
1002
{
1000
PINS2
1011
200.6167661429028
1021
293.3460244108508
1031
0.0
1002
}
1002
{
1000
C
1070
     1
1002
}
1001
GENIUS_GENODEF_13
1002
{
1000
HIER
1070
     0
1002
}
1002
{
1000
MANEDIT
1070
     0
1002
}
1002
{
1000
NOSEL
1070
     0
1002
}
1002
{
1000
BEHIND
1070
     0
1002
}
1002
{
1000
REACTOR
1002
}
1001
GENIUS_GENOBJ-N-REC_13
1002
{
1000
OWNER
1000
GEN
1002
}
  0
LINE
  5
1160
330
1F
100
AcDbEntity
  8
10
 48
0.5
100
AcDbLine
 10
205.6167661429028
 20
293.3460244108508
 30
0.0
 11
205.6167661429028
 21
256.3460244108508
 31
0.0
1001
GENIUS_GENREC_14
1002
{
1000
PYDIR
1011
205.6167661429028
1021
293.3460244108508
1031
0.0
1002
}
1002
{
1000
PXDIR
1011
200.6167661429028
1021
256.3460244108508
1031
0.0
1002
}
1002
{
1000
PORI
1011
205.6167661429028
1021
256.3460244108508
1031
0.0
1002
}
1002
{
1000
PINS
1011
205.6167661429028
1021
256.3460244108508
1031
0.0
1002
}
1002
{
1000
PINS2
1011
200.6167661429028
1021
293.3460244108508
1031
0.0
1002
}
1002
{
1000
C
1070
     1
1002
}
1001
GENIUS_GENODEF_13
1002
{
1000
HIER
1070
     0
1002
}
1002
{
1000
MANEDIT
1070
     0
1002
}
1002
{
1000
NOSEL
1070
     0
1002
}
1002
{
1000
BEHIND
1070
     0
1002
}
1002
{
1000
REACTOR
1002
}
1001
GENIUS_GENOBJ-N-REC_13
1002
{
1000
OWNER
1000
GEN
1002
}
  0
LINE
  5
1161
330
1F
100
AcDbEntity
  8
10
 48
0.5
100
AcDbLine
 10
233.6167661429028
 20
256.3460244108508
 30
0.0
 11
228.6167661429028
 21
256.3460244108508
 31
0.0
1001
GENIUS_GENREC_14
1002
{
1000
PYDIR
1011
233.6167661429028
1021
290.3460244108508
1031
0.0
1002
}
1002
{
1000
PXDIR
1011
228.6167661429028
1021
256.3460244108508
1031
0.0
1002
}
1002
{
1000
PORI
1011
233.6167661429028
1021
256.3460244108508
1031
0.0
1002
}
1002
{
1000
PINS
1011
233.6167661429028
1021
256.3460244108508
1031
0.0
1002
}
1002
{
1000
PINS2
1011
228.6167661429028
1021
290.3460244108508
1031
0.0
1002
}
1002
{
1000
C
1070
     1
1002
}
1001
GENIUS_GENODEF_13
1002
{
1000
HIER
1070
     0
1002
}
1002
{
1000
MANEDIT
1070
     0
1002
}
1002
{
1000
NOSEL
1070
     0
1002
}
1002
{
1000
BEHIND
1070
     0
1002
}
1002
{
1000
REACTOR
1002
}
1001
GENIUS_GENOBJ-N-REC_13
1002
{
1000
OWNER
1000
GEN
1002
}
  0
LINE
  5
1162
330
1F
100
AcDbEntity
  8
10
 48
0.5
100
AcDbLine
 10
228.6167661429028
 20
256.3460244108508
 30
0.0
 11
228.6167661429028
 21
290.3460244108508
 31
0.0
1001
GENIUS_GENREC_14
1002
{
1000
PYDIR
1011
233.6167661429028
1021
290.3460244108508
1031
0.0
1002
}
1002
{
1000
PXDIR
1011
228.6167661429028
1021
256.3460244108508
1031
0.0
1002
}
1002
{
1000
PORI
1011
233.6167661429028
1021
256.3460244108508
1031
0.0
1002
}
1002
{
1000
PINS
1011
233.6167661429028
1021
256.3460244108508
1031
0.0
1002
}
1002
{
1000
PINS2
1011
228.6167661429028
1021
290.3460244108508
1031
0.0
1002
}
1002
{
1000
C
1070
     1
1002
}
1001
GENIUS_GENODEF_13
1002
{
1000
HIER
1070
     0
1002
}
1002
{
1000
MANEDIT
1070
     0
1002
}
1002
{
1000
NOSEL
1070
     0
1002
}
1002
{
1000
BEHIND
1070
     0
1002
}
1002
{
1000
REACTOR
1002
}
1001
GENIUS_GENOBJ-N-REC_13
1002
{
1000
OWNER
1000
GEN
1002
}
  0
LINE
  5
1163
330
1F
100
AcDbEntity
  8
10
 48
0.5
100
AcDbLine
 10
228.6167661429028
 20
290.3460244108508
 30
0.0
 11
233.6167661429028
 21
290.3460244108508
 31
0.0
1001
GENIUS_GENREC_14
1002
{
1000
PYDIR
1011
233.6167661429028
1021
290.3460244108508
1031
0.0
1002
}
1002
{
1000
PXDIR
1011
228.6167661429028
1021
256.3460244108508
1031
0.0
1002
}
1002
{
1000
PORI
1011
233.6167661429028
1021
256.3460244108508
1031
0.0
1002
}
1002
{
1000
PINS
1011
233.6167661429028
1021
256.3460244108508
1031
0.0
1002
}
1002
{
1000
PINS2
1011
228.6167661429028
1021
290.3460244108508
1031
0.0
1002
}
1002
{
1000
C
1070
     1
1002
}
1001
GENIUS_GENODEF_13
1002
{
1000
HIER
1070
     0
1002
}
1002
{
1000
MANEDIT
1070
     0
1002
}
1002
{
1000
NOSEL
1070
     0
1002
}
1002
{
1000
BEHIND
1070
     0
1002
}
1002
{
1000
REACTOR
1002
}
1001
GENIUS_GENOBJ-N-REC_13
1002
{
1000
OWNER
1000
GEN
1002
}
  0
LINE
  5
1164
330
1F
100
AcDbEntity
  8
10
 48
0.5
100
AcDbLine
 10
233.6167661429028
 20
290.3460244108508
 30
0.0
 11
233.6167661429028
 21
256.3460244108508
 31
0.0
1001
GENIUS_GENREC_14
1002
{
1000
PYDIR
1011
233.6167661429028
1021
290.3460244108508
1031
0.0
1002
}
1002
{
1000
PXDIR
1011
228.6167661429028
1021
256.3460244108508
1031
0.0
1002
}
1002
{
1000
PORI
1011
233.6167661429028
1021
256.3460244108508
1031
0.0
1002
}
1002
{
1000
PINS
1011
233.6167661429028
1021
256.3460244108508
1031
0.0
1002
}
1002
{
1000
PINS2
1011
228.6167661429028
1021
290.3460244108508
1031
0.0
1002
}
1002
{
1000
C
1070
     1
1002
}
1001
GENIUS_GENODEF_13
1002
{
1000
HIER
1070
     0
1002
}
1002
{
1000
MANEDIT
1070
     0
1002
}
1002
{
1000
NOSEL
1070
     0
1002
}
1002
{
1000
BEHIND
1070
     0
1002
}
1002
{
1000
REACTOR
1002
}
1001
GENIUS_GENOBJ-N-REC_13
1002
{
1000
OWNER
1000
GEN
1002
}
  0
LINE
  5
1165
330
1F
100
AcDbEntity
  8
17
100
AcDbLine
 10
245.1167661429028
 20
264.5520244108508
 30
0.0
 11
245.1167661429028
 21
271.7400244108507
 31
0.0
  0
LINE
  5
1166
330
1F
100
AcDbEntity
  8
10
100
AcDbLine
 10
236.6167661429028
 20
267.3460244108508
 30
0.0
 11
253.6167661429028
 21
267.3460244108508
 31
0.0
  0
LINE
  5
1167
330
1F
100
AcDbEntity
  8
10
100
AcDbLine
 10
253.6167661429028
 20
268.9460244108508
 30
0.0
 11
236.6167661429028
 21
268.9460244108508
 31
0.0
  0
LINE
  5
1168
330
1F
100
AcDbEntity
  8
10
100
AcDbLine
 10
253.6167661429028
 20
267.3460244108508
 30
0.0
 11
253.6167661429028
 21
268.9460244108508
 31
0.0
  0
LINE
  5
1169
330
1F
100
AcDbEntity
  8
10
100
AcDbLine
 10
236.6167661429028
 20
268.9460244108508
 30
0.0
 11
236.6167661429028
 21
267.3460244108508
 31
0.0
  0
LINE
  5
116A
330
1F
100
AcDbEntity
  8
10
100
AcDbLine
 10
237.4167661429028
 20
270.9460244108508
 30
0.0
 11
252.8167661429029
 21
270.9460244108508
 31
0.0
  0
LINE
  5
116B
330
1F
100
AcDbEntity
  8
10
100
AcDbLine
 10
252.8167661429029
 20
268.9460244108508
 30
0.0
 11
237.4167661429028
 21
268.9460244108508
 31
0.0
  0
LINE
  5
116C
330
1F
100
AcDbEntity
  8
10
100
AcDbLine
 10
252.8167661429029
 20
270.9460244108508
 30
0.0
 11
252.8167661429029
 21
268.9460244108508
 31
0.0
  0
LINE
  5
116D
330
1F
100
AcDbEntity
  8
17
100
AcDbLine
 10
245.1167661429028
 20
273.7400244108507
 30
0.0
 11
245.1167661429028
 21
266.1520244108507
 31
0.0
  0
LINE
  5
116E
330
1F
100
AcDbEntity
  8
10
100
AcDbLine
 10
237.4167661429028
 20
268.9460244108508
 30
0.0
 11
237.4167661429028
 21
270.9460244108508
 31
0.0
  0
LINE
  5
116F
330
1F
100
AcDbEntity
  8
10
100
AcDbLine
 10
237.6092661429026
 20
277.4460244108508
 30
0.0
 11
252.624266142903
 21
277.4460244108508
 31
0.0
  0
LINE
  5
1170
330
1F
100
AcDbEntity
  8
10
100
AcDbLine
 10
237.6092661429026
 20
270.9460244108508
 30
0.0
 11
252.624266142903
 21
270.9460244108508
 31
0.0
  0
LINE
  5
1171
330
1F
100
AcDbEntity
  8
10
100
AcDbLine
 10
252.624266142903
 20
270.9460244108508
 30
0.0
 11
252.624266142903
 21
277.4460244108508
 31
0.0
  0
LINE
  5
1172
330
1F
100
AcDbEntity
  8
10
100
AcDbLine
 10
248.8705161429027
 20
270.9460244108508
 30
0.0
 11
248.8705161429027
 21
277.4460244108508
 31
0.0
  0
LINE
  5
1173
330
1F
100
AcDbEntity
  8
17
100
AcDbLine
 10
245.1167661429028
 20
268.1520244108507
 30
0.0
 11
245.1167661429028
 21
280.2400244108507
 31
0.0
  0
LINE
  5
1174
330
1F
100
AcDbEntity
  8
10
100
AcDbLine
 10
241.363016142903
 20
270.9460244108508
 30
0.0
 11
241.363016142903
 21
277.4460244108508
 31
0.0
  0
LINE
  5
1175
330
1F
100
AcDbEntity
  8
10
100
AcDbLine
 10
237.6092661429026
 20
270.9460244108508
 30
0.0
 11
237.6092661429026
 21
277.4460244108508
 31
0.0
  0
LINE
  5
1176
330
1F
100
AcDbEntity
  8
10
 48
0.5
100
AcDbLine
 10
261.6167661429028
 20
256.3460244108508
 30
0.0
 11
256.6167661429028
 21
256.3460244108508
 31
0.0
1001
GENIUS_GENREC_14
1002
{
1000
PYDIR
1011
261.6167661429028
1021
290.3460244108508
1031
0.0
1002
}
1002
{
1000
PXDIR
1011
256.6167661429028
1021
256.3460244108508
1031
0.0
1002
}
1002
{
1000
PORI
1011
261.6167661429028
1021
256.3460244108508
1031
0.0
1002
}
1002
{
1000
PINS
1011
261.6167661429028
1021
256.3460244108508
1031
0.0
1002
}
1002
{
1000
PINS2
1011
256.6167661429028
1021
290.3460244108508
1031
0.0
1002
}
1002
{
1000
C
1070
     1
1002
}
1001
GENIUS_GENODEF_13
1002
{
1000
HIER
1070
     0
1002
}
1002
{
1000
MANEDIT
1070
     0
1002
}
1002
{
1000
NOSEL
1070
     0
1002
}
1002
{
1000
BEHIND
1070
     0
1002
}
1002
{
1000
REACTOR
1002
}
1001
GENIUS_GENOBJ-N-REC_13
1002
{
1000
OWNER
1000
GEN
1002
}
  0
LINE
  5
1177
330
1F
100
AcDbEntity
  8
10
 48
0.5
100
AcDbLine
 10
256.6167661429028
 20
256.3460244108508
 30
0.0
 11
256.6167661429028
 21
290.3460244108508
 31
0.0
1001
GENIUS_GENREC_14
1002
{
1000
PYDIR
1011
261.6167661429028
1021
290.3460244108508
1031
0.0
1002
}
1002
{
1000
PXDIR
1011
256.6167661429028
1021
256.3460244108508
1031
0.0
1002
}
1002
{
1000
PORI
1011
261.6167661429028
1021
256.3460244108508
1031
0.0
1002
}
1002
{
1000
PINS
1011
261.6167661429028
1021
256.3460244108508
1031
0.0
1002
}
1002
{
1000
PINS2
1011
256.6167661429028
1021
290.3460244108508
1031
0.0
1002
}
1002
{
1000
C
1070
     1
1002
}
1001
GENIUS_GENODEF_13
1002
{
1000
HIER
1070
     0
1002
}
1002
{
1000
MANEDIT
1070
     0
1002
}
1002
{
1000
NOSEL
1070
     0
1002
}
1002
{
1000
BEHIND
1070
     0
1002
}
1002
{
1000
REACTOR
1002
}
1001
GENIUS_GENOBJ-N-REC_13
1002
{
1000
OWNER
1000
GEN
1002
}
  0
LINE
  5
1178
330
1F
100
AcDbEntity
  8
10
 48
0.5
100
AcDbLine
 10
256.6167661429028
 20
290.3460244108508
 30
0.0
 11
261.6167661429028
 21
290.3460244108508
 31
0.0
1001
GENIUS_GENREC_14
1002
{
1000
PYDIR
1011
261.6167661429028
1021
290.3460244108508
1031
0.0
1002
}
1002
{
1000
PXDIR
1011
256.6167661429028
1021
256.3460244108508
1031
0.0
1002
}
1002
{
1000
PORI
1011
261.6167661429028
1021
256.3460244108508
1031
0.0
1002
}
1002
{
1000
PINS
1011
261.6167661429028
1021
256.3460244108508
1031
0.0
1002
}
1002
{
1000
PINS2
1011
256.6167661429028
1021
290.3460244108508
1031
0.0
1002
}
1002
{
1000
C
1070
     1
1002
}
1001
GENIUS_GENODEF_13
1002
{
1000
HIER
1070
     0
1002
}
1002
{
1000
MANEDIT
1070
     0
1002
}
1002
{
1000
NOSEL
1070
     0
1002
}
1002
{
1000
BEHIND
1070
     0
1002
}
1002
{
1000
REACTOR
1002
}
1001
GENIUS_GENOBJ-N-REC_13
1002
{
1000
OWNER
1000
GEN
1002
}
  0
LINE
  5
1179
330
1F
100
AcDbEntity
  8
10
 48
0.5
100
AcDbLine
 10
261.6167661429028
 20
290.3460244108508
 30
0.0
 11
261.6167661429028
 21
256.3460244108508
 31
0.0
1001
GENIUS_GENREC_14
1002
{
1000
PYDIR
1011
261.6167661429028
1021
290.3460244108508
1031
0.0
1002
}
1002
{
1000
PXDIR
1011
256.6167661429028
1021
256.3460244108508
1031
0.0
1002
}
1002
{
1000
PORI
1011
261.6167661429028
1021
256.3460244108508
1031
0.0
1002
}
1002
{
1000
PINS
1011
261.6167661429028
1021
256.3460244108508
1031
0.0
1002
}
1002
{
1000
PINS2
1011
256.6167661429028
1021
290.3460244108508
1031
0.0
1002
}
1002
{
1000
C
1070
     1
1002
}
1001
GENIUS_GENODEF_13
1002
{
1000
HIER
1070
     0
1002
}
1002
{
1000
MANEDIT
1070
     0
1002
}
1002
{
1000
NOSEL
1070
     0
1002
}
1002
{
1000
BEHIND
1070
     0
1002
}
1002
{
1000
REACTOR
1002
}
1001
GENIUS_GENOBJ-N-REC_13
1002
{
1000
OWNER
1000
GEN
1002
}
  0
LINE
  5
117A
330
1F
100
AcDbEntity
  8
10
100
AcDbLine
 10
265.4167661429028
 20
270.9460244108508
 30
0.0
 11
280.8167661429028
 21
270.9460244108508
 31
0.0
  0
LINE
  5
117B
330
1F
100
AcDbEntity
  8
10
100
AcDbLine
 10
280.8167661429028
 20
268.9460244108508
 30
0.0
 11
265.4167661429028
 21
268.9460244108508
 31
0.0
  0
LINE
  5
117C
330
1F
100
AcDbEntity
  8
10
100
AcDbLine
 10
280.8167661429028
 20
270.9460244108508
 30
0.0
 11
280.8167661429028
 21
268.9460244108508
 31
0.0
  0
LINE
  5
117D
330
1F
100
AcDbEntity
  8
17
100
AcDbLine
 10
273.1167661429028
 20
273.7400244108507
 30
0.0
 11
273.1167661429028
 21
266.1520244108507
 31
0.0
  0
LINE
  5
117E
330
1F
100
AcDbEntity
  8
10
100
AcDbLine
 10
265.4167661429028
 20
268.9460244108508
 30
0.0
 11
265.4167661429028
 21
270.9460244108508
 31
0.0
  0
LINE
  5
117F
330
1F
100
AcDbEntity
  8
10
100
AcDbLine
 10
265.6092661429027
 20
277.4460244108508
 30
0.0
 11
280.6242661429028
 21
277.4460244108508
 31
0.0
  0
LINE
  5
1180
330
1F
100
AcDbEntity
  8
10
100
AcDbLine
 10
265.6092661429027
 20
270.9460244108508
 30
0.0
 11
280.6242661429028
 21
270.9460244108508
 31
0.0
  0
LINE
  5
1181
330
1F
100
AcDbEntity
  8
10
100
AcDbLine
 10
280.6242661429028
 20
270.9460244108508
 30
0.0
 11
280.6242661429028
 21
277.4460244108508
 31
0.0
  0
LINE
  5
1182
330
1F
100
AcDbEntity
  8
10
100
AcDbLine
 10
276.8705161429029
 20
270.9460244108508
 30
0.0
 11
276.8705161429029
 21
277.4460244108508
 31
0.0
  0
LINE
  5
1183
330
1F
100
AcDbEntity
  8
17
100
AcDbLine
 10
273.1167661429028
 20
268.1520244108507
 30
0.0
 11
273.1167661429028
 21
280.2400244108507
 31
0.0
  0
LINE
  5
1184
330
1F
100
AcDbEntity
  8
10
100
AcDbLine
 10
269.3630161429027
 20
270.9460244108508
 30
0.0
 11
269.3630161429027
 21
277.4460244108508
 31
0.0
  0
LINE
  5
1185
330
1F
100
AcDbEntity
  8
10
100
AcDbLine
 10
265.6092661429027
 20
270.9460244108508
 30
0.0
 11
265.6092661429027
 21
277.4460244108508
 31
0.0
  0
LINE
  5
1186
330
1F
100
AcDbEntity
  8
17
100
AcDbLine
 10
273.1167661429028
 20
264.5520244108508
 30
0.0
 11
273.1167661429028
 21
271.7400244108507
 31
0.0
  0
LINE
  5
1187
330
1F
100
AcDbEntity
  8
10
100
AcDbLine
 10
264.6167661429028
 20
267.3460244108508
 30
0.0
 11
281.6167661429028
 21
267.3460244108508
 31
0.0
  0
LINE
  5
1188
330
1F
100
AcDbEntity
  8
10
100
AcDbLine
 10
281.6167661429028
 20
268.9460244108508
 30
0.0
 11
264.6167661429028
 21
268.9460244108508
 31
0.0
  0
LINE
  5
1189
330
1F
100
AcDbEntity
  8
10
100
AcDbLine
 10
281.6167661429028
 20
267.3460244108508
 30
0.0
 11
281.6167661429028
 21
268.9460244108508
 31
0.0
  0
LINE
  5
118A
330
1F
100
AcDbEntity
  8
10
100
AcDbLine
 10
264.6167661429028
 20
268.9460244108508
 30
0.0
 11
264.6167661429028
 21
267.3460244108508
 31
0.0
  0
LINE
  5
118B
330
1F
100
AcDbEntity
  8
10
 48
0.5
100
AcDbLine
 10
492.2122002909364
 20
286.3460244108576
 30
0.0
 11
471.2122002909364
 21
286.3460244108581
 31
0.0
  0
LINE
  5
118C
330
1F
100
AcDbEntity
  8
10
 48
0.5
100
AcDbLine
 10
471.2122002909364
 20
286.3460244108581
 30
0.0
 11
471.2122002909364
 21
285.3460244108581
 31
0.0
  0
LINE
  5
118D
330
1F
100
AcDbEntity
  8
10
 48
0.5
100
AcDbLine
 10
471.2122002909364
 20
285.3460244108581
 30
0.0
 11
492.2122002909364
 21
285.3460244108577
 31
0.0
  0
LINE
  5
118E
330
1F
100
AcDbEntity
  8
10
 48
0.5
100
AcDbLine
 10
531.2122002909366
 20
293.3460244108569
 30
0.0
 11
526.2122002909365
 21
293.3460244108572
 31
0.0
  0
LINE
  5
118F
330
1F
100
AcDbEntity
  8
10
 48
0.5
100
AcDbLine
 10
526.2122002909365
 20
293.3460244108572
 30
0.0
 11
521.2122002909366
 21
290.3460244108572
 31
0.0
  0
LINE
  5
1190
330
1F
100
AcDbEntity
  8
10
 48
0.5
100
AcDbLine
 10
521.2122002909366
 20
290.3460244108572
 30
0.0
 11
497.2122002909364
 21
290.3460244108576
 31
0.0
  0
ARC
  5
1191
330
1F
100
AcDbEntity
  8
10
 48
0.5
100
AcDbCircle
 10
497.2122002909364
 20
285.3460244108576
 30
0.0
 40
5.000000000000056
100
AcDbArc
 50
90.0
 51
179.9999999999991
  0
LINE
  5
1192
330
1F
100
AcDbEntity
  8
10
 48
0.5
100
AcDbLine
 10
492.2122002909364
 20
285.3460244108577
 30
0.0
 11
492.2122002909359
 21
256.3460244108576
 31
0.0
  0
LINE
  5
1193
330
1F
100
AcDbEntity
  8
10
 48
0.5
100
AcDbLine
 10
492.2122002909359
 20
256.3460244108576
 30
0.0
 11
504.2122002909358
 21
256.3460244108574
 31
0.0
  0
LINE
  5
1194
330
1F
100
AcDbEntity
  8
10
 48
0.5
100
AcDbLine
 10
504.2122002909358
 20
256.3460244108574
 30
0.0
 11
504.2122002909357
 21
243.3460244108574
 31
0.0
  0
LINE
  5
1195
330
1F
100
AcDbEntity
  8
10
 48
0.5
100
AcDbLine
 10
504.2122002909357
 20
243.3460244108574
 30
0.0
 11
531.2122002909356
 21
243.3460244108569
 31
0.0
  0
LINE
  5
1196
330
1F
100
AcDbEntity
  8
10
 48
0.5
100
AcDbLine
 10
570.2122002909361
 20
286.346024410857
 30
0.0
 11
591.2122002909361
 21
286.346024410857
 31
0.0
  0
LINE
  5
1197
330
1F
100
AcDbEntity
  8
10
 48
0.5
100
AcDbLine
 10
591.2122002909361
 20
286.346024410857
 30
0.0
 11
591.2122002909361
 21
285.346024410857
 31
0.0
  0
LINE
  5
1198
330
1F
100
AcDbEntity
  8
10
 48
0.5
100
AcDbLine
 10
591.2122002909361
 20
285.346024410857
 30
0.0
 11
570.2122002909361
 21
285.346024410857
 31
0.0
  0
LINE
  5
1199
330
1F
100
AcDbEntity
  8
10
 48
0.5
100
AcDbLine
 10
531.2122002909361
 20
293.3460244108569
 30
0.0
 11
536.2122002909361
 21
293.3460244108569
 31
0.0
  0
LINE
  5
119A
330
1F
100
AcDbEntity
  8
10
 48
0.5
100
AcDbLine
 10
536.2122002909361
 20
293.3460244108569
 30
0.0
 11
541.2122002909361
 21
290.346024410857
 31
0.0
  0
LINE
  5
119B
330
1F
100
AcDbEntity
  8
10
 48
0.5
100
AcDbLine
 10
541.2122002909361
 20
290.346024410857
 30
0.0
 11
565.2122002909361
 21
290.346024410857
 31
0.0
  0
ARC
  5
119C
330
1F
100
AcDbEntity
  8
10
 48
0.5
100
AcDbCircle
 10
565.2122002909361
 20
285.346024410857
 30
0.0
 40
5.0
100
AcDbArc
 50
0.0
 51
90.0
  0
LINE
  5
119D
330
1F
100
AcDbEntity
  8
10
 48
0.5
100
AcDbLine
 10
570.2122002909361
 20
285.346024410857
 30
0.0
 11
570.2122002909361
 21
256.346024410857
 31
0.0
  0
LINE
  5
119E
330
1F
100
AcDbEntity
  8
10
 48
0.5
100
AcDbLine
 10
570.2122002909361
 20
256.346024410857
 30
0.0
 11
558.2122002909361
 21
256.346024410857
 31
0.0
  0
LINE
  5
119F
330
1F
100
AcDbEntity
  8
10
 48
0.5
100
AcDbLine
 10
558.2122002909361
 20
256.346024410857
 30
0.0
 11
558.2122002909361
 21
243.3460244108569
 31
0.0
  0
LINE
  5
11A0
330
1F
100
AcDbEntity
  8
10
 48
0.5
100
AcDbLine
 10
558.2122002909361
 20
243.3460244108569
 30
0.0
 11
531.2122002909361
 21
243.3460244108569
 31
0.0
  0
LINE
  5
11A1
330
1F
100
AcDbEntity
  8
10
 48
0.5
100
AcDbLine
 10
558.2122002909361
 20
258.346024410857
 30
0.0
 11
558.2122002909361
 21
243.3460244108569
 31
0.0
1001
GENIUS_GENREC_14
1002
{
1000
PYDIR
1011
532.2122002909361
1021
258.346024410857
1031
0.0
1002
}
1002
{
1000
PXDIR
1011
558.2122002909361
1021
243.3460244108569
1031
0.0
1002
}
1002
{
1000
PORI
1011
558.2122002909361
1021
258.346024410857
1031
0.0
1002
}
1002
{
1000
PINS
1011
558.2122002909361
1021
258.346024410857
1031
0.0
1002
}
1002
{
1000
PINS2
1011
532.2122002909361
1021
243.3460244108569
1031
0.0
1002
}
1002
{
1000
C
1070
     1
1002
}
1001
GENIUS_GENODEF_13
1002
{
1000
HIER
1070
     0
1002
}
1002
{
1000
MANEDIT
1070
     0
1002
}
1002
{
1000
NOSEL
1070
     0
1002
}
1002
{
1000
BEHIND
1070
     0
1002
}
1002
{
1000
REACTOR
1002
}
1001
GENIUS_GENOBJ-N-REC_13
1002
{
1000
OWNER
1000
GEN
1002
}
  0
LINE
  5
11A2
330
1F
100
AcDbEntity
  8
10
 48
0.5
100
AcDbLine
 10
558.2122002909361
 20
243.3460244108569
 30
0.0
 11
532.2122002909361
 21
243.3460244108569
 31
0.0
1001
GENIUS_GENREC_14
1002
{
1000
PYDIR
1011
532.2122002909361
1021
258.346024410857
1031
0.0
1002
}
1002
{
1000
PXDIR
1011
558.2122002909361
1021
243.3460244108569
1031
0.0
1002
}
1002
{
1000
PORI
1011
558.2122002909361
1021
258.346024410857
1031
0.0
1002
}
1002
{
1000
PINS
1011
558.2122002909361
1021
258.346024410857
1031
0.0
1002
}
1002
{
1000
PINS2
1011
532.2122002909361
1021
243.3460244108569
1031
0.0
1002
}
1002
{
1000
C
1070
     1
1002
}
1001
GENIUS_GENODEF_13
1002
{
1000
HIER
1070
     0
1002
}
1002
{
1000
MANEDIT
1070
     0
1002
}
1002
{
1000
NOSEL
1070
     0
1002
}
1002
{
1000
BEHIND
1070
     0
1002
}
1002
{
1000
REACTOR
1002
}
1001
GENIUS_GENOBJ-N-REC_13
1002
{
1000
OWNER
1000
GEN
1002
}
  0
LINE
  5
11A3
330
1F
100
AcDbEntity
  8
10
 48
0.5
100
AcDbLine
 10
532.2122002909361
 20
243.3460244108569
 30
0.0
 11
532.2122002909361
 21
258.346024410857
 31
0.0
1001
GENIUS_GENREC_14
1002
{
1000
PYDIR
1011
532.2122002909361
1021
258.346024410857
1031
0.0
1002
}
1002
{
1000
PXDIR
1011
558.2122002909361
1021
243.3460244108569
1031
0.0
1002
}
1002
{
1000
PORI
1011
558.2122002909361
1021
258.346024410857
1031
0.0
1002
}
1002
{
1000
PINS
1011
558.2122002909361
1021
258.346024410857
1031
0.0
1002
}
1002
{
1000
PINS2
1011
532.2122002909361
1021
243.3460244108569
1031
0.0
1002
}
1002
{
1000
C
1070
     1
1002
}
1001
GENIUS_GENODEF_13
1002
{
1000
HIER
1070
     0
1002
}
1002
{
1000
MANEDIT
1070
     0
1002
}
1002
{
1000
NOSEL
1070
     0
1002
}
1002
{
1000
BEHIND
1070
     0
1002
}
1002
{
1000
REACTOR
1002
}
1001
GENIUS_GENOBJ-N-REC_13
1002
{
1000
OWNER
1000
GEN
1002
}
  0
LINE
  5
11A4
330
1F
100
AcDbEntity
  8
10
 48
0.5
100
AcDbLine
 10
532.2122002909361
 20
258.346024410857
 30
0.0
 11
558.2122002909361
 21
258.346024410857
 31
0.0
1001
GENIUS_GENREC_14
1002
{
1000
PYDIR
1011
532.2122002909361
1021
258.346024410857
1031
0.0
1002
}
1002
{
1000
PXDIR
1011
558.2122002909361
1021
243.3460244108569
1031
0.0
1002
}
1002
{
1000
PORI
1011
558.2122002909361
1021
258.346024410857
1031
0.0
1002
}
1002
{
1000
PINS
1011
558.2122002909361
1021
258.346024410857
1031
0.0
1002
}
1002
{
1000
PINS2
1011
532.2122002909361
1021
243.3460244108569
1031
0.0
1002
}
1002
{
1000
C
1070
     1
1002
}
1001
GENIUS_GENODEF_13
1002
{
1000
HIER
1070
     0
1002
}
1002
{
1000
MANEDIT
1070
     0
1002
}
1002
{
1000
NOSEL
1070
     0
1002
}
1002
{
1000
BEHIND
1070
     0
1002
}
1002
{
1000
REACTOR
1002
}
1001
GENIUS_GENOBJ-N-REC_13
1002
{
1000
OWNER
1000
GEN
1002
}
  0
LINE
  5
11A5
330
1F
100
AcDbEntity
  8
10
100
AcDbLine
 10
533.2122002909361
 20
259.146024410857
 30
0.0
 11
545.2122002909361
 21
259.146024410857
 31
0.0
1001
GENIUS_GENREC_14
1002
{
1000
PYDIR
1011
533.2122002909361
1021
258.346024410857
1031
0.0
1002
}
1002
{
1000
PXDIR
1011
545.2122002909361
1021
259.146024410857
1031
0.0
1002
}
1002
{
1000
PORI
1011
533.2122002909361
1021
259.146024410857
1031
0.0
1002
}
1002
{
1000
PINS
1011
533.2122002909361
1021
259.146024410857
1031
0.0
1002
}
1002
{
1000
PINS2
1011
545.2122002909361
1021
258.346024410857
1031
0.0
1002
}
1002
{
1000
C
1070
     1
1002
}
1001
GENIUS_GENODEF_13
1002
{
1000
HIER
1070
     0
1002
}
1002
{
1000
MANEDIT
1070
     0
1002
}
1002
{
1000
NOSEL
1070
     0
1002
}
1002
{
1000
BEHIND
1070
     0
1002
}
1002
{
1000
REACTOR
1002
}
1001
GENIUS_GENOBJ-N-REC_13
1002
{
1000
OWNER
1000
GEN
1002
}
  0
LINE
  5
11A6
330
1F
100
AcDbEntity
  8
10
100
AcDbLine
 10
545.2122002909361
 20
259.146024410857
 30
0.0
 11
545.2122002909361
 21
258.346024410857
 31
0.0
1001
GENIUS_GENREC_14
1002
{
1000
PYDIR
1011
533.2122002909361
1021
258.346024410857
1031
0.0
1002
}
1002
{
1000
PXDIR
1011
545.2122002909361
1021
259.146024410857
1031
0.0
1002
}
1002
{
1000
PORI
1011
533.2122002909361
1021
259.146024410857
1031
0.0
1002
}
1002
{
1000
PINS
1011
533.2122002909361
1021
259.146024410857
1031
0.0
1002
}
1002
{
1000
PINS2
1011
545.2122002909361
1021
258.346024410857
1031
0.0
1002
}
1002
{
1000
C
1070
     1
1002
}
1001
GENIUS_GENODEF_13
1002
{
1000
HIER
1070
     0
1002
}
1002
{
1000
MANEDIT
1070
     0
1002
}
1002
{
1000
NOSEL
1070
     0
1002
}
1002
{
1000
BEHIND
1070
     0
1002
}
1002
{
1000
REACTOR
1002
}
1001
GENIUS_GENOBJ-N-REC_13
1002
{
1000
OWNER
1000
GEN
1002
}
  0
LINE
  5
11A7
330
1F
100
AcDbEntity
  8
10
100
AcDbLine
 10
545.2122002909361
 20
258.346024410857
 30
0.0
 11
533.2122002909361
 21
258.346024410857
 31
0.0
1001
GENIUS_GENREC_14
1002
{
1000
PYDIR
1011
533.2122002909361
1021
258.346024410857
1031
0.0
1002
}
1002
{
1000
PXDIR
1011
545.2122002909361
1021
259.146024410857
1031
0.0
1002
}
1002
{
1000
PORI
1011
533.2122002909361
1021
259.146024410857
1031
0.0
1002
}
1002
{
1000
PINS
1011
533.2122002909361
1021
259.146024410857
1031
0.0
1002
}
1002
{
1000
PINS2
1011
545.2122002909361
1021
258.346024410857
1031
0.0
1002
}
1002
{
1000
C
1070
     1
1002
}
1001
GENIUS_GENODEF_13
1002
{
1000
HIER
1070
     0
1002
}
1002
{
1000
MANEDIT
1070
     0
1002
}
1002
{
1000
NOSEL
1070
     0
1002
}
1002
{
1000
BEHIND
1070
     0
1002
}
1002
{
1000
REACTOR
1002
}
1001
GENIUS_GENOBJ-N-REC_13
1002
{
1000
OWNER
1000
GEN
1002
}
  0
LINE
  5
11A8
330
1F
100
AcDbEntity
  8
10
100
AcDbLine
 10
533.2122002909361
 20
258.346024410857
 30
0.0
 11
533.2122002909361
 21
259.146024410857
 31
0.0
1001
GENIUS_GENREC_14
1002
{
1000
PYDIR
1011
533.2122002909361
1021
258.346024410857
1031
0.0
1002
}
1002
{
1000
PXDIR
1011
545.2122002909361
1021
259.146024410857
1031
0.0
1002
}
1002
{
1000
PORI
1011
533.2122002909361
1021
259.146024410857
1031
0.0
1002
}
1002
{
1000
PINS
1011
533.2122002909361
1021
259.146024410857
1031
0.0
1002
}
1002
{
1000
PINS2
1011
545.2122002909361
1021
258.346024410857
1031
0.0
1002
}
1002
{
1000
C
1070
     1
1002
}
1001
GENIUS_GENODEF_13
1002
{
1000
HIER
1070
     0
1002
}
1002
{
1000
MANEDIT
1070
     0
1002
}
1002
{
1000
NOSEL
1070
     0
1002
}
1002
{
1000
BEHIND
1070
     0
1002
}
1002
{
1000
REACTOR
1002
}
1001
GENIUS_GENOBJ-N-REC_13
1002
{
1000
OWNER
1000
GEN
1002
}
  0
LINE
  5
11A9
330
1F
100
AcDbEntity
  8
10
100
AcDbLine
 10
86.11676614290336
 20
259.1460244108569
 30
0.0
 11
98.11676614290332
 21
259.1460244108569
 31
0.0
1001
GENIUS_GENREC_14
1002
{
1000
PYDIR
1011
86.11676614290336
1021
258.3460244108569
1031
0.0
1002
}
1002
{
1000
PXDIR
1011
98.11676614290332
1021
259.1460244108569
1031
0.0
1002
}
1002
{
1000
PORI
1011
86.11676614290336
1021
259.1460244108569
1031
0.0
1002
}
1002
{
1000
PINS
1011
86.11676614290336
1021
259.1460244108569
1031
0.0
1002
}
1002
{
1000
PINS2
1011
98.11676614290332
1021
258.3460244108569
1031
0.0
1002
}
1002
{
1000
C
1070
     1
1002
}
1001
GENIUS_GENODEF_13
1002
{
1000
HIER
1070
     0
1002
}
1002
{
1000
MANEDIT
1070
     0
1002
}
1002
{
1000
NOSEL
1070
     0
1002
}
1002
{
1000
BEHIND
1070
     0
1002
}
1002
{
1000
REACTOR
1002
}
1001
GENIUS_GENOBJ-N-REC_13
1002
{
1000
OWNER
1000
GEN
1002
}
  0
LINE
  5
11AA
330
1F
100
AcDbEntity
  8
10
100
AcDbLine
 10
98.11676614290332
 20
259.1460244108569
 30
0.0
 11
98.11676614290332
 21
258.3460244108569
 31
0.0
1001
GENIUS_GENREC_14
1002
{
1000
PYDIR
1011
86.11676614290336
1021
258.3460244108569
1031
0.0
1002
}
1002
{
1000
PXDIR
1011
98.11676614290332
1021
259.1460244108569
1031
0.0
1002
}
1002
{
1000
PORI
1011
86.11676614290336
1021
259.1460244108569
1031
0.0
1002
}
1002
{
1000
PINS
1011
86.11676614290336
1021
259.1460244108569
1031
0.0
1002
}
1002
{
1000
PINS2
1011
98.11676614290332
1021
258.3460244108569
1031
0.0
1002
}
1002
{
1000
C
1070
     1
1002
}
1001
GENIUS_GENODEF_13
1002
{
1000
HIER
1070
     0
1002
}
1002
{
1000
MANEDIT
1070
     0
1002
}
1002
{
1000
NOSEL
1070
     0
1002
}
1002
{
1000
BEHIND
1070
     0
1002
}
1002
{
1000
REACTOR
1002
}
1001
GENIUS_GENOBJ-N-REC_13
1002
{
1000
OWNER
1000
GEN
1002
}
  0
LINE
  5
11AB
330
1F
100
AcDbEntity
  8
10
100
AcDbLine
 10
98.11676614290332
 20
258.3460244108569
 30
0.0
 11
86.11676614290336
 21
258.3460244108569
 31
0.0
1001
GENIUS_GENREC_14
1002
{
1000
PYDIR
1011
86.11676614290336
1021
258.3460244108569
1031
0.0
1002
}
1002
{
1000
PXDIR
1011
98.11676614290332
1021
259.1460244108569
1031
0.0
1002
}
1002
{
1000
PORI
1011
86.11676614290336
1021
259.1460244108569
1031
0.0
1002
}
1002
{
1000
PINS
1011
86.11676614290336
1021
259.1460244108569
1031
0.0
1002
}
1002
{
1000
PINS2
1011
98.11676614290332
1021
258.3460244108569
1031
0.0
1002
}
1002
{
1000
C
1070
     1
1002
}
1001
GENIUS_GENODEF_13
1002
{
1000
HIER
1070
     0
1002
}
1002
{
1000
MANEDIT
1070
     0
1002
}
1002
{
1000
NOSEL
1070
     0
1002
}
1002
{
1000
BEHIND
1070
     0
1002
}
1002
{
1000
REACTOR
1002
}
1001
GENIUS_GENOBJ-N-REC_13
1002
{
1000
OWNER
1000
GEN
1002
}
  0
LINE
  5
11AC
330
1F
100
AcDbEntity
  8
10
100
AcDbLine
 10
86.11676614290336
 20
258.3460244108569
 30
0.0
 11
86.11676614290336
 21
259.1460244108569
 31
0.0
1001
GENIUS_GENREC_14
1002
{
1000
PYDIR
1011
86.11676614290336
1021
258.3460244108569
1031
0.0
1002
}
1002
{
1000
PXDIR
1011
98.11676614290332
1021
259.1460244108569
1031
0.0
1002
}
1002
{
1000
PORI
1011
86.11676614290336
1021
259.1460244108569
1031
0.0
1002
}
1002
{
1000
PINS
1011
86.11676614290336
1021
259.1460244108569
1031
0.0
1002
}
1002
{
1000
PINS2
1011
98.11676614290332
1021
258.3460244108569
1031
0.0
1002
}
1002
{
1000
C
1070
     1
1002
}
1001
GENIUS_GENODEF_13
1002
{
1000
HIER
1070
     0
1002
}
1002
{
1000
MANEDIT
1070
     0
1002
}
1002
{
1000
NOSEL
1070
     0
1002
}
1002
{
1000
BEHIND
1070
     0
1002
}
1002
{
1000
REACTOR
1002
}
1001
GENIUS_GENOBJ-N-REC_13
1002
{
1000
OWNER
1000
GEN
1002
}
  0
LINE
  5
11AD
330
1F
100
AcDbEntity
  8
10
100
AcDbLine
 10
188.1167661429037
 20
259.1460244108569
 30
0.0
 11
200.1167661429037
 21
259.1460244108569
 31
0.0
1001
GENIUS_GENREC_14
1002
{
1000
PYDIR
1011
188.1167661429037
1021
258.3460244108569
1031
0.0
1002
}
1002
{
1000
PXDIR
1011
200.1167661429037
1021
259.1460244108569
1031
0.0
1002
}
1002
{
1000
PORI
1011
188.1167661429037
1021
259.1460244108569
1031
0.0
1002
}
1002
{
1000
PINS
1011
188.1167661429037
1021
259.1460244108569
1031
0.0
1002
}
1002
{
1000
PINS2
1011
200.1167661429037
1021
258.3460244108569
1031
0.0
1002
}
1002
{
1000
C
1070
     1
1002
}
1001
GENIUS_GENODEF_13
1002
{
1000
HIER
1070
     0
1002
}
1002
{
1000
MANEDIT
1070
     0
1002
}
1002
{
1000
NOSEL
1070
     0
1002
}
1002
{
1000
BEHIND
1070
     0
1002
}
1002
{
1000
REACTOR
1002
}
1001
GENIUS_GENOBJ-N-REC_13
1002
{
1000
OWNER
1000
GEN
1002
}
  0
LINE
  5
11AE
330
1F
100
AcDbEntity
  8
10
100
AcDbLine
 10
200.1167661429037
 20
259.1460244108569
 30
0.0
 11
200.1167661429037
 21
258.3460244108569
 31
0.0
1001
GENIUS_GENREC_14
1002
{
1000
PYDIR
1011
188.1167661429037
1021
258.3460244108569
1031
0.0
1002
}
1002
{
1000
PXDIR
1011
200.1167661429037
1021
259.1460244108569
1031
0.0
1002
}
1002
{
1000
PORI
1011
188.1167661429037
1021
259.1460244108569
1031
0.0
1002
}
1002
{
1000
PINS
1011
188.1167661429037
1021
259.1460244108569
1031
0.0
1002
}
1002
{
1000
PINS2
1011
200.1167661429037
1021
258.3460244108569
1031
0.0
1002
}
1002
{
1000
C
1070
     1
1002
}
1001
GENIUS_GENODEF_13
1002
{
1000
HIER
1070
     0
1002
}
1002
{
1000
MANEDIT
1070
     0
1002
}
1002
{
1000
NOSEL
1070
     0
1002
}
1002
{
1000
BEHIND
1070
     0
1002
}
1002
{
1000
REACTOR
1002
}
1001
GENIUS_GENOBJ-N-REC_13
1002
{
1000
OWNER
1000
GEN
1002
}
  0
LINE
  5
11AF
330
1F
100
AcDbEntity
  8
10
100
AcDbLine
 10
200.1167661429037
 20
258.3460244108569
 30
0.0
 11
188.1167661429037
 21
258.3460244108569
 31
0.0
1001
GENIUS_GENREC_14
1002
{
1000
PYDIR
1011
188.1167661429037
1021
258.3460244108569
1031
0.0
1002
}
1002
{
1000
PXDIR
1011
200.1167661429037
1021
259.1460244108569
1031
0.0
1002
}
1002
{
1000
PORI
1011
188.1167661429037
1021
259.1460244108569
1031
0.0
1002
}
1002
{
1000
PINS
1011
188.1167661429037
1021
259.1460244108569
1031
0.0
1002
}
1002
{
1000
PINS2
1011
200.1167661429037
1021
258.3460244108569
1031
0.0
1002
}
1002
{
1000
C
1070
     1
1002
}
1001
GENIUS_GENODEF_13
1002
{
1000
HIER
1070
     0
1002
}
1002
{
1000
MANEDIT
1070
     0
1002
}
1002
{
1000
NOSEL
1070
     0
1002
}
1002
{
1000
BEHIND
1070
     0
1002
}
1002
{
1000
REACTOR
1002
}
1001
GENIUS_GENOBJ-N-REC_13
1002
{
1000
OWNER
1000
GEN
1002
}
  0
LINE
  5
11B0
330
1F
100
AcDbEntity
  8
10
100
AcDbLine
 10
188.1167661429037
 20
258.3460244108569
 30
0.0
 11
188.1167661429037
 21
259.1460244108569
 31
0.0
1001
GENIUS_GENREC_14
1002
{
1000
PYDIR
1011
188.1167661429037
1021
258.3460244108569
1031
0.0
1002
}
1002
{
1000
PXDIR
1011
200.1167661429037
1021
259.1460244108569
1031
0.0
1002
}
1002
{
1000
PORI
1011
188.1167661429037
1021
259.1460244108569
1031
0.0
1002
}
1002
{
1000
PINS
1011
188.1167661429037
1021
259.1460244108569
1031
0.0
1002
}
1002
{
1000
PINS2
1011
200.1167661429037
1021
258.3460244108569
1031
0.0
1002
}
1002
{
1000
C
1070
     1
1002
}
1001
GENIUS_GENODEF_13
1002
{
1000
HIER
1070
     0
1002
}
1002
{
1000
MANEDIT
1070
     0
1002
}
1002
{
1000
NOSEL
1070
     0
1002
}
1002
{
1000
BEHIND
1070
     0
1002
}
1002
{
1000
REACTOR
1002
}
1001
GENIUS_GENOBJ-N-REC_13
1002
{
1000
OWNER
1000
GEN
1002
}
  0
LINE
  5
11B1
330
1F
100
AcDbEntity
  8
10
100
AcDbLine
 10
290.1167661429028
 20
259.1460244108569
 30
0.0
 11
302.1167661429028
 21
259.1460244108569
 31
0.0
1001
GENIUS_GENREC_14
1002
{
1000
PYDIR
1011
290.1167661429028
1021
258.3460244108569
1031
0.0
1002
}
1002
{
1000
PXDIR
1011
302.1167661429028
1021
259.1460244108569
1031
0.0
1002
}
1002
{
1000
PORI
1011
290.1167661429028
1021
259.1460244108569
1031
0.0
1002
}
1002
{
1000
PINS
1011
290.1167661429028
1021
259.1460244108569
1031
0.0
1002
}
1002
{
1000
PINS2
1011
302.1167661429028
1021
258.3460244108569
1031
0.0
1002
}
1002
{
1000
C
1070
     1
1002
}
1001
GENIUS_GENODEF_13
1002
{
1000
HIER
1070
     0
1002
}
1002
{
1000
MANEDIT
1070
     0
1002
}
1002
{
1000
NOSEL
1070
     0
1002
}
1002
{
1000
BEHIND
1070
     0
1002
}
1002
{
1000
REACTOR
1002
}
1001
GENIUS_GENOBJ-N-REC_13
1002
{
1000
OWNER
1000
GEN
1002
}
  0
LINE
  5
11B2
330
1F
100
AcDbEntity
  8
10
100
AcDbLine
 10
302.1167661429028
 20
259.1460244108569
 30
0.0
 11
302.1167661429028
 21
258.3460244108569
 31
0.0
1001
GENIUS_GENREC_14
1002
{
1000
PYDIR
1011
290.1167661429028
1021
258.3460244108569
1031
0.0
1002
}
1002
{
1000
PXDIR
1011
302.1167661429028
1021
259.1460244108569
1031
0.0
1002
}
1002
{
1000
PORI
1011
290.1167661429028
1021
259.1460244108569
1031
0.0
1002
}
1002
{
1000
PINS
1011
290.1167661429028
1021
259.1460244108569
1031
0.0
1002
}
1002
{
1000
PINS2
1011
302.1167661429028
1021
258.3460244108569
1031
0.0
1002
}
1002
{
1000
C
1070
     1
1002
}
1001
GENIUS_GENODEF_13
1002
{
1000
HIER
1070
     0
1002
}
1002
{
1000
MANEDIT
1070
     0
1002
}
1002
{
1000
NOSEL
1070
     0
1002
}
1002
{
1000
BEHIND
1070
     0
1002
}
1002
{
1000
REACTOR
1002
}
1001
GENIUS_GENOBJ-N-REC_13
1002
{
1000
OWNER
1000
GEN
1002
}
  0
LINE
  5
11B3
330
1F
100
AcDbEntity
  8
10
100
AcDbLine
 10
302.1167661429028
 20
258.3460244108569
 30
0.0
 11
290.1167661429028
 21
258.3460244108569
 31
0.0
1001
GENIUS_GENREC_14
1002
{
1000
PYDIR
1011
290.1167661429028
1021
258.3460244108569
1031
0.0
1002
}
1002
{
1000
PXDIR
1011
302.1167661429028
1021
259.1460244108569
1031
0.0
1002
}
1002
{
1000
PORI
1011
290.1167661429028
1021
259.1460244108569
1031
0.0
1002
}
1002
{
1000
PINS
1011
290.1167661429028
1021
259.1460244108569
1031
0.0
1002
}
1002
{
1000
PINS2
1011
302.1167661429028
1021
258.3460244108569
1031
0.0
1002
}
1002
{
1000
C
1070
     1
1002
}
1001
GENIUS_GENODEF_13
1002
{
1000
HIER
1070
     0
1002
}
1002
{
1000
MANEDIT
1070
     0
1002
}
1002
{
1000
NOSEL
1070
     0
1002
}
1002
{
1000
BEHIND
1070
     0
1002
}
1002
{
1000
REACTOR
1002
}
1001
GENIUS_GENOBJ-N-REC_13
1002
{
1000
OWNER
1000
GEN
1002
}
  0
LINE
  5
11B4
330
1F
100
AcDbEntity
  8
10
100
AcDbLine
 10
290.1167661429028
 20
258.3460244108569
 30
0.0
 11
290.1167661429028
 21
259.1460244108569
 31
0.0
1001
GENIUS_GENREC_14
1002
{
1000
PYDIR
1011
290.1167661429028
1021
258.3460244108569
1031
0.0
1002
}
1002
{
1000
PXDIR
1011
302.1167661429028
1021
259.1460244108569
1031
0.0
1002
}
1002
{
1000
PORI
1011
290.1167661429028
1021
259.1460244108569
1031
0.0
1002
}
1002
{
1000
PINS
1011
290.1167661429028
1021
259.1460244108569
1031
0.0
1002
}
1002
{
1000
PINS2
1011
302.1167661429028
1021
258.3460244108569
1031
0.0
1002
}
1002
{
1000
C
1070
     1
1002
}
1001
GENIUS_GENODEF_13
1002
{
1000
HIER
1070
     0
1002
}
1002
{
1000
MANEDIT
1070
     0
1002
}
1002
{
1000
NOSEL
1070
     0
1002
}
1002
{
1000
BEHIND
1070
     0
1002
}
1002
{
1000
REACTOR
1002
}
1001
GENIUS_GENOBJ-N-REC_13
1002
{
1000
OWNER
1000
GEN
1002
}
  0
VIEWPORT
  5
409
330
23
100
AcDbEntity
 67
     1
  8
0
100
AcDbViewport
 10
142.6315765380859
 20
99.1129140853882
 30
0.0
 40
314.2372683715819
 41
259.7433703258352
 68
     1
 69
     1
1001
ACAD
1000
MVIEW
1002
{
1070
    16
1010
0.0
1020
0.0
1030
0.0
1010
0.0
1020
0.0
1030
1.0
1040
0.0
1040
259.7433703258352
1040
142.6315765380859
1040
99.1129140853882
1040
50.0
1040
0.0
1040
0.0
1070
     0
1070
   100
1070
     1
1070
     1
1070
     0
1070
     0
1070
     0
1070
     0
1040
0.0
1040
0.0
1040
0.0
1040
10.0
1040
10.0
1040
10.0
1040
10.0
1070
     0
1002
{
1002
}
1002
}
  0
VIEWPORT
  5
40B
330
23
100
AcDbEntity
 67
     1
  8
0
100
AcDbViewport
 10
142.6315770149231
 20
99.11291456222535
 30
0.0
 40
228.2105232238769
 41
158.5806632995605
 68
     2
 69
     2
1001
ACAD
1000
MVIEW
1002
{
1070
    16
1010
0.0
1020
0.0
1030
0.0
1010
0.0
1020
0.0
1030
1.0
1040
0.0
1040
437.7797658097811
1040
303.2144175903108
1040
233.3590858733038
1040
50.0
1040
0.0
1040
0.0
1070
     0
1070
   100
1070
     1
1070
     3
1070
     0
1070
     0
1070
     0
1070
     0
1040
0.0
1040
0.0
1040
0.0
1040
10.0
1040
10.0
1040
10.0
1040
10.0
1070
     0
1002
{
1002
}
1002
}
  0
ENDSEC
  0
SECTION
  2
OBJECTS
  0
DICTIONARY
  5
C
330
0
100
AcDbDictionary
  3
ACAD_GROUP
350
D
  3
ACAD_LAYOUT
350
1A
  3
ACAD_MLINESTYLE
350
17
  3
ACAD_PLOTSETTINGS
350
19
  3
ACAD_PLOTSTYLENAME
350
B10
  3
ACAMCATALOGSTATE
350
5BA
  3
ACASAPPOBJECT
350
53F
  3
ACASGREF_MASTER
350
587
  3
ACDBHEADERROUNDTRIPXREC
350
11E7
  3
ACDBVARIABLEDICTIONARY
350
B19
  3
ACDMSYSVARMGR
350
519
  3
ACGREF_MASTER
350
513
  3
ACGREFACAD_MASTER
350
53B
  3
ACMDICTIONARY
350
5B6
  3
ACME_BOM_MANAGER_NAME
350
50C
  3
ACME_COMMAND_HISTORY
350
507
  3
ACME_SCOPE_NAME
350
506
  3
ACMESTATEMGR
350
511
  3
ACMESYSVARMANAGER
350
508
  3
ACMSYSTEMVARIABLEMANAGER
350
5C4
  3
AD_APPL
350
59E
  3
AD_GREF_MODULE
350
588
  3
AD_MAPI_MODULE
350
5A0
  3
ADSYSVARMGR
350
590
  3
AMDTNAMEDDWGMGR
350
536
  3
AMG
350
4FD
  3
AMGSNAPSETTINGS
350
5D0
  3
AMI_MASTER
350
53E
  3
ASURF_STATIC_VARS
350
540
  3
AUTOCAD_ASSEMBLIES_PROJECT
350
5AB
  3
AUTOSURF_SYSVARS
350
541
  3
DESIGNER_ASSEMBLIES_SYSVARS
350
5A2
  3
DWGPROPS
350
5B9
  3
GREFAM_MODULE
350
58A
  3
MAPISURF_MODULE
350
589
1001
ACAD
1000
TREAT_AS_HARD
1070
     0
1000
TREAT_AS_HARD
1070
     0
1000
TREAT_AS_HARD
1070
     0
  0
DICTIONARY
  5
41
330
2
100
AcDbDictionary
280
     1
  3
ACAD_LAYERFILTERS
360
3FF
  3
ACAD_LAYERSTATES
360
42
1001
ACAD
1000
TREAT_AS_HARD
1070
     1
1000
TREAT_AS_HARD
1070
     0
1000
TREAT_AS_HARD
1070
     0
  0
DICTIONARY
  5
438
330
1F
100
AcDbDictionary
280
     1
  3
ACAD_LAYOUTSELFREF
360
1207
1001
ACAD
1000
TREAT_AS_HARD
1070
     1
1000
TREAT_AS_HARD
1070
     1
1000
TREAT_AS_HARD
1070
     0
  0
DICTIONARY
  5
43A
330
23
100
AcDbDictionary
280
     1
  3
ACAD_LAYOUTSELFREF
360
1208
1001
ACAD
1000
TREAT_AS_HARD
1070
     1
1000
TREAT_AS_HARD
1070
     1
1000
TREAT_AS_HARD
1070
     0
  0
DICTIONARY
  5
D
102
{ACAD_REACTORS
330
C
102
}
330
C
100
AcDbDictionary
1001
ACAD
1000
TREAT_AS_HARD
1070
     0
1000
TREAT_AS_HARD
1070
     0
1000
TREAT_AS_HARD
1070
     0
  0
DICTIONARY
  5
1A
102
{ACAD_REACTORS
330
C
102
}
330
C
100
AcDbDictionary
1001
ACAD
1000
TREAT_AS_HARD
1070
     0
1000
TREAT_AS_HARD
1070
     0
1000
TREAT_AS_HARD
1070
     0
  0
DICTIONARY
  5
17
102
{ACAD_REACTORS
330
C
102
}
330
C
100
AcDbDictionary
  3
STANDARD
350
18
1001
ACAD
1000
TREAT_AS_HARD
1070
     0
1000
TREAT_AS_HARD
1070
     0
1000
TREAT_AS_HARD
1070
     0
  0
DICTIONARY
  5
19
102
{ACAD_REACTORS
330
C
102
}
330
C
100
AcDbDictionary
1001
ACAD
1000
TREAT_AS_HARD
1070
     0
1000
TREAT_AS_HARD
1070
     0
1000
TREAT_AS_HARD
1070
     0
  0
ACDBDICTIONARYWDFLT
  5
B10
102
{ACAD_REACTORS
330
C
102
}
330
C
100
AcDbDictionary
281
     1
  3
Normal
350
B11
100
AcDbDictionaryWithDefault
340
B11
  0
ACAD_PROXY_OBJECT
  5
5BA
102
{ACAD_REACTORS
330
C
102
}
330
C
100
AcDbProxyObject
 90
      499
 91
      574
 93
      880
310
3FFFFFFFE00A0284402B0AE2E189C9917189B1C17189719182E32B733B4B732B2B934B733AE32B733B4B732B2B934B733AE26A2A2C5E34B58AE181C1898189A2FA6A2A2AF99222FC6F6483EAE39B4B5BCBAAE232916A420A62FA422A62FA1A0A22E4728C6B641B340ADC1AF400AA65
 94
        0
1001
ACAD
1000
AcadProxyRoundTripData
1071
      565
1071
   851991
1070
     0
  0
ACAD_PROXY_OBJECT
  5
53F
102
{ACAD_REACTORS
330
C
102
}
330
C
100
AcDbProxyObject
 90
      499
 91
      574
 93
       10
310
4046
 94
        0
1001
ACAD
1000
AcadProxyRoundTripData
1071
      537
1071
   851991
1070
     0
  0
ACAD_PROXY_OBJECT
  5
587
102
{ACAD_REACTORS
330
C
102
}
330
C
100
AcDbProxyObject
 90
      499
 91
      574
 93
       34
310
0100004072
 94
        0
1001
ACAD
1000
AcadProxyRoundTripData
1071
      543
1071
   851991
1070
     0
  0
DICTIONARY
  5
11E7
102
{ACAD_REACTORS
330
C
102
}
330
C
100
AcDbDictionary
  3
CEPSNTYPE
350
11F1
  3
FINGERPRINTGUID
350
11F2
  3
HYPERLINKBASE
350
11EA
  3
INSUNITS
350
11F0
  3
LAYOUTDICT
350
11EC
  3
LWETCUNION
350
11EF
  3
PLOTSETDICT
350
11ED
  3
PLOTSTYLNAMDICT
350
11EE
  3
PSVPSCALE
350
11F4
  3
PUCSBASE
350
11F7
  3
PUCSORGBACK
350
11FD
  3
PUCSORGBOTTOM
350
11F9
  3
PUCSORGFRONT
350
11FC
  3
PUCSORGLEFT
350
11FA
  3
PUCSORGRIGHT
350
11FB
  3
PUCSORGTOP
350
11F8
  3
PUCSORTHOREF
350
11F5
  3
PUCSORTHOVIEW
350
11F6
  3
STYLESHEET
350
11EB
  3
TSTACKALIGN
350
11E8
  3
TSTACKSIZE
350
11E9
  3
UCSBASE
350
1200
  3
UCSORGBACK
350
1206
  3
UCSORGBOTTOM
350
1202
  3
UCSORGFRONT
350
1205
  3
UCSORGLEFT
350
1203
  3
UCSORGRIGHT
350
1204
  3
UCSORGTOP
350
1201
  3
UCSORTHOREF
350
11FE
  3
UCSORTHOVIEW
350
11FF
  3
VERSIONGUID
350
11F3
  0
DICTIONARY
  5
B19
102
{ACAD_REACTORS
330
C
102
}
330
C
100
AcDbDictionary
  3
DIMASSOC
350
B1A
  0
ACAD_PROXY_OBJECT
  5
519
102
{ACAD_REACTORS
330
C
102
}
330
C
100
AcDbProxyObject
 90
      499
 91
      574
 93
      240
310
4C51A482000000000000000000000000000000000000000000000000000005
330
51A
330
51B
330
51C
330
51D
330
51E
330
51F
330
520
330
523
330
524
330
525
330
526
330
527
330
528
330
529
330
52A
330
52B
330
52C
330
52D
330
52E
330
52F
330
530
330
531
330
532
330
533
330
534
330
535
 94
        0
1001
ACAD
1000
AcadProxyRoundTripData
1071
      516
1071
   851991
1070
     0
  0
ACAD_PROXY_OBJECT
  5
513
102
{ACAD_REACTORS
330
C
102
}
330
C
100
AcDbProxyObject
 90
      499
 91
      574
 93
       34
310
04000042B2
 94
        0
1001
ACAD
1000
AcadProxyRoundTripData
1071
      525
1071
   851991
1070
     0
  0
ACAD_PROXY_OBJECT
  5
53B
102
{ACAD_REACTORS
330
C
102
}
330
C
100
AcDbProxyObject
 90
      499
 91
      574
 93
      114
310
04000041C000000000000000000000
 94
        0
1001
ACAD
1000
AcadProxyRoundTripData
1071
      533
1071
   851991
1070
     0
  0
DICTIONARY
  5
5B6
102
{ACAD_REACTORS
330
C
102
}
330
C
100
AcDbDictionary
  3
ACMBOMDATA
350
5B7
1001
ACAD
1000
TREAT_AS_HARD
1070
     0
1000
TREAT_AS_HARD
1070
     0
1000
TREAT_AS_HARD
1070
     0
  0
ACAD_PROXY_OBJECT
  5
50C
102
{ACAD_REACTORS
330
C
102
}
330
C
100
AcDbProxyObject
 90
      499
 91
      574
 93
       50
310
00000040400025
330
0
330
0
330
50D
 94
        0
1001
ACAD
1000
AcadProxyRoundTripData
1071
      519
1071
   851991
1070
     0
  0
ACAD_PROXY_OBJECT
  5
507
102
{ACAD_REACTORS
330
C
102
}
330
C
100
AcDbProxyObject
 90
      499
 91
      574
 93
      778
310
424050E414D4454524553455444424D4F4440805084E202D20554E444F014213880B4815539113C0507544F4F4C42415280504554E444F80504554E444F80504554E444F80504554E444F80504554E444F80505455241534580506534156454153A4
 94
        0
1001
ACAD
1000
AcadProxyRoundTripData
1071
      515
1071
   851991
1070
     0
  0
ACAD_PROXY_OBJECT
  5
506
102
{ACAD_REACTORS
330
C
102
}
330
C
100
AcDbProxyObject
 90
      499
 91
      574
 93
     1242
310
06000044400000000000000000001840000400020000000000000000000000000000000000000000000000000000000000000000000000000000000000000000000000000000000000000000000000000000000000000000000000000000000000000000000000000000000000000000000000000000000000000000000000
310
00000000000000000000000000000000000000000000000000AAAAAAB2
360
509
360
50A
360
50B
360
50D
360
514
360
515
360
516
360
517
360
51A
360
51B
360
51C
360
51D
360
51E
360
51F
360
520
360
523
360
524
360
525
360
526
360
527
360
528
360
529
360
52A
360
52B
360
52C
360
52D
360
52E
360
52F
360
530
360
531
360
532
360
533
360
534
360
535
360
542
360
543
360
544
360
545
360
546
360
547
360
548
360
549
360
54A
360
54B
360
54C
360
54D
360
54E
360
54F
360
550
360
551
360
552
360
553
360
554
360
555
360
556
360
557
360
558
360
559
360
55A
360
55B
360
55C
360
55D
360
55E
360
55F
360
560
360
561
360
562
360
563
360
564
360
565
360
566
360
567
360
568
360
569
360
56A
360
56B
360
56C
360
56D
360
56E
360
56F
360
570
360
571
360
572
360
573
360
574
360
575
360
576
360
577
360
578
360
579
360
57A
360
57B
360
57C
360
57D
360
57E
360
57F
360
580
360
581
360
582
360
583
360
58C
360
58D
360
58E
360
58F
360
591
360
592
360
593
360
594
360
595
360
596
360
597
360
598
360
599
360
59A
360
59B
360
59C
360
59D
360
5A3
360
5A4
360
5A5
360
5A6
360
5A7
360
5A8
360
5A9
360
5AA
360
5AF
360
5B0
360
5B1
360
5B2
360
5B3
360
5B4
360
5C5
 94
        0
1001
ACAD
1000
AcadProxyRoundTripData
1071
      514
1071
   851991
1070
     0
  0
ACAD_PROXY_OBJECT
  5
511
102
{ACAD_REACTORS
330
C
102
}
330
C
100
AcDbProxyObject
 90
      499
 91
      574
 93
       50
310
060000416412A5
 94
        0
1001
ACAD
1000
AcadProxyRoundTripData
1071
      524
1071
   851991
1070
     0
  0
ACAD_PROXY_OBJECT
  5
508
102
{ACAD_REACTORS
330
C
102
}
330
C
100
AcDbProxyObject
 90
      499
 91
      574
 93
       48
310
90342200000011
330
509
330
50A
330
50B
 94
        0
1001
ACAD
1000
AcadProxyRoundTripData
1071
      516
1071
   851991
1070
     0
  0
ACAD_PROXY_OBJECT
  5
5C4
102
{ACAD_REACTORS
330
C
102
}
330
C
100
AcDbProxyObject
 90
      499
 91
      574
 93
       32
310
9014220000
330
5C5
 94
        0
1001
ACAD
1000
AcadProxyRoundTripData
1071
      516
1071
   851991
1070
     0
  0
ACAD_PROXY_OBJECT
  5
59E
102
{ACAD_REACTORS
330
C
102
}
330
C
100
AcDbProxyObject
 90
      499
 91
      574
 93
       42
310
0006000043C2
330
58C
 94
        0
1001
ACAD
1000
AcadProxyRoundTripData
1071
      552
1071
   851991
1070
     0
  0
ACAD_PROXY_OBJECT
  5
588
102
{ACAD_REACTORS
330
C
102
}
330
C
100
AcDbProxyObject
 90
      499
 91
      574
 93
      114
310
000000438000000000000000000036
 94
        0
1001
ACAD
1000
AcadProxyRoundTripData
1071
      544
1071
   851991
1070
     0
  0
ACAD_PROXY_OBJECT
  5
5A0
102
{ACAD_REACTORS
330
C
102
}
330
C
100
AcDbProxyObject
 90
      499
 91
      574
 93
       34
310
05000044F2
 94
        0
1001
ACAD
1000
AcadProxyRoundTripData
1071
      554
1071
   851991
1070
     0
  0
ACAD_PROXY_OBJECT
  5
590
102
{ACAD_REACTORS
330
C
102
}
330
C
100
AcDbProxyObject
 90
      499
 91
      574
 93
      128
310
90D44200000000000000000000000000FD
330
591
330
592
330
593
330
594
330
595
330
596
330
597
330
598
330
599
330
59A
330
59B
330
59C
330
59D
 94
        0
1001
ACAD
1000
AcadProxyRoundTripData
1071
      516
1071
   851991
1070
     0
  0
ACAD_PROXY_OBJECT
  5
536
102
{ACAD_REACTORS
330
C
102
}
330
C
100
AcDbProxyObject
 90
      499
 91
      574
 93
       42
310
000100005AC2
330
514
 94
        0
1001
ACAD
1000
AcadProxyRoundTripData
1071
      530
1071
   851991
1070
     0
  0
DICTIONARY
  5
4FD
102
{ACAD_REACTORS
330
C
102
}
330
C
100
AcDbDictionary
  3
ACMGSETTINGS
350
4FE
  3
AMGLAYCFG
350
5C3
1001
ACAD
1000
TREAT_AS_HARD
1070
     0
1000
TREAT_AS_HARD
1070
     0
1000
TREAT_AS_HARD
1070
     0
  0
DICTIONARY
  5
5D0
102
{ACAD_REACTORS
330
C
102
}
330
C
100
AcDbDictionary
  3
DIMENSION
350
5D5
  3
FEA
350
5D4
  3
HATCH__1_
350
5D1
  3
HATCH__2_
350
5D2
  3
SIMPLE_WELD
350
5D6
  3
SYMBOLS
350
5D3
1001
ACAD
1000
TREAT_AS_HARD
1070
     0
1000
TREAT_AS_HARD
1070
     0
1000
TREAT_AS_HARD
1070
     0
  0
ACAD_PROXY_OBJECT
  5
53E
102
{ACAD_REACTORS
330
C
102
}
330
C
100
AcDbProxyObject
 90
      499
 91
      574
 93
       34
310
05000042B2
 94
        0
1001
ACAD
1000
AcadProxyRoundTripData
1071
      536
1071
   851991
1070
     0
  0
ACAD_PROXY_OBJECT
  5
540
102
{ACAD_REACTORS
330
C
102
}
330
C
100
AcDbProxyObject
 90
      499
 91
      574
 93
      424
310
585315020000000000000000000000000000000000000000000000000000000000000000000000000000000000000000000000000000
330
553
330
554
330
555
330
556
330
557
330
558
330
559
330
55A
330
55B
330
55C
330
55D
330
55E
330
55F
330
560
330
561
330
562
330
563
330
564
330
565
330
566
330
567
330
568
330
569
330
56A
330
56B
330
56C
330
56D
330
56E
330
56F
330
570
330
571
330
572
330
573
330
574
330
575
330
576
330
577
330
578
330
579
330
57A
330
57B
330
57C
330
57D
330
57E
330
57F
330
580
330
581
330
582
330
583
 94
        0
1001
ACAD
1000
AcadProxyRoundTripData
1071
      538
1071
   851991
1070
     0
  0
ACAD_PROXY_OBJECT
  5
5AB
102
{ACAD_REACTORS
330
C
102
}
330
C
100
AcDbProxyObject
 90
      499
 91
      574
 93
       74
310
0600004A400000000010
330
5B2
330
0
330
5B3
330
0
330
0
 94
        0
1001
ACAD
1000
AcadProxyRoundTripData
1071
      556
1071
   851991
1070
     0
  0
ACAD_PROXY_OBJECT
  5
541
102
{ACAD_REACTORS
330
C
102
}
330
C
100
AcDbProxyObject
 90
      499
 91
      574
 93
      168
310
4C511482000000000000000000000000000000000000
330
542
330
543
330
544
330
545
330
546
330
547
330
548
330
549
330
54A
330
54B
330
54C
330
54D
330
54E
330
54F
330
550
330
551
330
552
 94
        0
1001
ACAD
1000
AcadProxyRoundTripData
1071
      516
1071
   851991
1070
     0
  0
ACAD_PROXY_OBJECT
  5
5A2
102
{ACAD_REACTORS
330
C
102
}
330
C
100
AcDbProxyObject
 90
      499
 91
      574
 93
       88
310
908422000000000000000061
330
5A3
330
5A4
330
5A5
330
5A6
330
5A7
330
5A8
330
5A9
330
5AA
 94
        0
1001
ACAD
1000
AcadProxyRoundTripData
1071
      516
1071
   851991
1070
     0
  0
XRECORD
  5
5B9
102
{ACAD_REACTORS
330
C
102
}
330
C
100
AcDbXrecord
  1
DWGPROPS COOKIE
  2

  3

  4

  6

  7

  8

  9

300
AmdtFileType=84
301
=
302
=
303
=
304
=
305
=
306
=
307
=
308
=
309
=
 40
0.005163125
 41
2454596.550355717
 42
2454596.675773645
  1

 90
        1
  0
ACAD_PROXY_OBJECT
  5
58A
102
{ACAD_REACTORS
330
C
102
}
330
C
100
AcDbProxyObject
 90
      499
 91
      574
 93
        8
310
0505
 94
        0
1001
ACAD
1000
AcadProxyRoundTripData
1071
      546
1071
   851991
1070
     0
  0
ACAD_PROXY_OBJECT
  5
589
102
{ACAD_REACTORS
330
C
102
}
330
C
100
AcDbProxyObject
 90
      499
 91
      574
 93
        8
310
0405
 94
        0
1001
ACAD
1000
AcadProxyRoundTripData
1071
      545
1071
   851991
1070
     0
  0
DICTIONARY
  5
3FF
102
{ACAD_REACTORS
330
41
102
}
330
41
100
AcDbDictionary
1001
ACAD
1000
TREAT_AS_HARD
1070
     1
1000
TREAT_AS_HARD
1070
     0
1000
TREAT_AS_HARD
1070
     0
  0
DICTIONARY
  5
42
102
{ACAD_REACTORS
330
41
102
}
330
41
100
AcDbDictionary
1001
ACAD
1000
TREAT_AS_HARD
1070
     0
1000
TREAT_AS_HARD
1070
     0
1000
TREAT_AS_HARD
1070
     0
  0
XRECORD
  5
1207
102
{ACAD_REACTORS
330
438
102
}
330
438
100
AcDbXrecord
340
1F
  0
XRECORD
  5
1208
102
{ACAD_REACTORS
330
43A
102
}
330
43A
100
AcDbXrecord
340
23
  0
MLINESTYLE
  5
18
102
{ACAD_REACTORS
330
17
102
}
330
17
100
AcDbMlineStyle
  2
STANDARD
 70
     0
  3

 62
   256
 51
90.0
 52
90.0
 71
     2
 49
0.5
 62
   256
  6
BYLAYER
 49
-0.5
 62
   256
  6
BYLAYER
  0
ACDBPLACEHOLDER
  5
B11
102
{ACAD_REACTORS
330
B10
102
}
330
B10
100
AcDbPlaceHolder
280
     0
  0
XRECORD
  5
11F1
102
{ACAD_REACTORS
330
11E7
102
}
330
11E7
100
AcDbXrecord
 90
        0
  0
XRECORD
  5
11F2
102
{ACAD_REACTORS
330
11E7
102
}
330
11E7
100
AcDbXrecord
  1
{F9BB573E-A203-4408-8939-56EECC49D4C2}
  0
XRECORD
  5
11EA
102
{ACAD_REACTORS
330
11E7
102
}
330
11E7
100
AcDbXrecord
  1

  0
XRECORD
  5
11F0
102
{ACAD_REACTORS
330
11E7
102
}
330
11E7
100
AcDbXrecord
 90
        0
  0
XRECORD
  5
11EC
102
{ACAD_REACTORS
330
11E7
102
}
330
11E7
100
AcDbXrecord
340
1A
  0
XRECORD
  5
11EF
102
{ACAD_REACTORS
330
11E7
102
}
330
11E7
100
AcDbXrecord
 90
    10781
  0
XRECORD
  5
11ED
102
{ACAD_REACTORS
330
11E7
102
}
330
11E7
100
AcDbXrecord
340
19
  0
XRECORD
  5
11EE
102
{ACAD_REACTORS
330
11E7
102
}
330
11E7
100
AcDbXrecord
340
B10
  0
XRECORD
  5
11F4
102
{ACAD_REACTORS
330
11E7
102
}
330
11E7
100
AcDbXrecord
 40
0.0
  0
XRECORD
  5
11F7
102
{ACAD_REACTORS
330
11E7
102
}
330
11E7
100
AcDbXrecord
340
0
  0
XRECORD
  5
11FD
102
{ACAD_REACTORS
330
11E7
102
}
330
11E7
100
AcDbXrecord
 10
0.0
 20
0.0
 30
0.0
  0
XRECORD
  5
11F9
102
{ACAD_REACTORS
330
11E7
102
}
330
11E7
100
AcDbXrecord
 10
0.0
 20
0.0
 30
0.0
  0
XRECORD
  5
11FC
102
{ACAD_REACTORS
330
11E7
102
}
330
11E7
100
AcDbXrecord
 10
0.0
 20
0.0
 30
0.0
  0
XRECORD
  5
11FA
102
{ACAD_REACTORS
330
11E7
102
}
330
11E7
100
AcDbXrecord
 10
0.0
 20
0.0
 30
0.0
  0
XRECORD
  5
11FB
102
{ACAD_REACTORS
330
11E7
102
}
330
11E7
100
AcDbXrecord
 10
0.0
 20
0.0
 30
0.0
  0
XRECORD
  5
11F8
102
{ACAD_REACTORS
330
11E7
102
}
330
11E7
100
AcDbXrecord
 10
0.0
 20
0.0
 30
0.0
  0
XRECORD
  5
11F5
102
{ACAD_REACTORS
330
11E7
102
}
330
11E7
100
AcDbXrecord
340
0
  0
XRECORD
  5
11F6
102
{ACAD_REACTORS
330
11E7
102
}
330
11E7
100
AcDbXrecord
 70
     0
  0
XRECORD
  5
11EB
102
{ACAD_REACTORS
330
11E7
102
}
330
11E7
100
AcDbXrecord
  1
monochrome.stb
  0
XRECORD
  5
11E8
102
{ACAD_REACTORS
330
11E7
102
}
330
11E7
100
AcDbXrecord
 90
        1
  0
XRECORD
  5
11E9
102
{ACAD_REACTORS
330
11E7
102
}
330
11E7
100
AcDbXrecord
 90
       70
  0
XRECORD
  5
1200
102
{ACAD_REACTORS
330
11E7
102
}
330
11E7
100
AcDbXrecord
340
0
  0
XRECORD
  5
1206
102
{ACAD_REACTORS
330
11E7
102
}
330
11E7
100
AcDbXrecord
 10
0.0
 20
0.0
 30
0.0
  0
XRECORD
  5
1202
102
{ACAD_REACTORS
330
11E7
102
}
330
11E7
100
AcDbXrecord
 10
0.0
 20
0.0
 30
0.0
  0
XRECORD
  5
1205
102
{ACAD_REACTORS
330
11E7
102
}
330
11E7
100
AcDbXrecord
 10
0.0
 20
0.0
 30
0.0
  0
XRECORD
  5
1203
102
{ACAD_REACTORS
330
11E7
102
}
330
11E7
100
AcDbXrecord
 10
0.0
 20
0.0
 30
0.0
  0
XRECORD
  5
1204
102
{ACAD_REACTORS
330
11E7
102
}
330
11E7
100
AcDbXrecord
 10
0.0
 20
0.0
 30
0.0
  0
XRECORD
  5
1201
102
{ACAD_REACTORS
330
11E7
102
}
330
11E7
100
AcDbXrecord
 10
0.0
 20
0.0
 30
0.0
  0
XRECORD
  5
11FE
102
{ACAD_REACTORS
330
11E7
102
}
330
11E7
100
AcDbXrecord
340
0
  0
XRECORD
  5
11FF
102
{ACAD_REACTORS
330
11E7
102
}
330
11E7
100
AcDbXrecord
 70
     0
  0
XRECORD
  5
11F3
102
{ACAD_REACTORS
330
11E7
102
}
330
11E7
100
AcDbXrecord
  1
{F33E25BA-BC53-42E7-81ED-5E81B3BE4B39}
  0
DICTIONARYVAR
  5
B1A
102
{ACAD_REACTORS
330
B19
102
}
330
B19
100
DictionaryVariables
280
     0
  1
1
  0
ACAD_PROXY_OBJECT
  5
5B7
102
{ACAD_REACTORS
330
5B6
102
}
330
5B6
100
AcDbProxyObject
 90
      499
 91
      574
 93
      118
310
405010040CA904C415CD5B0757102A
350
5B8
 94
        0
1001
ACAD
1000
AcadProxyRoundTripData
1071
      563
1071
   851991
1070
     0
  0
ACAD_PROXY_OBJECT
  5
509
330
0
100
AcDbProxyObject
 90
      499
 91
      574
 93
      156
310
00010143D050D351505391D5531054925390D492
330
506
 94
        0
1001
ACAD
1000
AcadProxyRoundTripData
1071
      517
1071
   851991
1070
     0
  0
ACAD_PROXY_OBJECT
  5
50A
330
0
100
AcDbProxyObject
 90
      499
 91
      574
 93
      148
310
000101439050D351531253915054925390D490
330
506
 94
        0
1001
ACAD
1000
AcadProxyRoundTripData
1071
      517
1071
   851991
1070
     0
  0
ACAD_PROXY_OBJECT
  5
50B
330
0
100
AcDbProxyObject
 90
      499
 91
      574
 93
      156
310
000101439050D35154D6535093D314D256915082
330
506
 94
        0
1001
ACAD
1000
AcadProxyRoundTripData
1071
      518
1071
   851991
1070
     0
  0
ACAD_PROXY_OBJECT
  5
50D
330
0
100
AcDbProxyObject
 90
      499
 91
      574
 93
      120
310
000101422565255A6557080C402B0000
330
506
330
0
330
0
 94
        0
1001
ACAD
1000
AcadProxyRoundTripData
1071
      520
1071
   851991
1070
     0
  0
ACAD_PROXY_OBJECT
  5
514
330
0
100
AcDbProxyObject
 90
      499
 91
      574
 93
      358
310
0001014124FEA55D00507362E332E302E31014124FEA55D00507362E332E302E3140501000041505391D311658
330
506
330
515
330
519
 94
        0
1001
ACAD
1000
AcadProxyRoundTripData
1071
      526
1071
   851991
1070
     0
  0
ACAD_PROXY_OBJECT
  5
515
330
0
100
AcDbProxyObject
 90
      499
 91
      574
 93
       48
310
00019014220011
330
506
330
516
 94
        0
1001
ACAD
1000
AcadProxyRoundTripData
1071
      527
1071
   851991
1070
     0
  0
ACAD_PROXY_OBJECT
  5
516
330
0
100
AcDbProxyObject
 90
      499
 91
      574
 93
       48
310
0001AA00000011
330
506
330
0
330
517
330
0
 94
        0
1001
ACAD
1000
AcadProxyRoundTripData
1071
      528
1071
   851991
1070
     0
  0
ACAD_PROXY_OBJECT
  5
517
330
0
100
AcDbProxyObject
 90
      499
 91
      574
 93
       28
310
0001AAA0
330
506
 94
        0
1001
ACAD
1000
AcadProxyRoundTripData
1071
      529
1071
   851991
1070
     0
  0
ACAD_PROXY_OBJECT
  5
51A
330
0
100
AcDbProxyObject
 90
      499
 91
      574
 93
      108
310
000101421053521310D05310D013
330
506
 94
        0
1001
ACAD
1000
AcadProxyRoundTripData
1071
      518
1071
   851991
1070
     0
  0
ACAD_PROXY_OBJECT
  5
51B
330
0
100
AcDbProxyObject
 90
      499
 91
      574
 93
      124
310
00010142905354915554D15112535013
330
506
 94
        0
1001
ACAD
1000
AcadProxyRoundTripData
1071
      518
1071
   851991
1070
     0
  0
ACAD_PROXY_OBJECT
  5
51C
330
0
100
AcDbProxyObject
 90
      499
 91
      574
 93
      132
310
00010143105354D150D51253D391125362
330
506
 94
        0
1001
ACAD
1000
AcadProxyRoundTripData
1071
      518
1071
   851991
1070
     0
  0
ACAD_PROXY_OBJECT
  5
51D
330
0
100
AcDbProxyObject
 90
      499
 91
      574
 93
      124
310
00010142905355941093D49111549014
330
506
 94
        0
1001
ACAD
1000
AcadProxyRoundTripData
1071
      518
1071
   851991
1070
     0
  0
ACAD_PROXY_OBJECT
  5
51E
330
0
100
AcDbProxyObject
 90
      499
 91
      574
 93
      116
310
0001014290535115D1D0D3D313D4A1
330
506
 94
        0
1001
ACAD
1000
AcadProxyRoundTripData
1071
      518
1071
   851991
1070
     0
  0
ACAD_PROXY_OBJECT
  5
51F
330
0
100
AcDbProxyObject
 90
      499
 91
      574
 93
      148
310
00010143505355925155D49151949154D21015
330
506
 94
        0
1001
ACAD
1000
AcadProxyRoundTripData
1071
      518
1071
   851991
1070
     0
  0
ACAD_PROXY_OBJECT
  5
520
330
0
100
AcDbProxyObject
 90
      499
 91
      574
 93
      172
310
00010144105350539393D51154149154D15495915010
330
506
 94
        0
1001
ACAD
1000
AcadProxyRoundTripData
1071
      518
1071
   851991
1070
     0
  0
ACAD_PROXY_OBJECT
  5
523
330
0
100
AcDbProxyObject
 90
      499
 91
      574
 93
      172
310
00010144105350555513D11253505494905391D15010
330
506
 94
        0
1001
ACAD
1000
AcadProxyRoundTripData
1071
      518
1071
   851991
1070
     0
  0
ACAD_PROXY_OBJECT
  5
524
330
0
100
AcDbProxyObject
 90
      499
 91
      574
 93
      124
310
00010142D05351561514915191125360
330
506
 94
        0
1001
ACAD
1000
AcadProxyRoundTripData
1071
      518
1071
   851991
1070
     0
  0
ACAD_PROXY_OBJECT
  5
525
330
0
100
AcDbProxyObject
 90
      499
 91
      574
 93
      132
310
00010142D05355105410539393D5115013
330
506
 94
        0
1001
ACAD
1000
AcadProxyRoundTripData
1071
      518
1071
   851991
1070
     0
  0
ACAD_PROXY_OBJECT
  5
526
330
0
100
AcDbProxyObject
 90
      499
 91
      574
 93
      108
310
00010142105350555513D0D31013
330
506
 94
        0
1001
ACAD
1000
AcadProxyRoundTripData
1071
      518
1071
   851991
1070
     0
  0
ACAD_PROXY_OBJECT
  5
527
330
0
100
AcDbProxyObject
 90
      499
 91
      574
 93
      108
310
00010142105350D3119150551053
330
506
 94
        0
1001
ACAD
1000
AcadProxyRoundTripData
1071
      518
1071
   851991
1070
     0
  0
ACAD_PROXY_OBJECT
  5
528
330
0
100
AcDbProxyObject
 90
      499
 91
      574
 93
      108
310
00010142105350D315925155D3F3
330
506
 94
        0
1001
ACAD
1000
AcadProxyRoundTripData
1071
      518
1071
   851991
1070
     0
  0
ACAD_PROXY_OBJECT
  5
529
330
0
100
AcDbProxyObject
 90
      499
 91
      574
 93
      148
310
0001014350535212511156915493D112535010
330
506
 94
        0
1001
ACAD
1000
AcadProxyRoundTripData
1071
      518
1071
   851991
1070
     0
  0
ACAD_PROXY_OBJECT
  5
52A
330
0
100
AcDbProxyObject
 90
      499
 91
      574
 93
      124
310
00010142905352105510D21254D3D013
330
506
 94
        0
1001
ACAD
1000
AcadProxyRoundTripData
1071
      518
1071
   851991
1070
     0
  0
ACAD_PROXY_OBJECT
  5
52B
330
0
100
AcDbProxyObject
 90
      499
 91
      574
 93
      148
310
00010143905354D25391D31152105513105660
330
506
 94
        0
1001
ACAD
1000
AcadProxyRoundTripData
1071
      518
1071
   851991
1070
     0
  0
ACAD_PROXY_OBJECT
  5
52C
330
0
100
AcDbProxyObject
 90
      499
 91
      574
 93
      124
310
00010142D0535115D1D193111254D424
330
506
 94
        0
1001
ACAD
1000
AcadProxyRoundTripData
1071
      518
1071
   851991
1070
     0
  0
ACAD_PROXY_OBJECT
  5
52D
330
0
100
AcDbProxyObject
 90
      499
 91
      574
 93
      100
310
00010142105350555513D213A5
330
506
 94
        0
1001
ACAD
1000
AcadProxyRoundTripData
1071
      518
1071
   851991
1070
     0
  0
ACAD_PROXY_OBJECT
  5
52E
330
0
100
AcDbProxyObject
 90
      499
 91
      574
 93
      116
310
000101425053521390D3D553951013
330
506
 94
        0
1001
ACAD
1000
AcadProxyRoundTripData
1071
      518
1071
   851991
1070
     0
  0
ACAD_PROXY_OBJECT
  5
52F
330
0
100
AcDbProxyObject
 90
      499
 91
      574
 93
      108
310
0001014210535213941493D29010
330
506
 94
        0
1001
ACAD
1000
AcadProxyRoundTripData
1071
      518
1071
   851991
1070
     0
  0
ACAD_PROXY_OBJECT
  5
530
330
0
100
AcDbProxyObject
 90
      499
 91
      574
 93
      108
310
0001014210535213951654115070
330
506
 94
        0
1001
ACAD
1000
AcadProxyRoundTripData
1071
      518
1071
   851991
1070
     0
  0
ACAD_PROXY_OBJECT
  5
531
330
0
100
AcDbProxyObject
 90
      499
 91
      574
 93
      108
310
000101421053521395925155D0F0
330
506
 94
        0
1001
ACAD
1000
AcadProxyRoundTripData
1071
      518
1071
   851991
1070
     0
  0
ACAD_PROXY_OBJECT
  5
532
330
0
100
AcDbProxyObject
 90
      499
 91
      574
 93
      140
310
00010143505354D150D51253D390D3D41665
330
506
 94
        0
1001
ACAD
1000
AcadProxyRoundTripData
1071
      518
1071
   851991
1070
     0
  0
ACAD_PROXY_OBJECT
  5
533
330
0
100
AcDbProxyObject
 90
      499
 91
      574
 93
      108
310
00010142105350D3141493D29030
330
506
 94
        0
1001
ACAD
1000
AcadProxyRoundTripData
1071
      518
1071
   851991
1070
     0
  0
ACAD_PROXY_OBJECT
  5
534
330
0
100
AcDbProxyObject
 90
      499
 91
      574
 93
      212
310
00010143905350555513D2105510D21493D500000000000002E400
330
506
 94
        0
1001
ACAD
1000
AcadProxyRoundTripData
1071
      517
1071
   851991
1070
     0
  0
ACAD_PROXY_OBJECT
  5
535
330
0
100
AcDbProxyObject
 90
      499
 91
      574
 93
      156
310
00010143905350555513D2105510D21111551010
330
506
 94
        0
1001
ACAD
1000
AcadProxyRoundTripData
1071
      518
1071
   851991
1070
     0
  0
ACAD_PROXY_OBJECT
  5
542
330
0
100
AcDbProxyObject
 90
      499
 91
      574
 93
      116
310
000101425053541051D15311539191
330
506
 94
        0
1001
ACAD
1000
AcadProxyRoundTripData
1071
      518
1071
   851991
1070
     0
  0
ACAD_PROXY_OBJECT
  5
543
330
0
100
AcDbProxyObject
 90
      499
 91
      574
 93
      108
310
000101421053555312539154D053
330
506
 94
        0
1001
ACAD
1000
AcadProxyRoundTripData
1071
      518
1071
   851991
1070
     0
  0
ACAD_PROXY_OBJECT
  5
544
330
0
100
AcDbProxyObject
 90
      499
 91
      574
 93
      108
310
000101421053559312539154D033
330
506
 94
        0
1001
ACAD
1000
AcadProxyRoundTripData
1071
      518
1071
   851991
1070
     0
  0
ACAD_PROXY_OBJECT
  5
545
330
0
100
AcDbProxyObject
 90
      499
 91
      574
 93
      140
310
00010143105354D1911254D41353D111501A
330
506
 94
        0
1001
ACAD
1000
AcadProxyRoundTripData
1071
      518
1071
   851991
1070
     0
  0
ACAD_PROXY_OBJECT
  5
546
330
0
100
AcDbProxyObject
 90
      499
 91
      574
 93
      172
310
00010142505354119255105391C1C052DC9A6F104403
330
506
 94
        0
1001
ACAD
1000
AcadProxyRoundTripData
1071
      517
1071
   851991
1070
     0
  0
ACAD_PROXY_OBJECT
  5
547
330
0
100
AcDbProxyObject
 90
      499
 91
      574
 93
      164
310
000101421053559150D05551C000000000000E03F8
330
506
 94
        0
1001
ACAD
1000
AcadProxyRoundTripData
1071
      517
1071
   851991
1070
     0
  0
ACAD_PROXY_OBJECT
  5
548
330
0
100
AcDbProxyObject
 90
      499
 91
      574
 93
      180
310
00010142905350931153911513D307B14AE47E17A843F3
330
506
 94
        0
1001
ACAD
1000
AcadProxyRoundTripData
1071
      517
1071
   851991
1070
     0
  0
ACAD_PROXY_OBJECT
  5
549
330
0
100
AcDbProxyObject
 90
      499
 91
      574
 93
      172
310
0001014250535293D25391D05407B14AE47E17A843F8
330
506
 94
        0
1001
ACAD
1000
AcadProxyRoundTripData
1071
      517
1071
   851991
1070
     0
  0
ACAD_PROXY_OBJECT
  5
54A
330
0
100
AcDbProxyObject
 90
      499
 91
      574
 93
      172
310
000101425053541192551311538000000FC83D797418
330
506
 94
        0
1001
ACAD
1000
AcadProxyRoundTripData
1071
      517
1071
   851991
1070
     0
  0
ACAD_PROXY_OBJECT
  5
54B
330
0
100
AcDbProxyObject
 90
      499
 91
      574
 93
      156
310
00010141D053559150D4D18000000000000E03F8
330
506
 94
        0
1001
ACAD
1000
AcadProxyRoundTripData
1071
      517
1071
   851991
1070
     0
  0
ACAD_PROXY_OBJECT
  5
54C
330
0
100
AcDbProxyObject
 90
      499
 91
      574
 93
      156
310
00010141D05354D19513D309A9999999999993F8
330
506
 94
        0
1001
ACAD
1000
AcadProxyRoundTripData
1071
      517
1071
   851991
1070
     0
  0
ACAD_PROXY_OBJECT
  5
54D
330
0
100
AcDbProxyObject
 90
      499
 91
      574
 93
      172
310
000101425053541192551513D307B14AE47E17A843F8
330
506
 94
        0
1001
ACAD
1000
AcadProxyRoundTripData
1071
      517
1071
   851991
1070
     0
  0
ACAD_PROXY_OBJECT
  5
54E
330
0
100
AcDbProxyObject
 90
      499
 91
      574
 93
      188
310
00010142D05354D151D192551513D307B14AE47E17A843F0
330
506
 94
        0
1001
ACAD
1000
AcadProxyRoundTripData
1071
      517
1071
   851991
1070
     0
  0
ACAD_PROXY_OBJECT
  5
54F
330
0
100
AcDbProxyObject
 90
      499
 91
      574
 93
      148
310
000101419053541311538000000FC83D79741F
330
506
 94
        0
1001
ACAD
1000
AcadProxyRoundTripData
1071
      517
1071
   851991
1070
     0
  0
ACAD_PROXY_OBJECT
  5
550
330
0
100
AcDbProxyObject
 90
      499
 91
      574
 93
      172
310
00010142505354105391D513D301C052DC9A6F104402
330
506
 94
        0
1001
ACAD
1000
AcadProxyRoundTripData
1071
      517
1071
   851991
1070
     0
  0
ACAD_PROXY_OBJECT
  5
551
330
0
100
AcDbProxyObject
 90
      499
 91
      574
 93
      132
310
0001014114D25691400000000000024404
330
506
 94
        0
1001
ACAD
1000
AcadProxyRoundTripData
1071
      517
1071
   851991
1070
     0
  0
ACAD_PROXY_OBJECT
  5
552
330
0
100
AcDbProxyObject
 90
      499
 91
      574
 93
      156
310
00010142905351D4941491519256005034153470
330
506
 94
        0
1001
ACAD
1000
AcadProxyRoundTripData
1071
      539
1071
   851991
1070
     0
  0
ACAD_PROXY_OBJECT
  5
553
330
0
100
AcDbProxyObject
 90
      499
 91
      574
 93
      314
310
00014080509646973745363616C650000000000003C2FC000000000000F0BF0000003F20F5E5D050
330
506
 94
        0
1001
ACAD
1000
AcadProxyRoundTripData
1071
      540
1071
   851991
1070
     0
  0
ACAD_PROXY_OBJECT
  5
554
330
0
100
AcDbProxyObject
 90
      499
 91
      574
 93
      322
310
0001408050A65646175526F74617465060B51153EC87E4FC182D4454FB2119C0060B51153EC8465004
330
506
 94
        0
1001
ACAD
1000
AcadProxyRoundTripData
1071
      540
1071
   851991
1070
     0
  0
ACAD_PROXY_OBJECT
  5
555
330
0
100
AcDbProxyObject
 90
      499
 91
      574
 93
      314
310
00014080509656461755477697374060B51153EC846500000000FC83D797C10000003F20F5E5D050
330
506
 94
        0
1001
ACAD
1000
AcadProxyRoundTripData
1071
      540
1071
   851991
1070
     0
  0
ACAD_PROXY_OBJECT
  5
556
330
0
100
AcDbProxyObject
 90
      499
 91
      574
 93
      294
310
000140C050A656467654F75747075740144F3B7F635ECB74A140A4817D41BDB1E5B1A5B994
330
506
 94
        0
1001
ACAD
1000
AcadProxyRoundTripData
1071
      541
1071
   851991
1070
     0
  0
ACAD_PROXY_OBJECT
  5
557
330
0
100
AcDbProxyObject
 90
      499
 91
      574
 93
      154
310
0001404050B65646974507265766965774064040
330
506
 94
        0
1001
ACAD
1000
AcadProxyRoundTripData
1071
      542
1071
   851991
1070
     0
  0
ACAD_PROXY_OBJECT
  5
558
330
0
100
AcDbProxyObject
 90
      499
 91
      574
 93
      170
310
0001404050A666C6F77556C696E657342A3A00C00003
330
506
 94
        0
1001
ACAD
1000
AcadProxyRoundTripData
1071
      542
1071
   851991
1070
     0
  0
ACAD_PROXY_OBJECT
  5
559
330
0
100
AcDbProxyObject
 90
      499
 91
      574
 93
      170
310
0001404050A666C6F77566C696E657342A3A00C00003
330
506
 94
        0
1001
ACAD
1000
AcadProxyRoundTripData
1071
      542
1071
   851991
1070
     0
  0
ACAD_PROXY_OBJECT
  5
55A
330
0
100
AcDbProxyObject
 90
      499
 91
      574
 93
      322
310
0001408050A666C7366456E645261640000000000003C2FC000000000000F0BF0000003F20F5E5D044
330
506
 94
        0
1001
ACAD
1000
AcadProxyRoundTripData
1071
      540
1071
   851991
1070
     0
  0
ACAD_PROXY_OBJECT
  5
55B
330
0
100
AcDbProxyObject
 90
      499
 91
      574
 93
      246
310
000140C05086A6E33644D6F64650143E3BA24EB8A134A4817D3585B9D585B1
330
506
 94
        0
1001
ACAD
1000
AcadProxyRoundTripData
1071
      541
1071
   851991
1070
     0
  0
ACAD_PROXY_OBJECT
  5
55C
330
0
100
AcDbProxyObject
 90
      499
 91
      574
 93
      294
310
000140C050A6A6E33644F75747075740144F3B7F635ECB74A140A4817D41BDB1E5B1A5B995
330
506
 94
        0
1001
ACAD
1000
AcadProxyRoundTripData
1071
      541
1071
   851991
1070
     0
  0
ACAD_PROXY_OBJECT
  5
55D
330
0
100
AcDbProxyObject
 90
      499
 91
      574
 93
      306
310
000140805086C656E675065726300000000002016D002D431CEBE2361A3F0000003F20F5E5D046
330
506
 94
        0
1001
ACAD
1000
AcadProxyRoundTripData
1071
      540
1071
   851991
1070
     0
  0
ACAD_PROXY_OBJECT
  5
55E
330
0
100
AcDbProxyObject
 90
      499
 91
      574
 93
      266
310
0001408050B6D61737344656E7369747942D431CEBE2361A3F0000003F20F5E5D04B
330
506
 94
        0
1001
ACAD
1000
AcadProxyRoundTripData
1071
      540
1071
   851991
1070
     0
  0
ACAD_PROXY_OBJECT
  5
55F
330
0
100
AcDbProxyObject
 90
      499
 91
      574
 93
      186
310
000140805096D617373546869636BA0000003F20F5E5D07D
330
506
 94
        0
1001
ACAD
1000
AcadProxyRoundTripData
1071
      540
1071
   851991
1070
     0
  0
ACAD_PROXY_OBJECT
  5
560
330
0
100
AcDbProxyObject
 90
      499
 91
      574
 93
      230
310
000140C05086D6173735479706501436F2AB64A14CA4817D4DA195B1B1
330
506
 94
        0
1001
ACAD
1000
AcadProxyRoundTripData
1071
      541
1071
   851991
1070
     0
  0
ACAD_PROXY_OBJECT
  5
561
330
0
100
AcDbProxyObject
 90
      499
 91
      574
 93
      242
310
000140805086F667366446973744000000FC83D797C10000003F20F5E5D065
330
506
 94
        0
1001
ACAD
1000
AcadProxyRoundTripData
1071
      540
1071
   851991
1070
     0
  0
ACAD_PROXY_OBJECT
  5
562
330
0
100
AcDbProxyObject
 90
      499
 91
      574
 93
      258
310
0001408050A7072696D52616469757342D431CEBE2361A3F0000003F20F5E5D050
330
506
 94
        0
1001
ACAD
1000
AcadProxyRoundTripData
1071
      540
1071
   851991
1070
     0
  0
ACAD_PROXY_OBJECT
  5
563
330
0
100
AcDbProxyObject
 90
      499
 91
      574
 93
      194
310
0001408050A7072696D546F70526164A0000003F20F5E5D07F
330
506
 94
        0
1001
ACAD
1000
AcadProxyRoundTripData
1071
      540
1071
   851991
1070
     0
  0
ACAD_PROXY_OBJECT
  5
564
330
0
100
AcDbProxyObject
 90
      499
 91
      574
 93
      266
310
0001408050B7072696D5475626552616442D431CEBE2361A3F0000003F20F5E5D04B
330
506
 94
        0
1001
ACAD
1000
AcadProxyRoundTripData
1071
      540
1071
   851991
1070
     0
  0
ACAD_PROXY_OBJECT
  5
565
330
0
100
AcDbProxyObject
 90
      499
 91
      574
 93
      258
310
0001408050A7072696D4865696768744000000FC83D797C10000003F20F5E5D046
330
506
 94
        0
1001
ACAD
1000
AcadProxyRoundTripData
1071
      540
1071
   851991
1070
     0
  0
ACAD_PROXY_OBJECT
  5
566
330
0
100
AcDbProxyObject
 90
      499
 91
      574
 93
      250
310
000140805097072696D5374416E678182D4454FB2119C0060B51153EC8465000
330
506
 94
        0
1001
ACAD
1000
AcadProxyRoundTripData
1071
      540
1071
   851991
1070
     0
  0
ACAD_PROXY_OBJECT
  5
567
330
0
100
AcDbProxyObject
 90
      499
 91
      574
 93
      322
310
0001408050A7072696D456E64416E67060B51153EC846500182D4454FB2119C0060B51153EC8465004
330
506
 94
        0
1001
ACAD
1000
AcadProxyRoundTripData
1071
      540
1071
   851991
1070
     0
  0
ACAD_PROXY_OBJECT
  5
568
330
0
100
AcDbProxyObject
 90
      499
 91
      574
 93
      242
310
000140805087265765374416E678182D4454FB2119C0060B51153EC8465000
330
506
 94
        0
1001
ACAD
1000
AcadProxyRoundTripData
1071
      540
1071
   851991
1070
     0
  0
ACAD_PROXY_OBJECT
  5
569
330
0
100
AcDbProxyObject
 90
      499
 91
      574
 93
      314
310
00014080509726576456E64416E67060B51153EC846500182D4454FB2119C0060B51153EC8465021
330
506
 94
        0
1001
ACAD
1000
AcadProxyRoundTripData
1071
      540
1071
   851991
1070
     0
  0
ACAD_PROXY_OBJECT
  5
56A
330
0
100
AcDbProxyObject
 90
      499
 91
      574
 93
      194
310
0001404050C7266736655706174636865734290139C0C0003D
330
506
 94
        0
1001
ACAD
1000
AcadProxyRoundTripData
1071
      542
1071
   851991
1070
     0
  0
ACAD_PROXY_OBJECT
  5
56B
330
0
100
AcDbProxyObject
 90
      499
 91
      574
 93
      194
310
0001404050C7266736656706174636865734290139C0C0003D
330
506
 94
        0
1001
ACAD
1000
AcadProxyRoundTripData
1071
      542
1071
   851991
1070
     0
  0
ACAD_PROXY_OBJECT
  5
56C
330
0
100
AcDbProxyObject
 90
      499
 91
      574
 93
      246
310
000140C0508747562654D6F64650143E3BA24EB8A134A4817D3585B9D585B0
330
506
 94
        0
1001
ACAD
1000
AcadProxyRoundTripData
1071
      541
1071
   851991
1070
     0
  0
ACAD_PROXY_OBJECT
  5
56D
330
0
100
AcDbProxyObject
 90
      499
 91
      574
 93
      274
310
0001408050C747562654469616D6574657242D431CEBE2361A3F0000003F20F5E5D071
330
506
 94
        0
1001
ACAD
1000
AcadProxyRoundTripData
1071
      540
1071
   851991
1070
     0
  0
ACAD_PROXY_OBJECT
  5
56E
330
0
100
AcDbProxyObject
 90
      499
 91
      574
 93
      130
310
00014040509696E746572506F6C79A4056
330
506
 94
        0
1001
ACAD
1000
AcadProxyRoundTripData
1071
      542
1071
   851991
1070
     0
  0
ACAD_PROXY_OBJECT
  5
56F
330
0
100
AcDbProxyObject
 90
      499
 91
      574
 93
      162
310
0001404050D696E746572417567506F696E74A406C
330
506
 94
        0
1001
ACAD
1000
AcadProxyRoundTripData
1071
      542
1071
   851991
1070
     0
  0
ACAD_PROXY_OBJECT
  5
570
330
0
100
AcDbProxyObject
 90
      499
 91
      574
 93
      238
310
000140C0509696E7465727472696D014365EF257ECA108A4817D09BDD1A1
330
506
 94
        0
1001
ACAD
1000
AcadProxyRoundTripData
1071
      541
1071
   851991
1070
     0
  0
ACAD_PROXY_OBJECT
  5
571
330
0
100
AcDbProxyObject
 90
      499
 91
      574
 93
      230
310
000140C0509696E7465727479706501433136344A150A4817D51C9A5B5
330
506
 94
        0
1001
ACAD
1000
AcadProxyRoundTripData
1071
      541
1071
   851991
1070
     0
  0
ACAD_PROXY_OBJECT
  5
572
330
0
100
AcDbProxyObject
 90
      499
 91
      574
 93
      146
310
0001404050A636F726E65727472696D4064060
330
506
 94
        0
1001
ACAD
1000
AcadProxyRoundTripData
1071
      542
1071
   851991
1070
     0
  0
ACAD_PROXY_OBJECT
  5
573
330
0
100
AcDbProxyObject
 90
      499
 91
      574
 93
      130
310
000140405086F6673666B656570406404A
330
506
 94
        0
1001
ACAD
1000
AcadProxyRoundTripData
1071
      542
1071
   851991
1070
     0
  0
ACAD_PROXY_OBJECT
  5
574
330
0
100
AcDbProxyObject
 90
      499
 91
      574
 93
      146
310
0001404050A70726F6A4F757470757440A40E0
330
506
 94
        0
1001
ACAD
1000
AcadProxyRoundTripData
1071
      542
1071
   851991
1070
     0
  0
ACAD_PROXY_OBJECT
  5
575
330
0
100
AcDbProxyObject
 90
      499
 91
      574
 93
      270
310
000140C050D70726F6A446972656374696F6E014372F7AB6C0A124A4817DD92595DD
330
506
 94
        0
1001
ACAD
1000
AcadProxyRoundTripData
1071
      541
1071
   851991
1070
     0
  0
ACAD_PROXY_OBJECT
  5
576
330
0
100
AcDbProxyObject
 90
      499
 91
      574
 93
      130
310
0001404050870726F6A4B6565704064070
330
506
 94
        0
1001
ACAD
1000
AcadProxyRoundTripData
1071
      542
1071
   851991
1070
     0
  0
ACAD_PROXY_OBJECT
  5
577
330
0
100
AcDbProxyObject
 90
      499
 91
      574
 93
      278
310
000140C050B70726F6A53706163696E670144237164D2CA13CA4817D3DC1D1A5B585B1
330
506
 94
        0
1001
ACAD
1000
AcadProxyRoundTripData
1071
      541
1071
   851991
1070
     0
  0
ACAD_PROXY_OBJECT
  5
578
330
0
100
AcDbProxyObject
 90
      499
 91
      574
 93
      250
310
0001408050970726F6A54617065728182D4454FB21F9BF060B51153EC87E4FFD
330
506
 94
        0
1001
ACAD
1000
AcadProxyRoundTripData
1071
      540
1071
   851991
1070
     0
  0
ACAD_PROXY_OBJECT
  5
579
330
0
100
AcDbProxyObject
 90
      499
 91
      574
 93
      130
310
00014040508647261674B6565704064057
330
506
 94
        0
1001
ACAD
1000
AcadProxyRoundTripData
1071
      542
1071
   851991
1070
     0
  0
ACAD_PROXY_OBJECT
  5
57A
330
0
100
AcDbProxyObject
 90
      499
 91
      574
 93
      302
310
000140C050F647261674F7269656E746174696F6E0143E590243F0A138A4817D39BDC9B585B1
330
506
 94
        0
1001
ACAD
1000
AcadProxyRoundTripData
1071
      541
1071
   851991
1070
     0
  0
ACAD_PROXY_OBJECT
  5
57B
330
0
100
AcDbProxyObject
 90
      499
 91
      574
 93
      286
310
000140C050E647261675472616E736974696F6E0143A3B6A4DE0A10CA4817DCD0D85B195
330
506
 94
        0
1001
ACAD
1000
AcadProxyRoundTripData
1071
      541
1071
   851991
1070
     0
  0
ACAD_PROXY_OBJECT
  5
57C
330
0
100
AcDbProxyObject
 90
      499
 91
      574
 93
      318
310
000140C051061646A757374436F6E74696E7569747901442F746C2F778A14CA4817D4DB5BDBDD1A1
330
506
 94
        0
1001
ACAD
1000
AcadProxyRoundTripData
1071
      541
1071
   851991
1070
     0
  0
ACAD_PROXY_OBJECT
  5
57D
330
0
100
AcDbProxyObject
 90
      499
 91
      574
 93
      138
310
0001404050A61646A7573744B656570A405C
330
506
 94
        0
1001
ACAD
1000
AcadProxyRoundTripData
1071
      542
1071
   851991
1070
     0
  0
ACAD_PROXY_OBJECT
  5
57E
330
0
100
AcDbProxyObject
 90
      499
 91
      574
 93
      250
310
0001408050972756C65576964746842D431CEBE2361A3F0000003F20F5E5D048
330
506
 94
        0
1001
ACAD
1000
AcadProxyRoundTripData
1071
      540
1071
   851991
1070
     0
  0
ACAD_PROXY_OBJECT
  5
57F
330
0
100
AcDbProxyObject
 90
      499
 91
      574
 93
      274
310
0001408050C616E616C797A65447261667421D139D28615ED8FE060B51153EC8425003
330
506
 94
        0
1001
ACAD
1000
AcadProxyRoundTripData
1071
      540
1071
   851991
1070
     0
  0
ACAD_PROXY_OBJECT
  5
580
330
0
100
AcDbProxyObject
 90
      499
 91
      574
 93
      210
310
0001404050F616E616C797A654E756D4C696E65734163FDFC00026
330
506
 94
        0
1001
ACAD
1000
AcadProxyRoundTripData
1071
      542
1071
   851991
1070
     0
  0
ACAD_PROXY_OBJECT
  5
581
330
0
100
AcDbProxyObject
 90
      499
 91
      574
 93
      202
310
00014040512616E616C797A65526F746174654C696E6573A4040
330
506
 94
        0
1001
ACAD
1000
AcadProxyRoundTripData
1071
      542
1071
   851991
1070
     0
  0
ACAD_PROXY_OBJECT
  5
582
330
0
100
AcDbProxyObject
 90
      499
 91
      574
 93
      210
310
00014040513616E616C797A65446973706C61794C696E6573A4066
330
506
 94
        0
1001
ACAD
1000
AcadProxyRoundTripData
1071
      542
1071
   851991
1070
     0
  0
ACAD_PROXY_OBJECT
  5
583
330
0
100
AcDbProxyObject
 90
      499
 91
      574
 93
      258
310
00014040519616E616C797A655472616E736C7563656E7453757266616365A4043
330
506
 94
        0
1001
ACAD
1000
AcadProxyRoundTripData
1071
      542
1071
   851991
1070
     0
  0
ACAD_PROXY_OBJECT
  5
58C
330
0
100
AcDbProxyObject
 90
      499
 91
      574
 93
      698
310
0001000000009AA6A9AA4051E4D6F6E204F63742031332030303A33373A353920323030382028555443290141CD8B8D0B8C0B8C405184D6F6E204F63742031332030393A34313A333120323030380141CD8B8D0B8C0B8C4A
330
506
330
58D
330
58E
330
590
330
0
 94
        0
1001
ACAD
1000
AcadProxyRoundTripData
1071
      548
1071
   851991
1070
     0
  0
ACAD_PROXY_OBJECT
  5
58D
330
0
100
AcDbProxyObject
 90
      499
 91
      574
 93
       70
310
0001AAA80820000000
330
506
330
58D
330
58D
 94
        0
1001
ACAD
1000
AcadProxyRoundTripData
1071
      549
1071
   851991
1070
     0
  0
ACAD_PROXY_OBJECT
  5
58E
330
0
100
AcDbProxyObject
 90
      499
 91
      574
 93
       48
310
00010000000011
330
506
330
0
330
58F
330
0
330
0
 94
        0
1001
ACAD
1000
AcadProxyRoundTripData
1071
      550
1071
   851991
1070
     0
  0
ACAD_PROXY_OBJECT
  5
58F
330
0
100
AcDbProxyObject
 90
      499
 91
      574
 93
       40
310
000100AAAA02
330
506
330
0
 94
        0
1001
ACAD
1000
AcadProxyRoundTripData
1071
      551
1071
   851991
1070
     0
  0
ACAD_PROXY_OBJECT
  5
591
330
0
100
AcDbProxyObject
 90
      499
 91
      574
 93
      124
310
00010142905350D3D39114D414D69051
330
506
 94
        0
1001
ACAD
1000
AcadProxyRoundTripData
1071
      518
1071
   851991
1070
     0
  0
ACAD_PROXY_OBJECT
  5
592
330
0
100
AcDbProxyObject
 90
      499
 91
      574
 93
      124
310
000101429053549553115353D1115011
330
506
 94
        0
1001
ACAD
1000
AcadProxyRoundTripData
1071
      518
1071
   851991
1070
     0
  0
ACAD_PROXY_OBJECT
  5
593
330
0
100
AcDbProxyObject
 90
      499
 91
      574
 93
      108
310
00010142105354D2D353D1115013
330
506
 94
        0
1001
ACAD
1000
AcadProxyRoundTripData
1071
      518
1071
   851991
1070
     0
  0
ACAD_PROXY_OBJECT
  5
594
330
0
100
AcDbProxyObject
 90
      499
 91
      574
 93
      140
310
000101435053511253511254D41353D11160
330
506
 94
        0
1001
ACAD
1000
AcadProxyRoundTripData
1071
      518
1071
   851991
1070
     0
  0
ACAD_PROXY_OBJECT
  5
595
330
0
100
AcDbProxyObject
 90
      499
 91
      574
 93
      180
310
00010142905354D2D05391D513D300000000000001040C
330
506
 94
        0
1001
ACAD
1000
AcadProxyRoundTripData
1071
      517
1071
   851991
1070
     0
  0
ACAD_PROXY_OBJECT
  5
596
330
0
100
AcDbProxyObject
 90
      499
 91
      574
 93
      164
310
00010142505354D2D4D516531140505434F4E542AB
330
506
 94
        0
1001
ACAD
1000
AcadProxyRoundTripData
1071
      539
1071
   851991
1070
     0
  0
ACAD_PROXY_OBJECT
  5
597
330
0
100
AcDbProxyObject
 90
      499
 91
      574
 93
      108
310
00010142105350D3511112535016
330
506
 94
        0
1001
ACAD
1000
AcadProxyRoundTripData
1071
      518
1071
   851991
1070
     0
  0
ACAD_PROXY_OBJECT
  5
598
330
0
100
AcDbProxyObject
 90
      499
 91
      574
 93
      108
310
00010142105350D3D35414D59016
330
506
 94
        0
1001
ACAD
1000
AcadProxyRoundTripData
1071
      518
1071
   851991
1070
     0
  0
ACAD_PROXY_OBJECT
  5
599
330
0
100
AcDbProxyObject
 90
      499
 91
      574
 93
      164
310
0001014290535410549514D4119600504CADFB0C2B
330
506
 94
        0
1001
ACAD
1000
AcadProxyRoundTripData
1071
      539
1071
   851991
1070
     0
  0
ACAD_PROXY_OBJECT
  5
59A
330
0
100
AcDbProxyObject
 90
      499
 91
      574
 93
      220
310
0001014350535513D3D31093D11654119600508C2B0D9CEDEC3DEA83
330
506
 94
        0
1001
ACAD
1000
AcadProxyRoundTripData
1071
      539
1071
   851991
1070
     0
  0
ACAD_PROXY_OBJECT
  5
59B
330
0
100
AcDbProxyObject
 90
      499
 91
      574
 93
      116
310
000101425053511254D410D3D39011
330
506
 94
        0
1001
ACAD
1000
AcadProxyRoundTripData
1071
      518
1071
   851991
1070
     0
  0
ACAD_PROXY_OBJECT
  5
59C
330
0
100
AcDbProxyObject
 90
      499
 91
      574
 93
      108
310
00010142105350D3D39114D41016
330
506
 94
        0
1001
ACAD
1000
AcadProxyRoundTripData
1071
      518
1071
   851991
1070
     0
  0
ACAD_PROXY_OBJECT
  5
59D
330
0
100
AcDbProxyObject
 90
      499
 91
      574
 93
      124
310
0001014290535490511114D414D69190
330
506
 94
        0
1001
ACAD
1000
AcadProxyRoundTripData
1071
      518
1071
   851991
1070
     0
  0
ACAD_PROXY_OBJECT
  5
5A3
330
0
100
AcDbProxyObject
 90
      499
 91
      574
 93
      132
310
00010142D05050555513D4D3D315915013
330
506
 94
        0
1001
ACAD
1000
AcadProxyRoundTripData
1071
      518
1071
   851991
1070
     0
  0
ACAD_PROXY_OBJECT
  5
5A4
330
0
100
AcDbProxyObject
 90
      499
 91
      574
 93
      156
310
00010143905050555513D054D4D1535093115015
330
506
 94
        0
1001
ACAD
1000
AcadProxyRoundTripData
1071
      518
1071
   851991
1070
     0
  0
ACAD_PROXY_OBJECT
  5
5A5
330
0
100
AcDbProxyObject
 90
      499
 91
      574
 93
      148
310
00010143505055925155D49154D513D4915015
330
506
 94
        0
1001
ACAD
1000
AcadProxyRoundTripData
1071
      518
1071
   851991
1070
     0
  0
ACAD_PROXY_OBJECT
  5
5A6
330
0
100
AcDbProxyObject
 90
      499
 91
      574
 93
      124
310
00010142D050525394D15495105094E5
330
506
 94
        0
1001
ACAD
1000
AcadProxyRoundTripData
1071
      518
1071
   851991
1070
     0
  0
ACAD_PROXY_OBJECT
  5
5A7
330
0
100
AcDbProxyObject
 90
      499
 91
      574
 93
      148
310
00010143505054D0D153915554111055115015
330
506
 94
        0
1001
ACAD
1000
AcadProxyRoundTripData
1071
      518
1071
   851991
1070
     0
  0
ACAD_PROXY_OBJECT
  5
5A8
330
0
100
AcDbProxyObject
 90
      499
 91
      574
 93
      172
310
00010143105054D5509054D4D3541196005035355425
330
506
 94
        0
1001
ACAD
1000
AcadProxyRoundTripData
1071
      539
1071
   851991
1070
     0
  0
ACAD_PROXY_OBJECT
  5
5A9
330
0
100
AcDbProxyObject
 90
      499
 91
      574
 93
      172
310
00010142905054D0D15391541196005055343454E455
330
506
 94
        0
1001
ACAD
1000
AcadProxyRoundTripData
1071
      539
1071
   851991
1070
     0
  0
ACAD_PROXY_OBJECT
  5
5AA
330
0
100
AcDbProxyObject
 90
      499
 91
      574
 93
      148
310
00010143505350555513D313D0D2D4D0D39016
330
506
 94
        0
1001
ACAD
1000
AcadProxyRoundTripData
1071
      518
1071
   851991
1070
     0
  0
ACAD_PROXY_OBJECT
  5
5AF
330
0
100
AcDbProxyObject
 90
      499
 91
      574
 93
       32
310
0001000000
330
506
340
5AC
330
5B1
330
5AC
 94
        0
1001
ACAD
1000
AcadProxyRoundTripData
1071
      557
1071
   851991
1070
     0
  0
ACAD_PROXY_OBJECT
  5
5B0
330
0
100
AcDbProxyObject
 90
      499
 91
      574
 93
       18
310
000188
330
506
 94
        0
1001
ACAD
1000
AcadProxyRoundTripData
1071
      558
1071
   851991
1070
     0
  0
ACAD_PROXY_OBJECT
  5
5B1
330
0
100
AcDbProxyObject
 90
      499
 91
      574
 93
      111
310
0001014150D5930C0D5050055400
330
506
330
5AF
330
5B0
 94
        0
1001
ACAD
1000
AcadProxyRoundTripData
1071
      559
1071
   851991
1070
     0
  0
ACAD_PROXY_OBJECT
  5
5B2
330
0
100
AcDbProxyObject
 90
      499
 91
      574
 93
       40
310
000100AAAA02
330
506
330
5B1
 94
        0
1001
ACAD
1000
AcadProxyRoundTripData
1071
      560
1071
   851991
1070
     0
  0
ACAD_PROXY_OBJECT
  5
5B3
330
0
100
AcDbProxyObject
 90
      499
 91
      574
 93
      108
310
0001901422000000000000AAAAA0
330
506
330
5B4
330
5B4
330
5B4
330
5B4
330
5B4
330
0
 94
        0
1001
ACAD
1000
AcadProxyRoundTripData
1071
      561
1071
   851991
1070
     0
  0
ACAD_PROXY_OBJECT
  5
5B4
330
0
100
AcDbProxyObject
 90
      499
 91
      574
 93
       51
310
00010000AAAA84
330
506
330
5B3
330
5B1
 94
        0
1001
ACAD
1000
AcadProxyRoundTripData
1071
      562
1071
   851991
1070
     0
  0
ACAD_PROXY_OBJECT
  5
5C5
330
0
100
AcDbProxyObject
 90
      499
 91
      574
 93
      140
310
00010142105350D55494D5110050349534F8
330
506
 94
        0
1001
ACAD
1000
AcadProxyRoundTripData
1071
      539
1071
   851991
1070
     0
  0
DICTIONARY
  5
4FE
102
{ACAD_REACTORS
330
4FD
102
}
330
4FD
100
AcDbDictionary
  3
DWGSETTINGS
350
4FF
1001
ACAD
1000
TREAT_AS_HARD
1070
     0
1000
TREAT_AS_HARD
1070
     0
1000
TREAT_AS_HARD
1070
     0
  0
ACAD_PROXY_OBJECT
  5
5C3
102
{ACAD_REACTORS
330
4FD
102
}
330
4FD
100
AcDbProxyObject
 90
      499
 91
      574
 93
    12938
310
41102491013041105357CC1074CA404C504414D5F31439329013241105357CC9054CA404CD04414D5F33419199013441105357CD103466404D504414D5F3540D199013641105357CD90248E404DD04414D5F37411199013841105357CE101466404E504414D5F397F641102324141505357CC4C1074CA408D10505414D5F31
310
3140D19902495041505357CC4C9074C902408C13905414D5F304E41D32902314E41505357CC5390E4CA408C93905414D5F324E41532902334E41505357CCD3906466408D13905414D5F344E40D19902354E41505357CD53903466408D93905414D5F364E40923902374E41505357CDD3904466408E13905414D5F384E40519
310
902394E41505357CE539FD90440CC9053906414D5F31304E41D3290334414E41905357CC4C5390346640D25413906414D5F31324E41D32409044B4C494E41505357D0D3101465094112539193D08414D5F50415245464111942D055241484D3541905357D093D49074C9094115925155D08414D5F56494557534051942D064
310
24548494E4441905357D253959FD90D415514905253105414D5F545240D194250348494441905357D212511074650940D59254D06414D5F56495341D324250650415244494D42505357D410549112535034650941949151911253509414D5F52454644494D4111942553411092139590139CFFFFFFFF415092139594D06424
310
548494E44CFFFFFFFF411093D48C9055241484D3540519411093D48CD055241484D3540923411093D48D5055241484D35CFFFFFFFF4110D0530C90134CFFFFFFFF4110D0530CD0134409234110D0530D5013441D324110D0530DD0134479464110D1539390137CFFFFFFFF4110D15395D0137CFFFFFFFF4110D312539044B4
310
C494ECFFFFFFFF4110D3D38C50130CFFFFFFFF4110D3D38C90131CFFFFFFFF4110D3D38CD0132CFFFFFFFF4110D3D38D10132CFFFFFFFF411111551050134CFFFFFFFF4111125051D0135CFFFFFFFF411112531250135CFFFFFFFF411112535410650415244494DCFFFFFFFF411112535490652454644494DCFFFFFFFF4111
310
91535390138CFFFFFFFF4151915354139013840CFFFFFFFF4151915354D41023441CFFFFFFFF4151915354D5102344140D1941519153559390132CFFFFFFFF4151915355951013240D194112105510D0138CFFFFFFFF411212511390133CFFFFFFFF4112125115D0133CFFFFFFFF411213125390134CFFFFFFFF411213D0D3
310
90137CFFFFFFFF411213D0D5D0137CFFFFFFFF4112539193D04494E464FCFFFFFFFF411311505110135CFFFFFFFF419397D0921395902394ECFFFFFFFF419397D0D3D38C502304ECFFFFFFFF419397D0D3D38C902314ECFFFFFFFF419397D0D3D38CD02324ECFFFFFFFF419397D0D3D38D102324ECFFFFFFFF419397D0D153
310
93902374ECFFFFFFFF419397D0D15395D02374ECFFFFFFFF419397D1125312502354ECFFFFFFFF419397D2105510D02384ECFFFFFFFF419397D2125113902334ECFFFFFFFF419397D2125115D02334ECFFFFFFFF419397D3115051102354ECFFFFFFFF419397D391D25410349504ECFFFFFFFF419397D412105390334414EC
310
FFFFFFFF419397D510D3D3902304ECFFFFFFFF419397D5121312502344ECFFFFFFFF419397D5131153902304ECFFFFFFFF419397D594131250332414ECFFFFFFFF411391D2541024950CFFFFFFFF411410530C9055241484D3540519411410530CD055241484D3540923411410530D5055241484D35CFFFFFFFF4114121053
310
9023441CFFFFFFFF411413D4D390135CFFFFFFFF411490D1D390137CFFFFFFFF411490D1D5D0137CFFFFFFFF4114D09492D0134CFFFFFFFF4114D150D510134CFFFFFFFF4114D6508CD013540923411354D6535013540923411510D3D390130CFFFFFFFF411512131250134CFFFFFFFF411512550C9055241484D354051941
310
1512550CD055241484D3540923411512550D5055241484D35CFFFFFFFF411513115390130CFFFFFFFF415514905253105545241494CCFFFFFFFF411514931250134CFFFFFFFF411516150C5013640D19411516150C9013640D19411516150CD0136CFFFFFFFF411516150D5013641D32411516150DD0136479464115925155
310
D0456494557CFFFFFFFF4115915112103484944CFFFFFFFF4115915115903564953CFFFFFFFF41159413125023241CFFFFFFFF411692569050134CFFFFFFFFAA9FD404FE4290E4C9074C906465054C904465034650248D014651E519FD91
340
16
340
16
340
16
340
5C6
340
16
340
16
340
16
340
5C7
340
16
340
16
340
5C7
340
5C8
340
16
340
16
340
16
340
16
340
5C6
340
16
340
16
340
16
340
5C7
340
16
340
16
340
5C7
340
5C8
340
16
340
5C9
340
16
340
16
340
16
340
16
340
16
340
5C6
340
16
340
16
340
16
340
15
340
15
340
15
340
15
340
15
340
15
340
15
340
15
340
15
340
5CA
340
15
340
15
340
15
340
15
340
15
340
15
340
15
340
15
340
15
340
15
340
15
340
15
340
15
340
16
340
15
340
15
340
15
340
15
340
5CB
340
15
340
15
340
5CA
340
15
340
15
340
15
340
15
340
15
340
15
340
15
340
15
340
5CA
340
15
340
15
340
15
340
5CB
340
15
340
15
340
15
340
15
340
15
340
15
340
15
340
15
340
15
340
15
340
15
340
15
340
15
340
15
340
5CA
340
15
340
15
340
15
340
15
340
15
340
15
340
15
340
15
340
15
340
15
340
15
340
15
340
15
340
15
340
15
340
15
340
15
340
15
340
15
340
15
340
15
340
15
340
5CE
 94
        0
1001
ACAD
1000
AcadProxyRoundTripData
1071
      570
1071
   851991
1070
     0
  0
ACAD_PROXY_OBJECT
  5
5D5
102
{ACAD_REACTORS
330
5D0
102
}
330
5D0
100
AcDbProxyObject
 90
      499
 91
      574
 93
      253
310
43D1444494D454E53494F4E2C414D44545F2A5F44494D404A9012A404A9012A8
 94
        0
1001
ACAD
1000
AcadProxyRoundTripData
1071
      571
1071
   851991
1070
     0
  0
ACAD_PROXY_OBJECT
  5
5D4
102
{ACAD_REACTORS
330
5D0
102
}
330
5D0
100
AcDbProxyObject
 90
      499
 91
      574
 93
      181
310
43D012A42D05357D191504B505357CA9012A404A9012AC
 94
        0
1001
ACAD
1000
AcadProxyRoundTripData
1071
      571
1071
   851991
1070
     0
  0
ACAD_PROXY_OBJECT
  5
5D1
102
{ACAD_REACTORS
330
5D0
102
}
330
5D0
100
AcDbProxyObject
 90
      499
 91
      574
 93
      133
310
43D054841544348404A9012A404A9012A8
 94
        0
1001
ACAD
1000
AcadProxyRoundTripData
1071
      571
1071
   851991
1070
     0
  0
ACAD_PROXY_OBJECT
  5
5D2
102
{ACAD_REACTORS
330
5D0
102
}
330
5D0
100
AcDbProxyObject
 90
      499
 91
      574
 93
      549
310
43D044C494E4549CE0B0E138B0A8B4E0B0A8B4E138B105357CE0B105357CE138B0A8B505357CE0B0A8B505357CE139012A404A910494E534552542C535444504152543244C
 94
        0
1001
ACAD
1000
AcadProxyRoundTripData
1071
      571
1071
   851991
1070
     0
  0
ACAD_PROXY_OBJECT
  5
5D6
102
{ACAD_REACTORS
330
5D0
102
}
330
5D0
100
AcDbProxyObject
 90
      499
 91
      574
 93
      181
310
43D0341524341105357CD5012A404C906494E534552540
 94
        0
1001
ACAD
1000
AcadProxyRoundTripData
1071
      571
1071
   851991
1070
     0
  0
ACAD_PROXY_OBJECT
  5
5D3
102
{ACAD_REACTORS
330
5D0
102
}
330
5D0
100
AcDbProxyObject
 90
      499
 91
      574
 93
     1053
310
43D7841434D46434652414D452C41434D444154554D5441524745542C41434D444154554D49442C41434D57454C4453594D2C41434D5355524653594D2C41434D4645415449442C41434D504152545245462C41434D42414C4C4F4F4E2C414D44544544474553594D2C414D47534352455743414C435441424C45404A9012A
310
404A9012AA
 94
        0
1001
ACAD
1000
AcadProxyRoundTripData
1071
      571
1071
   851991
1070
     0
  0
ACAD_PROXY_OBJECT
  5
5B8
102
{ACAD_REACTORS
330
5B7
102
}
330
5B7
100
AcDbProxyObject
 90
      499
 91
      574
 93
      187
310
057356C1D5C406406AA8FFFFFFFF0AE50543564C30354051
330
1F
330
0
330
5B1
 94
        0
1001
ACAD
1000
AcadProxyRoundTripData
1071
      564
1071
   851991
1070
     0
  0
ACAD_PROXY_OBJECT
  5
4FF
102
{ACAD_REACTORS
330
4FE
102
}
330
4FE
100
AcDbProxyObject
 90
      499
 91
      574
 93
     2270
310
4050B44574753455454494E4753A1286829C8E82A4A482B282A106660F8686AF86C608321A2A720A723A0A849A1ABE1C983E18999AA0C868A9C889282940000000000000488083A1A2A72224A0A9A0A8418983E19183E199820E868A9C8892A6A894000000000000010808321A2A72622A7250000000000000122020C868A9
310
C9E8C8C940000000000000488084A1A624A720A92920ACA0A8418983E19183E19982108698929C8AA8B2A082A0AB098929C8A84A22BA3AAA9A1A0A622A50A0E9882A6A89E849482A02608426A0A5A2AB24A2ABA7E8120CA0A68682988A0C00800010652455649534941501304154D0D0531150540CC4E8C50954494D455354
310
414D504A03D0A805197267341441ED115D1D4D15515125391D4D153911F5
 94
        0
1001
ACAD
1000
AcadProxyRoundTripData
1071
      512
1071
   851991
1070
     0
  0
ENDSEC
  0
EOF
