  0
SECTION
  2
HEADER
  9
$ACADVER
  1
AC1014
  9
$ACADMAINTVER
 70
     9
  9
$DWGCODEPAGE
  3
ANSI_932
  9
$INSBASE
 10
0.0
 20
0.0
 30
0.0
  9
$EXTMIN
 10
-2.324417553020339
 20
-10.31186488643402
 30
-0.0000000000000058
  9
$EXTMAX
 10
1532.136232188814
 20
547.1784598849776
 30
0.0000000000000104
  9
$LIMMIN
 10
-4.508288923939516
 20
-8.666521531456851
  9
$LIMMAX
 10
1534.437508640114
 20
554.1373985205401
  9
$ORTHOMODE
 70
     0
  9
$REGENMODE
 70
     1
  9
$FILLMODE
 70
     1
  9
$QTEXTMODE
 70
     0
  9
$MIRRTEXT
 70
     1
  9
$DRAGMODE
 70
     2
  9
$LTSCALE
 40
1.0
  9
$OSMODE
 70
  3071
  9
$ATTMODE
 70
     1
  9
$TEXTSIZE
 40
2.5
  9
$TRACEWID
 40
1.0
  9
$TEXTSTYLE
  7
STANDARD
  9
$CLAYER
  8
0
  9
$CELTYPE
  6
BYLAYER
  9
$CECOLOR
 62
   256
  9
$CELTSCALE
 40
1.0
  9
$DELOBJ
 70
     1
  9
$DISPSILH
 70
     0
  9
$DIMSCALE
 40
1.0
  9
$DIMASZ
 40
2.5
  9
$DIMEXO
 40
0.625
  9
$DIMDLI
 40
3.75
  9
$DIMRND
 40
0.0
  9
$DIMDLE
 40
0.0
  9
$DIMEXE
 40
1.25
  9
$DIMTP
 40
0.0
  9
$DIMTM
 40
0.0
  9
$DIMTXT
 40
2.5
  9
$DIMCEN
 40
2.5
  9
$DIMTSZ
 40
0.0
  9
$DIMTOL
 70
     0
  9
$DIMLIM
 70
     0
  9
$DIMTIH
 70
     0
  9
$DIMTOH
 70
     0
  9
$DIMSE1
 70
     0
  9
$DIMSE2
 70
     0
  9
$DIMTAD
 70
     1
  9
$DIMZIN
 70
     8
  9
$DIMBLK
  1

  9
$DIMASO
 70
     1
  9
$DIMSHO
 70
     1
  9
$DIMPOST
  1

  9
$DIMAPOST
  1

  9
$DIMALT
 70
     0
  9
$DIMALTD
 70
     3
  9
$DIMALTF
 40
0.03937007874016
  9
$DIMLFAC
 40
1.0
  9
$DIMTOFL
 70
     1
  9
$DIMTVP
 40
0.0
  9
$DIMTIX
 70
     0
  9
$DIMSOXD
 70
     0
  9
$DIMSAH
 70
     0
  9
$DIMBLK1
  1

  9
$DIMBLK2
  1

  9
$DIMSTYLE
  2
ISO-25
  9
$DIMCLRD
 70
     0
  9
$DIMCLRE
 70
     0
  9
$DIMCLRT
 70
     0
  9
$DIMTFAC
 40
1.0
  9
$DIMGAP
 40
0.625
  9
$DIMJUST
 70
     0
  9
$DIMSD1
 70
     0
  9
$DIMSD2
 70
     0
  9
$DIMTOLJ
 70
     0
  9
$DIMTZIN
 70
     8
  9
$DIMALTZ
 70
     0
  9
$DIMALTTZ
 70
     0
  9
$DIMFIT
 70
     3
  9
$DIMUPT
 70
     0
  9
$DIMUNIT
 70
     2
  9
$DIMDEC
 70
     2
  9
$DIMTDEC
 70
     2
  9
$DIMALTU
 70
     2
  9
$DIMALTTD
 70
     3
  9
$DIMTXSTY
  7
STANDARD
  9
$DIMAUNIT
 70
     0
  9
$LUNITS
 70
     2
  9
$LUPREC
 70
     2
  9
$SKETCHINC
 40
1.0
  9
$FILLETRAD
 40
10.0
  9
$AUNITS
 70
     0
  9
$AUPREC
 70
     0
  9
$MENU
  1
.
  9
$ELEVATION
 40
0.0
  9
$PELEVATION
 40
0.0
  9
$THICKNESS
 40
0.0
  9
$LIMCHECK
 70
     0
  9
$BLIPMODE
 70
     0
  9
$CHAMFERA
 40
10.0
  9
$CHAMFERB
 40
10.0
  9
$CHAMFERC
 40
20.0
  9
$CHAMFERD
 40
0.0
  9
$SKPOLY
 70
     0
  9
$TDCREATE
 40
2454596.550355717
  9
$TDUPDATE
 40
2454757.497361828
  9
$TDINDWG
 40
0.0927231597
  9
$TDUSRTIMER
 40
0.0927229745
  9
$USRTIMER
 70
     1
  9
$ANGBASE
 50
0.0
  9
$ANGDIR
 70
     0
  9
$PDMODE
 70
     0
  9
$PDSIZE
 40
0.0
  9
$PLINEWID
 40
0.0
  9
$COORDS
 70
     0
  9
$SPLFRAME
 70
     0
  9
$SPLINETYPE
 70
     6
  9
$SPLINESEGS
 70
     8
  9
$ATTDIA
 70
     0
  9
$ATTREQ
 70
     1
  9
$HANDLING
 70
 22529
  9
$HANDSEED
  5
19CC
  9
$SURFTAB1
 70
     6
  9
$SURFTAB2
 70
     6
  9
$SURFTYPE
 70
     6
  9
$SURFU
 70
     6
  9
$SURFV
 70
     6
  9
$UCSNAME
  2

  9
$UCSORG
 10
0.0
 20
0.0
 30
0.0
  9
$UCSXDIR
 10
1.0
 20
0.0
 30
0.0
  9
$UCSYDIR
 10
0.0
 20
1.0
 30
0.0
  9
$PUCSNAME
  2

  9
$PUCSORG
 10
0.0
 20
0.0
 30
0.0
  9
$PUCSXDIR
 10
1.0
 20
0.0
 30
0.0
  9
$PUCSYDIR
 10
0.0
 20
1.0
 30
0.0
  9
$USERI1
 70
     0
  9
$USERI2
 70
     0
  9
$USERI3
 70
     0
  9
$USERI4
 70
     0
  9
$USERI5
 70
     0
  9
$USERR1
 40
0.0
  9
$USERR2
 40
0.0
  9
$USERR3
 40
0.0
  9
$USERR4
 40
0.0
  9
$USERR5
 40
0.0
  9
$WORLDVIEW
 70
     1
  9
$SHADEDGE
 70
     3
  9
$SHADEDIF
 70
    70
  9
$TILEMODE
 70
     1
  9
$MAXACTVP
 70
    48
  9
$PINSBASE
 10
0.0
 20
0.0
 30
0.0
  9
$PLIMCHECK
 70
     0
  9
$PEXTMIN
 10
28.5263154029846
 20
19.82258291244505
 30
0.0
  9
$PEXTMAX
 10
256.7368386268614
 20
178.4032462120055
 30
0.0
  9
$PLIMMIN
 10
-5.873748779296875
 20
-5.873749732971191
  9
$PLIMMAX
 10
291.1369018554686
 20
204.0995779037474
  9
$UNITMODE
 70
     0
  9
$VISRETAIN
 70
     1
  9
$PLINEGEN
 70
     0
  9
$PSLTSCALE
 70
     1
  9
$TREEDEPTH
 70
  3020
  9
$PICKSTYLE
 70
     1
  9
$CMLSTYLE
  2
STANDARD
  9
$CMLJUST
 70
     0
  9
$CMLSCALE
 40
20.0
  9
$PROXYGRAPHICS
 70
     1
  9
$MEASUREMENT
 70
     1
  0
ENDSEC
  0
SECTION
  2
CLASSES
  0
CLASS
  1
ACDBDICTIONARYWDFLT
  2
AcDbDictionaryWithDefault
  3
AutoCAD 2000
 90
        0
280
     0
281
     0
  0
CLASS
  1
ACDBPLACEHOLDER
  2
AcDbPlaceHolder
  3
AutoCAD 2000
 90
        0
280
     0
281
     0
  0
CLASS
  1
LAYOUT
  2
AcDbLayout
  3
AutoCAD 2000
 90
        0
280
     0
281
     0
  0
CLASS
  1
DICTIONARYVAR
  2
AcDbDictionaryVar
  3
AutoCAD 2000
 90
        0
280
     0
281
     0
  0
CLASS
  1
LONG_TRANSACTION
  2
AcDbLongTransaction
  3
AutoCAD 2000
 90
        0
280
     0
281
     0
  0
CLASS
  1
LWPOLYLINE
  2
AcDbPolyline
  3
AutoCAD 2000
 90
        0
280
     0
281
     1
  0
CLASS
  1
HATCH
  2
AcDbHatch
  3
AutoCAD 2000
 90
        0
280
     0
281
     1
  0
CLASS
  1
XRECORD
  2
AcDbXrecord
  3
AutoCAD 2000
 90
        0
280
     0
281
     0
  0
CLASS
  1
LONG_TRANSACTION
  2
AcDbLongTransaction
  3
AutoCAD 2000
 90
        0
280
     0
281
     0
  0
CLASS
  1
LWPOLYLINE
  2
AcDbPolyline
  3
AutoCAD 2000
 90
        0
280
     0
281
     1
  0
CLASS
  1
HATCH
  2
AcDbHatch
  3
AutoCAD 2000
 90
        0
280
     0
281
     1
  0
CLASS
  1
XRECORD
  2
AcDbXrecord
  3
AutoCAD 2000
 90
        0
280
     0
281
     0
  0
CLASS
  1
AMGSETTINGSOBJ
  2
AmgSettingsObj
  3
"AcadM|Product Description: AutoCAD Mechanical 2000|Company: Autodesk"
 90
        0
280
     0
281
     0
  0
CLASS
  1
ACME_DOCUMENT
  2
AcMeDbDoc
  3
AcMeServices
 90
        0
280
     0
281
     0
  0
CLASS
  1
ACMESCOPE
  2
AcMeScope
  3
AcMeServices
 90
        0
280
     0
281
     0
  0
CLASS
  1
ACMECOMMANDHISTORY
  2
AcMeCommandHistory
  3
AcMeServices
 90
        0
280
     0
281
     0
  0
CLASS
  1
ACIMSYSVARMAN
  2
AcImSysVarManager
  3
AcMeServices
 90
        0
280
     0
281
     0
  0
CLASS
  1
ACIMREALSYSVAR
  2
AcImRealSysVar
  3
AcMeServices
 90
        0
280
     0
281
     0
  0
CLASS
  1
ACIMINTSYSVAR
  2
AcImIntSysVar
  3
AcMeServices
 90
        0
280
     0
281
     0
  0
CLASS
  1
ACMEDRAWINGMAN
  2
AcMeDrawingMan
  3
AcMeServices
 90
        0
280
     0
281
     0
  0
CLASS
  1
ACMEVIEW
  2
AcMeView
  3
AcMeServices
 90
        0
280
     0
281
     0
  0
CLASS
  1
ACDBENTITYCACHE
  2
AcMeEntityCache
  3
AcMeServices
 90
        0
280
     0
281
     0
  0
CLASS
  1
GSMANAGER
  2
AcMeGSManager
  3
AcMeServices
 90
        0
280
     0
281
     0
  0
CLASS
  1
AMDTINTERNALREACTOR
  2
AmdtInternalReactor
  3
AcMeServices
 90
        0
280
     0
281
     0
  0
CLASS
  1
ACMESTATEMGR
  2
AcMeStateMgr
  3
AcMeServices
 90
        0
280
     0
281
     0
  0
CLASS
  1
ACGREFMASTER
  2
AcGrefMaster
  3
AcAttribServices
 90
        0
280
     0
281
     0
  0
CLASS
  1
AM_DRAWING_MGR
  2
AcDmDwgMgr
  3
AcMechDwgViewMgmt
 90
        0
280
     0
281
     0
  0
CLASS
  1
AM_DWG_DOCUMENT
  2
AcDmDwgDocument
  3
AcMechDwgViewMgmt
 90
        0
280
     0
281
     0
  0
CLASS
  1
AM_DWG_SHEET
  2
AcDmSheet
  3
AcMechDwgViewMgmt
 90
        0
280
     0
281
     0
  0
CLASS
  1
AM_VIEWDIMPARMAP
  2
AcDmViewDimParMap
  3
AcMechDwgViewMgmt
 90
        0
280
     0
281
     0
  0
CLASS
  1
AM_DWGMGR_NAME
  2
AcDmDwgMgrName
  3
AcMechDwgViewMgmt
 90
        0
280
     0
281
     0
  0
CLASS
  1
ACME_DATABASE
  2
AcMeDbDatabase
  3
AcMeServices
 90
        0
280
     0
281
     0
  0
CLASS
  1
ACRFINSADJUSTERMGR
  2
AcRfInsAdjusterMgr
  3
AcMeServices
 90
        0
280
     0
281
     0
  0
CLASS
  1
ACGREFACADMASTER
  2
AcGrefacadMaster
  3
AcGrefServices
 90
        0
280
     0
281
     0
  0
CLASS
  1
AMDTMENUSTATEMGR
  2
AmdtMenuStateMgr
  3
McadcomServices
 90
        0
280
     0
281
     0
  0
CLASS
  1
AMDTMCOMMENUSTATE
  2
AmdtMcomMenuState
  3
McadcomServices
 90
        0
280
     0
281
     0
  0
CLASS
  1
AMIMASTER
  2
AmiMaster
  3
AmiServices
 90
        0
280
     0
281
     0
  0
CLASS
  1
ASAPP
  2
AcAsAppObject
  3
AutoSurfServices
 90
        0
280
     0
281
     0
  0
CLASS
  1
IM_STATIC_MAN
  2
AcImStaticVarManager
  3
AcMeServices
 90
        0
280
     0
281
     0
  0
CLASS
  1
ACIMSTRSYSVAR
  2
AcImStrSysVar
  3
AcMeServices
 90
        0
280
     0
281
     0
  0
CLASS
  1
ACIMDBLSTATICVAR
  2
AcImDblStaticVar
  3
AcMeServices
 90
        0
280
     0
281
     0
  0
CLASS
  1
ACIMSTRSTATICVAR
  2
AcImStrStaticVar
  3
AcMeServices
 90
        0
280
     0
281
     0
  0
CLASS
  1
ACIMINTSTATICVAR
  2
AcImIntStaticVar
  3
AcMeServices
 90
        0
280
     0
281
     0
  0
CLASS
  1
ACASGREFMASTER
  2
AcAsGrefMaster
  3
AutoSurfResolverServices
 90
        0
280
     0
281
     0
  0
CLASS
  1
ACADGREFMODULE
  2
AcAdGrefModule
  3
AdGrefServices
 90
        0
280
     0
281
     0
  0
CLASS
  1
AMDTMAPISURFMOUDULE
  2
AmdtMApiSurfModule
  3
MApiSurfServices
 90
        0
280
     0
281
     0
  0
CLASS
  1
MAPIAMMOUDLE
  2
MApiAmModule
  3
MApiAmServices
 90
        0
280
     0
281
     0
  0
CLASS
  1
AMDTADMENUSTATE
  2
AmdtAdMenuState
  3
DesignerServices
 90
        0
280
     0
281
     0
  0
CLASS
  1
ADAPPL
  2
AcAdAppl
  3
DesignerServices
 90
        0
280
     0
281
     0
  0
CLASS
  1
DEPMGR
  2
AcAdDepMgr
  3
DesignerServices
 90
        0
280
     0
281
     0
  0
CLASS
  1
PARAMMGR
  2
AcAdParamMgr
  3
DesignerServices
 90
        0
280
     0
281
     0
  0
CLASS
  1
PARAMSCOPE
  2
AcAdParamScope
  3
DesignerServices
 90
        0
280
     0
281
     0
  0
CLASS
  1
NAMEDAPPL
  2
AcAdNamedAppl
  3
DesignerServices
 90
        0
280
     0
281
     0
  0
CLASS
  1
AMDTDMMENUSTATE
  2
AmdtDmMenuState
  3
AcMechDwgViewMgmt
 90
        0
280
     0
281
     0
  0
CLASS
  1
MAPIADMODULE
  2
MApiAdModule
  3
MApiAdServices
 90
        0
280
     0
281
     0
  0
CLASS
  1
AMDTAMMENUSTATE
  2
AmdtAmMenuState
  3
DesignerAssemblies
 90
        0
280
     0
281
     0
  0
CLASS
  1
ACAMPROJECT
  2
AcAmProject
  3
DesignerAssemblies
 90
        0
280
     0
281
     0
  0
CLASS
  1
ACAMGRCOMPDEF
  2
AcAmGrCompDef
  3
DesignerAssemblies
 90
        0
280
     0
281
     0
  0
CLASS
  1
ACCMCONTEXT
  2
AcCmContext
  3
DesignerAssemblies
 90
        0
280
     0
281
     0
  0
CLASS
  1
ACAMCOMPDEF
  2
AcAmCompDef
  3
DesignerAssemblies
 90
        0
280
     0
281
     0
  0
CLASS
  1
ACAMCOMPDEFMGR
  2
AcAmCompDefMgr
  3
DesignerAssemblies
 90
        0
280
     0
281
     0
  0
CLASS
  1
AMCONTEXTMGR
  2
AcAmContextMgr
  3
DesignerAssemblies
 90
        0
280
     0
281
     0
  0
CLASS
  1
ACAMCONTEXTMODELER
  2
AcAmContextModeler
  3
DesignerAssemblies
 90
        0
280
     0
281
     0
  0
CLASS
  1
ACMDATADICTIONARY
  2
AcmDataDictionary
  3
"AcmSymBB|Product Description: AutoCAD Mechanical 2000|Company: Autodesk"
 90
        0
280
     0
281
     0
  0
CLASS
  1
ACMDATAENTRYBLOCK
  2
AcmDataEntryBlock
  3
"AcmSymBB|Product Description: AutoCAD Mechanical 2000|Company: Autodesk"
 90
        0
280
     0
281
     0
  0
CLASS
  1
CATALOGSTATE
  2
AcAmCatalogState
  3
DesignerAssemblies
 90
        0
280
     0
281
     0
  0
CLASS
  1
ACAMGRCOMPDEFSET
  2
AcAmGrCompDefSet
  3
DesignerAssemblies
 90
        0
280
     0
281
     0
  0
CLASS
  1
AMDTBROWSERDBTAB
  2
AmdtBrowserDbTab
  3
McadcomServices
 90
        0
280
     0
281
     0
  0
CLASS
  1
CBROWSERAPPOBJECT
  2
CBrowserAppObject
  3
McadcomServices
 90
        0
280
     0
281
     0
  0
CLASS
  1
DM_PLACEHOLDER
  2
AcDmSelsetPlaceholder
  3
AcMechDwgViewMgmt
 90
        0
280
     0
281
     0
  0
CLASS
  1
AMGOBJPROPCFG
  2
AmgObjPropCfg
  3
"AmgLay|Product Description: AutoCAD Mechanical 2000|Company: Autodesk"
 90
        1
280
     0
281
     0
  0
CLASS
  1
ACAMGFILTERDAT
  2
AcAmgFilterDat
  3
"AcadM|Product Description: AutoCAD Mechanical 2000|Company: Autodesk"
 90
        0
280
     0
281
     0
  0
CLASS
  1
LAYER_INDEX
  2
AcDbLayerIndex
  3
AutoCAD 2000
 90
        0
280
     0
281
     0
  0
CLASS
  1
IDBUFFER
  2
AcDbIdBuffer
  3
AutoCAD 2000
 90
        0
280
     0
281
     0
  0
CLASS
  1
ACAD_PROXY_OBJECT_WRAPPER
  2
AcDbProxyObjectWrapper
  3
AutoCAD 2000
 90
        0
280
     0
281
     0
  0
CLASS
  1
LONG_TRANSACTION
  2
AcDbLongTransaction
  3
AutoCAD 2000
 90
        0
280
     0
281
     0
  0
CLASS
  1
LWPOLYLINE
  2
AcDbPolyline
  3
AutoCAD 2000
 90
        0
280
     0
281
     1
  0
CLASS
  1
HATCH
  2
AcDbHatch
  3
AutoCAD 2000
 90
        0
280
     0
281
     1
  0
CLASS
  1
XRECORD
  2
AcDbXrecord
  3
AutoCAD 2000
 90
        0
280
     0
281
     0
  0
CLASS
  1
DIMASSOC
  2
AcDbDimAssoc
  3
"AcDbDimAssoc|Product Desc:     AcDim ARX App For Dimension|Company:          Autodesk, Inc.|WEB Address:      www.autodesk.com"
 90
        0
280
     0
281
     0
  0
CLASS
  1
LONG_TRANSACTION
  2
AcDbLongTransaction
  3
AutoCAD 2000
 90
        0
280
     0
281
     0
  0
CLASS
  1
LWPOLYLINE
  2
AcDbPolyline
  3
AutoCAD 2000
 90
        0
280
     0
281
     1
  0
CLASS
  1
HATCH
  2
AcDbHatch
  3
AutoCAD 2000
 90
        0
280
     0
281
     1
  0
CLASS
  1
XRECORD
  2
AcDbXrecord
  3
AutoCAD 2000
 90
        0
280
     0
281
     0
  0
CLASS
  1
LONG_TRANSACTION
  2
AcDbLongTransaction
  3
AutoCAD 2000
 90
        0
280
     0
281
     0
  0
CLASS
  1
LWPOLYLINE
  2
AcDbPolyline
  3
AutoCAD 2000
 90
        0
280
     0
281
     1
  0
CLASS
  1
HATCH
  2
AcDbHatch
  3
AutoCAD 2000
 90
        0
280
     0
281
     1
  0
CLASS
  1
XRECORD
  2
AcDbXrecord
  3
AutoCAD 2000
 90
        0
280
     0
281
     0
  0
CLASS
  1
LONG_TRANSACTION
  2
AcDbLongTransaction
  3
AutoCAD 2000
 90
        0
280
     0
281
     0
  0
CLASS
  1
LWPOLYLINE
  2
AcDbPolyline
  3
AutoCAD 2000
 90
        0
280
     0
281
     1
  0
CLASS
  1
HATCH
  2
AcDbHatch
  3
AutoCAD 2000
 90
        0
280
     0
281
     1
  0
CLASS
  1
XRECORD
  2
AcDbXrecord
  3
AutoCAD 2000
 90
        0
280
     0
281
     0
  0
CLASS
  1
LONG_TRANSACTION
  2
AcDbLongTransaction
  3
AutoCAD 2000
 90
        0
280
     0
281
     0
  0
CLASS
  1
LWPOLYLINE
  2
AcDbPolyline
  3
AutoCAD 2000
 90
        0
280
     0
281
     1
  0
CLASS
  1
HATCH
  2
AcDbHatch
  3
AutoCAD 2000
 90
        0
280
     0
281
     1
  0
CLASS
  1
XRECORD
  2
AcDbXrecord
  3
AutoCAD 2000
 90
        0
280
     0
281
     0
  0
ENDSEC
  0
SECTION
  2
TABLES
  0
TABLE
  2
VPORT
  5
8
330
0
100
AcDbSymbolTable
 70
     2
  0
VPORT
  5
19A9
330
8
100
AcDbSymbolTableRecord
100
AcDbViewportTableRecord
  2
*ACTIVE
 70
     0
 10
0.0
 20
0.0
 11
1.0
 21
1.0
 12
-376.0432592632921
 22
-284.1428769431744
 13
0.0
 23
0.0
 14
10.0
 24
10.0
 15
10.0
 25
10.0
 16
0.0
 26
0.0
 36
1.0
 17
1140.949166581189
 27
552.5761744424462
 37
0.0
 40
951.3080362976038
 41
1.621212121212121
 42
50.0
 43
0.0
 44
0.0
 50
0.0
 51
0.0
 71
     0
 72
   100
 73
     1
 74
     3
 75
     0
 76
     0
 77
     0
 78
     0
  0
ENDTAB
  0
TABLE
  2
LTYPE
  5
5
330
0
100
AcDbSymbolTable
 70
     9
  0
LTYPE
  5
14
330
5
100
AcDbSymbolTableRecord
100
AcDbLinetypeTableRecord
  2
BYBLOCK
 70
     0
  3

 72
    65
 73
     0
 40
0.0
  0
LTYPE
  5
15
330
5
100
AcDbSymbolTableRecord
100
AcDbLinetypeTableRecord
  2
BYLAYER
 70
     0
  3

 72
    65
 73
     0
 40
0.0
  0
LTYPE
  5
16
330
5
100
AcDbSymbolTableRecord
100
AcDbLinetypeTableRecord
  2
CONTINUOUS
 70
     0
  3
Solid line
 72
    65
 73
     0
 40
0.0
  0
LTYPE
  5
5C6
330
5
100
AcDbSymbolTableRecord
100
AcDbLinetypeTableRecord
  2
AM_ISO02W050
 70
     0
  3
__ __ __ __ __ __ __ __ __ __ __ __ __ __ __
 72
    65
 73
     2
 40
7.5
 49
6.0
 74
     0
 49
-1.5
 74
     0
  0
LTYPE
  5
5C7
330
5
100
AcDbSymbolTableRecord
100
AcDbLinetypeTableRecord
  2
AM_ISO08W050
 70
     0
  3
____ . ____ . ____ . ____ . ____ . ____ . ____
 72
    65
 73
     4
 40
18.0
 49
12.0
 74
     0
 49
-1.5
 74
     0
 49
3.0
 74
     0
 49
-1.5
 74
     0
  0
LTYPE
  5
5C8
330
5
100
AcDbSymbolTableRecord
100
AcDbLinetypeTableRecord
  2
AM_ISO09W050
 70
     0
  3
_____ . . _____ . . _____ . . ____ .. ____
 72
    65
 73
     6
 40
22.5
 49
12.0
 74
     0
 49
-1.5
 74
     0
 49
3.0
 74
     0
 49
-1.5
 74
     0
 49
3.0
 74
     0
 49
-1.5
 74
     0
  0
LTYPE
  5
5C9
330
5
100
AcDbSymbolTableRecord
100
AcDbLinetypeTableRecord
  2
AMCONSTR
 70
     0
  3
_______________________
 72
    65
 73
     2
 40
9999.0
 49
9999.0
 74
     0
 49
0.0
 74
     0
  0
LTYPE
  5
5CA
330
5
100
AcDbSymbolTableRecord
100
AcDbLinetypeTableRecord
  2
AM_ISO08W050X2
 70
     0
  3
__ . __ . __ . __ . __ . __
 72
    65
 73
     4
 40
9.0
 49
6.0
 74
     0
 49
-0.75
 74
     0
 49
1.5
 74
     0
 49
-0.75
 74
     0
  0
LTYPE
  5
5CB
330
5
100
AcDbSymbolTableRecord
100
AcDbLinetypeTableRecord
  2
AM_ISO02W050X2
 70
     0
  3
 _ _ _ _ _ _ _ _ _ _ _ _
 72
    65
 73
     2
 40
3.75
 49
3.0
 74
     0
 49
-0.75
 74
     0
  0
LTYPE
  5
5CE
330
5
100
AcDbSymbolTableRecord
100
AcDbLinetypeTableRecord
  2
AMZIGZAG
 70
     0
  3
/\/-/\/-/\/-/\/-/\/-/\/
 72
    65
 73
     2
 40
11.00009999999999
 49
0.0001
 74
     4
 75
   135
340
5CD
 46
0.04
 50
0.0
 44
0.0
 45
0.0
 49
-11.0
 74
     0
  0
LTYPE
  5
69D
330
5
100
AcDbSymbolTableRecord
100
AcDbLinetypeTableRecord
  2
DOT_CENTER
 70
     0
  3
Dot_Center
 72
    65
 73
     4
 40
2.0
 49
1.25
 74
     0
 49
-0.25
 74
     0
 49
0.25
 74
     0
 49
-0.25
 74
     0
  0
ENDTAB
  0
TABLE
  2
LAYER
  5
2
102
{ACAD_XDICTIONARY
360
41
102
}
330
0
100
AcDbSymbolTable
 70
     7
  0
LAYER
  5
10
330
2
100
AcDbSymbolTableRecord
100
AcDbLayerTableRecord
  2
0
 70
     0
 62
     7
  6
CONTINUOUS
  0
LAYER
  5
35
330
2
100
AcDbSymbolTableRecord
100
AcDbLayerTableRecord
  2
10
 70
     0
 62
     4
  6
CONTINUOUS
  0
LAYER
  5
36
330
2
100
AcDbSymbolTableRecord
100
AcDbLayerTableRecord
  2
12
 70
     0
 62
     3
  6
CONTINUOUS
  0
LAYER
  5
37
330
2
100
AcDbSymbolTableRecord
100
AcDbLayerTableRecord
  2
16
 70
     0
 62
     4
  6
CONTINUOUS
  0
LAYER
  5
38
330
2
100
AcDbSymbolTableRecord
100
AcDbLayerTableRecord
  2
19
 70
     0
 62
     7
  6
CONTINUOUS
  0
LAYER
  5
6A0
330
2
100
AcDbSymbolTableRecord
100
AcDbLayerTableRecord
  2
DEFPOINTS
 70
     0
 62
     7
  6
CONTINUOUS
  0
LAYER
  5
1919
330
2
100
AcDbSymbolTableRecord
100
AcDbLayerTableRecord
  2
17
 70
     0
 62
     2
  6
CONTINUOUS
  0
ENDTAB
  0
TABLE
  2
STYLE
  5
3
330
0
100
AcDbSymbolTable
 70
     3
  0
STYLE
  5
11
330
3
100
AcDbSymbolTableRecord
100
AcDbTextStyleTableRecord
  2
STANDARD
 70
     0
 40
0.0
 41
1.0
 50
0.0
 71
     0
 42
2.5
  3
txt
  4

  0
STYLE
  5
3A
330
3
100
AcDbSymbolTableRecord
100
AcDbTextStyleTableRecord
  2
STANDARD1X3
 70
     0
 40
9.599999999999999
 41
0.7
 50
0.0
 71
     0
 42
9.599999999999999
  3
romans.shx
  4
extfont.shx
  0
STYLE
  5
5CD
330
3
100
AcDbSymbolTableRecord
100
AcDbTextStyleTableRecord
  2

 70
     1
 40
0.0
 41
1.0
 50
0.0
 71
     0
 42
2.5
  3
ltypeshp.shx
  4

  0
ENDTAB
  0
TABLE
  2
VIEW
  5
6
330
0
100
AcDbSymbolTable
 70
     0
  0
ENDTAB
  0
TABLE
  2
UCS
  5
7
330
0
100
AcDbSymbolTable
 70
     0
  0
ENDTAB
  0
TABLE
  2
APPID
  5
9
330
0
100
AcDbSymbolTable
 70
    17
  0
APPID
  5
12
330
9
100
AcDbSymbolTableRecord
100
AcDbRegAppTableRecord
  2
ACAD
 70
     0
  0
APPID
  5
3C
330
9
100
AcDbSymbolTableRecord
100
AcDbRegAppTableRecord
  2
ACAD_PSEXT
 70
     0
  0
APPID
  5
3D
330
9
100
AcDbSymbolTableRecord
100
AcDbRegAppTableRecord
  2
ACAD_DSTYLE_DIMEXT_LENGTH
 70
     0
  0
APPID
  5
3E
330
9
100
AcDbSymbolTableRecord
100
AcDbRegAppTableRecord
  2
ACAD_DSTYLE_DIMEXT_ENABLED
 70
     0
  0
APPID
  5
3F
330
9
100
AcDbSymbolTableRecord
100
AcDbRegAppTableRecord
  2
ACAD_DSTYLE_DIMJOGGED_JOGA
 70
     0
  0
APPID
  5
40
330
9
100
AcDbSymbolTableRecord
100
AcDbRegAppTableRecord
  2
ACAD_DSTYLE_DIMARC_LENGTH_
 70
     0
  0
APPID
  5
500
330
9
100
AcDbSymbolTableRecord
100
AcDbRegAppTableRecord
  2
GENIUS_GENDIM_13
 70
     0
  0
APPID
  5
501
330
9
100
AcDbSymbolTableRecord
100
AcDbRegAppTableRecord
  2
GENIUS_GENDTOL_13
 70
     0
  0
APPID
  5
502
330
9
100
AcDbSymbolTableRecord
100
AcDbRegAppTableRecord
  2
GENIUS_GE3DTOL_13
 70
     0
  0
APPID
  5
504
330
9
100
AcDbSymbolTableRecord
100
AcDbRegAppTableRecord
  2
MCAD_NO_VIS
 70
     0
  0
APPID
  5
505
330
9
100
AcDbSymbolTableRecord
100
AcDbRegAppTableRecord
  2
ACAD_TEMP_GRAPHIC
 70
     0
  0
APPID
  5
537
330
9
100
AcDbSymbolTableRecord
100
AcDbRegAppTableRecord
  2
AD_DRAW
 70
     0
  0
APPID
  5
53A
330
9
100
AcDbSymbolTableRecord
100
AcDbRegAppTableRecord
  2
ACATTRIBSERVICES
 70
     0
  0
APPID
  5
586
330
9
100
AcDbSymbolTableRecord
100
AcDbRegAppTableRecord
  2
ASURF_PCURVE_APPNAME
 70
     0
  0
APPID
  5
5B5
330
9
100
AcDbSymbolTableRecord
100
AcDbRegAppTableRecord
  2
DESIGNERASSEMBLIES
 70
     0
  0
APPID
  5
5BD
330
9
100
AcDbSymbolTableRecord
100
AcDbRegAppTableRecord
  2
ACADM_DIM_EDIT
 70
     0
  0
APPID
  5
5BE
330
9
100
AcDbSymbolTableRecord
100
AcDbRegAppTableRecord
  2
AMDT_DM_ADJ
 70
     0
  0
ENDTAB
  0
TABLE
  2
DIMSTYLE
  5
A
330
0
100
AcDbSymbolTable
 70
     1
  0
DIMSTYLE
105
27
330
A
100
AcDbSymbolTableRecord
100
AcDbDimStyleTableRecord
  2
ISO-25
 70
     0
  3

  4

  5

  6

  7

 40
1.0
 41
2.5
 42
0.625
 43
3.75
 44
1.25
 45
0.0
 46
0.0
 47
0.0
 48
0.0
140
2.5
141
2.5
142
0.0
143
0.03937007874016
144
1.0
145
0.0
146
1.0
147
0.625
 71
     0
 72
     0
 73
     0
 74
     0
 75
     0
 76
     0
 77
     1
 78
     8
170
     0
171
     3
172
     1
173
     0
174
     0
175
     0
176
     0
177
     0
178
     0
270
     2
271
     2
272
     2
273
     2
274
     3
340
11
275
     0
280
     0
281
     0
282
     0
283
     0
284
     8
285
     0
286
     0
287
     3
288
     0
  0
ENDTAB
  0
TABLE
  2
BLOCK_RECORD
  5
1
330
0
100
AcDbSymbolTable
 70
     1
  0
BLOCK_RECORD
  5
1F
102
{ACAD_XDICTIONARY
360
438
102
}
330
1
100
AcDbSymbolTableRecord
100
AcDbBlockTableRecord
  2
*MODEL_SPACE
  0
BLOCK_RECORD
  5
23
102
{ACAD_XDICTIONARY
360
43A
102
}
330
1
100
AcDbSymbolTableRecord
100
AcDbBlockTableRecord
  2
*PAPER_SPACE
  0
BLOCK_RECORD
  5
5AC
330
1
100
AcDbSymbolTableRecord
100
AcDbBlockTableRecord
  2
*U0
  0
ENDTAB
  0
ENDSEC
  0
SECTION
  2
BLOCKS
  0
BLOCK
  5
20
330
1F
100
AcDbEntity
  8
0
100
AcDbBlockBegin
  2
*MODEL_SPACE
 70
     0
 10
0.0
 20
0.0
 30
0.0
  3
*MODEL_SPACE
  1

  0
ENDBLK
  5
21
330
1F
100
AcDbEntity
  8
0
100
AcDbBlockEnd
  0
BLOCK
  5
24
330
23
100
AcDbEntity
 67
     1
  8
0
100
AcDbBlockBegin
  2
*PAPER_SPACE
 70
     0
 10
0.0
 20
0.0
 30
0.0
  3
*PAPER_SPACE
  1

  0
ENDBLK
  5
25
330
23
100
AcDbEntity
 67
     1
  8
0
100
AcDbBlockEnd
  0
BLOCK
  5
5AD
330
5AC
100
AcDbEntity
  8
0
100
AcDbBlockBegin
  2
*U0
 70
     1
 10
0.0
 20
0.0
 30
0.0
  3
*U0
  1

  0
ENDBLK
  5
5AE
330
5AC
100
AcDbEntity
  8
0
100
AcDbBlockEnd
  0
ENDSEC
  0
SECTION
  2
ENTITIES
  0
MTEXT
  5
5EB
330
1F
100
AcDbEntity
  8
19
100
AcDbMText
 10
1410.044740239978
 20
40.02976817279807
 30
0.0
 40
15.0
 41
70.16
 71
     1
 72
     5
  1
HALH21\PFR-HAL-H560K
  7
STANDARD1X3
1001
ACAD
1000
MTEXTBEGIN
1070
    73
1070
     1
1070
    44
1040
1.0
1070
    74
1070
     0
1000
MTEXTEND
1000
MTEXTBEGIN
1070
    73
1070
     1
1070
    44
1040
1.0
1070
    74
1070
     0
1000
MTEXTEND
1000
MTEXTBEGIN
1070
    73
1070
     1
1070
    44
1040
1.0
1070
    74
1070
     0
1000
MTEXTEND
1000
MTEXTBEGIN
1070
    73
1070
     1
1070
    44
1040
1.0
1070
    74
1070
     0
1000
MTEXTEND
  0
ARC
  5
134F
330
1F
100
AcDbEntity
  8
10
100
AcDbCircle
 10
1228.884401831815
 20
535.7184462146334
 30
0.0
 40
4.0
100
AcDbArc
 50
0.0
 51
180.0
  0
LINE
  5
1350
330
1F
100
AcDbEntity
  8
10
100
AcDbLine
 10
1224.884401831815
 20
506.0517795479674
 30
0.0
 11
1224.884401831815
 21
535.7184462146334
 31
0.0
  0
LINE
  5
1351
330
1F
100
AcDbEntity
  8
10
100
AcDbLine
 10
1232.884401831815
 20
506.0517795479674
 30
0.0
 11
1232.884401831815
 21
535.7184462146334
 31
0.0
  0
LINE
  5
1352
330
1F
100
AcDbEntity
  8
10
100
AcDbLine
 10
1219.884401831815
 20
505.2184462146334
 30
0.0
 11
1237.884401831815
 21
505.2184462146334
 31
0.0
  0
LINE
  5
1353
330
1F
100
AcDbEntity
  8
10
100
AcDbLine
 10
1219.884401831815
 20
505.2184462146334
 30
0.0
 11
1228.884401831815
 21
506.7184462146333
 31
0.0
  0
LINE
  5
1354
330
1F
100
AcDbEntity
  8
10
100
AcDbLine
 10
1228.884401831815
 20
506.7184462146333
 30
0.0
 11
1237.884401831815
 21
505.2184462146334
 31
0.0
  0
LINE
  5
1355
330
1F
100
AcDbEntity
  8
10
100
AcDbLine
 10
1218.884401831815
 20
491.2184462146334
 30
0.0
 11
1238.884401831815
 21
491.2184462146334
 31
0.0
  0
LINE
  5
1356
330
1F
100
AcDbEntity
  8
10
100
AcDbLine
 10
1218.884401831815
 20
491.2184462146334
 30
0.0
 11
1219.884401831815
 21
505.2184462146334
 31
0.0
  0
LINE
  5
1357
330
1F
100
AcDbEntity
  8
10
100
AcDbLine
 10
1237.884401831815
 20
505.2184462146334
 30
0.0
 11
1238.884401831815
 21
491.2184462146334
 31
0.0
  0
LINE
  5
1358
330
1F
100
AcDbEntity
  8
17
 48
2.0
100
AcDbLine
 10
1206.384401831815
 20
519.2184462146334
 30
0.0
 11
1251.384401831815
 21
519.2184462146334
 31
0.0
  0
LINE
  5
1359
330
1F
100
AcDbEntity
  8
17
 48
2.0
100
AcDbLine
 10
-2.208847427834595
 20
519.2184462146339
 30
0.0
 11
50.79115257216539
 21
519.2184462146339
 31
0.0
  0
LINE
  5
135A
330
1F
100
AcDbEntity
  8
10
100
AcDbLine
 10
33.29115257216404
 20
505.2184462146337
 30
0.0
 11
34.2911525721654
 21
491.2184462146337
 31
0.0
  0
LINE
  5
135B
330
1F
100
AcDbEntity
  8
10
100
AcDbLine
 10
14.2911525721654
 20
491.2184462146337
 30
0.0
 11
15.2911525721654
 21
505.2184462146337
 31
0.0
  0
LINE
  5
135C
330
1F
100
AcDbEntity
  8
10
100
AcDbLine
 10
14.2911525721654
 20
491.2184462146337
 30
0.0
 11
34.2911525721654
 21
491.2184462146337
 31
0.0
  0
LINE
  5
135D
330
1F
100
AcDbEntity
  8
10
100
AcDbLine
 10
24.29115257216539
 20
506.7184462146338
 30
0.0
 11
33.29115257216404
 21
505.2184462146337
 31
0.0
  0
LINE
  5
135E
330
1F
100
AcDbEntity
  8
10
100
AcDbLine
 10
15.2911525721654
 20
505.2184462146337
 30
0.0
 11
24.29115257216539
 21
506.7184462146338
 31
0.0
  0
CIRCLE
  5
135F
330
1F
100
AcDbEntity
  8
10
100
AcDbCircle
 10
24.29115257216539
 20
519.2184462146339
 30
0.0
 40
12.5
  0
LINE
  5
1360
330
1F
100
AcDbEntity
  8
10
100
AcDbLine
 10
15.2911525721654
 20
505.2184462146337
 30
0.0
 11
33.29115257216404
 21
505.2184462146337
 31
0.0
  0
ARC
  5
1361
330
1F
100
AcDbEntity
  8
10
100
AcDbCircle
 10
24.29115257216539
 20
519.2184462146339
 30
0.0
 40
20.5
100
AcDbArc
 50
296.9935923627723
 51
243.0064076372274
  0
ARC
  5
1362
330
1F
100
AcDbEntity
  8
10
100
AcDbCircle
 10
883.8844018318164
 20
535.7184462146334
 30
0.0
 40
4.0
100
AcDbArc
 50
0.0
 51
180.0
  0
LINE
  5
1363
330
1F
100
AcDbEntity
  8
10
100
AcDbLine
 10
879.8844018318161
 20
506.0517795479674
 30
0.0
 11
879.8844018318161
 21
535.7184462146334
 31
0.0
  0
LINE
  5
1364
330
1F
100
AcDbEntity
  8
10
100
AcDbLine
 10
873.8844018318163
 20
491.2184462146334
 30
0.0
 11
874.8844018318164
 21
505.2184462146334
 31
0.0
  0
LINE
  5
1365
330
1F
100
AcDbEntity
  8
10
100
AcDbLine
 10
873.8844018318163
 20
491.2184462146334
 30
0.0
 11
893.8844018318164
 21
491.2184462146334
 31
0.0
  0
LINE
  5
1366
330
1F
100
AcDbEntity
  8
10
100
AcDbLine
 10
874.8844018318164
 20
505.2184462146334
 30
0.0
 11
883.8844018318164
 21
506.7184462146333
 31
0.0
  0
LINE
  5
1367
330
1F
100
AcDbEntity
  8
10
100
AcDbLine
 10
892.8844018318164
 20
505.2184462146334
 30
0.0
 11
893.8844018318164
 21
491.2184462146334
 31
0.0
  0
LINE
  5
1368
330
1F
100
AcDbEntity
  8
10
100
AcDbLine
 10
887.8844018318162
 20
506.0517795479674
 30
0.0
 11
887.8844018318162
 21
535.7184462146334
 31
0.0
  0
LINE
  5
1369
330
1F
100
AcDbEntity
  8
10
100
AcDbLine
 10
874.8844018318164
 20
505.2184462146334
 30
0.0
 11
892.8844018318164
 21
505.2184462146334
 31
0.0
  0
LINE
  5
136A
330
1F
100
AcDbEntity
  8
10
100
AcDbLine
 10
883.8844018318164
 20
506.7184462146333
 30
0.0
 11
892.8844018318164
 21
505.2184462146334
 31
0.0
  0
LINE
  5
136B
330
1F
100
AcDbEntity
  8
10
100
AcDbLine
 10
434.2911525721663
 20
491.2184462146337
 30
0.0
 11
454.2911525721661
 21
491.2184462146337
 31
0.0
  0
LINE
  5
136C
330
1F
100
AcDbEntity
  8
10
100
AcDbLine
 10
435.2911525721663
 20
505.2184462146337
 30
0.0
 11
453.2911525721663
 21
505.2184462146337
 31
0.0
  0
LINE
  5
136D
330
1F
100
AcDbEntity
  8
10
100
AcDbLine
 10
444.2911525721663
 20
506.7184462146338
 30
0.0
 11
453.2911525721663
 21
505.2184462146337
 31
0.0
  0
LINE
  5
136E
330
1F
100
AcDbEntity
  8
10
100
AcDbLine
 10
434.2911525721663
 20
491.2184462146337
 30
0.0
 11
435.2911525721663
 21
505.2184462146337
 31
0.0
  0
LINE
  5
136F
330
1F
100
AcDbEntity
  8
10
100
AcDbLine
 10
435.2911525721663
 20
505.2184462146337
 30
0.0
 11
444.2911525721663
 21
506.7184462146338
 31
0.0
  0
LINE
  5
1370
330
1F
100
AcDbEntity
  8
10
100
AcDbLine
 10
453.2911525721663
 20
505.2184462146337
 30
0.0
 11
454.2911525721661
 21
491.2184462146337
 31
0.0
  0
ARC
  5
1371
330
1F
100
AcDbEntity
  8
10
100
AcDbCircle
 10
444.2911525721663
 20
519.2184462146339
 30
0.0
 40
20.5
100
AcDbArc
 50
296.9935923627723
 51
243.0064076372274
  0
CIRCLE
  5
1372
330
1F
100
AcDbEntity
  8
10
100
AcDbCircle
 10
444.2911525721663
 20
519.2184462146339
 30
0.0
 40
12.5
  0
LINE
  5
1373
330
1F
100
AcDbEntity
  8
12
100
AcDbLine
 10
444.2911525721663
 20
36.21844621463287
 30
0.0
 11
444.2911525721663
 21
11.21844621463286
 31
0.0
  0
LINE
  5
1374
330
1F
100
AcDbEntity
  8
12
100
AcDbLine
 10
431.7911525721663
 20
23.71844621463286
 30
0.0
 11
456.7911525721663
 21
23.71844621463286
 31
0.0
  0
LWPOLYLINE
  5
1385
330
1F
100
AcDbEntity
  8
10
100
AcDbPolyline
 90
        4
 70
     1
 43
0.0
 10
858.2243672158593
 20
195.7184462146325
 10
858.8844018318164
 20
195.7184462146325
 10
858.8844018318164
 20
155.7184462146328
 10
858.2243672158593
 20
155.7184462146328
  0
LINE
  5
13AC
330
1F
100
AcDbEntity
  8
10
 48
2.0
100
AcDbLine
 10
1242.384401831816
 20
5.718446214634241
 30
0.0
 11
1242.384401831816
 21
-0.2815537853657588
 31
0.0
  0
LINE
  5
13AD
330
1F
100
AcDbEntity
  8
10
 48
2.0
100
AcDbLine
 10
1215.384401831816
 20
5.718446214632876
 30
0.0
 11
1215.384401831816
 21
-0.2815537853657588
 31
0.0
  0
LINE
  5
13AE
330
1F
100
AcDbEntity
  8
12
 48
2.0
100
AcDbLine
 10
1228.884401831815
 20
15.71844621463424
 30
0.0
 11
1228.884401831815
 21
-10.28155378536576
 31
0.0
  0
LINE
  5
13AF
330
1F
100
AcDbEntity
  8
10
 48
2.0
100
AcDbLine
 10
897.3844018318164
 20
5.718446214632876
 30
0.0
 11
897.3844018318164
 21
-0.2815537853657588
 31
0.0
  0
LINE
  5
13B0
330
1F
100
AcDbEntity
  8
10
 48
2.0
100
AcDbLine
 10
870.3844018318163
 20
5.718446214634241
 30
0.0
 11
870.3844018318163
 21
-0.2815537853657588
 31
0.0
  0
LINE
  5
13B1
330
1F
100
AcDbEntity
  8
12
 48
2.0
100
AcDbLine
 10
883.8844018318164
 20
15.71844621463424
 30
0.0
 11
883.8844018318164
 21
-10.28155378536576
 31
0.0
  0
LINE
  5
13B2
330
1F
100
AcDbEntity
  8
10
100
AcDbLine
 10
1231.884401831816
 20
264.4684462146333
 30
0.0
 11
1231.884401831816
 21
280.9684462146333
 31
0.0
  0
LINE
  5
13B3
330
1F
100
AcDbEntity
  8
10
100
AcDbLine
 10
1223.884401831816
 20
280.9684462146333
 30
0.0
 11
1224.787928777668
 21
282.5334007908572
 31
0.0
  0
LINE
  5
13B4
330
1F
100
AcDbEntity
  8
10
100
AcDbLine
 10
1230.980874885963
 20
282.5334007908572
 30
0.0
 11
1224.787928777668
 21
282.5334007908572
 31
0.0
  0
LINE
  5
13B5
330
1F
100
AcDbEntity
  8
10
100
AcDbLine
 10
1231.884401831816
 20
280.9684462146333
 30
0.0
 11
1230.980874885963
 21
282.5334007908572
 31
0.0
  0
ARC
  5
13B6
330
1F
100
AcDbEntity
  8
10
100
AcDbCircle
 10
1225.249946115577
 20
280.9684462146333
 30
0.0
 40
6.634455716238125
100
AcDbArc
 50
329.7474349363718
 51
0.0
  0
ARC
  5
13B7
330
1F
100
AcDbEntity
  8
10
100
AcDbCircle
 10
1218.105236534356
 20
272.7184462146333
 30
0.0
 40
13.77916529745972
100
AcDbArc
 50
339.1359356360888
 51
20.86406436391107
  0
ARC
  5
13B8
330
1F
100
AcDbEntity
  8
10
100
AcDbCircle
 10
1230.518857548054
 20
264.4684462146333
 30
0.0
 40
6.634455716238125
100
AcDbArc
 50
149.747434936372
 51
180.0
  0
LINE
  5
13B9
330
1F
100
AcDbEntity
  8
10
100
AcDbLine
 10
1223.884401831816
 20
264.4684462146333
 30
0.0
 11
1224.787928777668
 21
262.9034916384103
 31
0.0
  0
LINE
  5
13BA
330
1F
100
AcDbEntity
  8
10
100
AcDbLine
 10
1230.980874885963
 20
262.9034916384103
 30
0.0
 11
1224.787928777668
 21
262.9034916384103
 31
0.0
  0
ARC
  5
13BB
330
1F
100
AcDbEntity
  8
10
100
AcDbCircle
 10
1225.249946115577
 20
264.4684462146333
 30
0.0
 40
6.634455716238125
100
AcDbArc
 50
0.0
 51
30.25256506362783
  0
LINE
  5
13BC
330
1F
100
AcDbEntity
  8
10
100
AcDbLine
 10
1231.884401831816
 20
264.4684462146333
 30
0.0
 11
1230.980874885963
 21
262.9034916384103
 31
0.0
  0
LINE
  5
13BD
330
1F
100
AcDbEntity
  8
10
100
AcDbLine
 10
1223.884401831816
 20
264.4684462146333
 30
0.0
 11
1223.884401831816
 21
280.9684462146333
 31
0.0
  0
LINE
  5
13BE
330
1F
100
AcDbEntity
  8
10
100
AcDbLine
 10
1230.980874885963
 20
267.8109689265211
 30
0.0
 11
1224.787928777668
 21
267.8109689265211
 31
0.0
  0
ARC
  5
13BF
330
1F
100
AcDbEntity
  8
10
100
AcDbCircle
 10
1237.663567129275
 20
272.7184462146333
 30
0.0
 40
13.77916529745972
100
AcDbArc
 50
159.1359356360888
 51
200.864064363911
  0
ARC
  5
13C0
330
1F
100
AcDbEntity
  8
10
100
AcDbCircle
 10
1230.518857548054
 20
280.9684462146333
 30
0.0
 40
6.634455716238125
100
AcDbArc
 50
180.0
 51
210.2525650636278
  0
LINE
  5
13C1
330
1F
100
AcDbEntity
  8
10
100
AcDbLine
 10
1230.980874885963
 20
277.625923502745
 30
0.0
 11
1224.787928777668
 21
277.625923502745
 31
0.0
  0
LINE
  5
13C2
330
1F
100
AcDbEntity
  8
10
100
AcDbLine
 10
1223.884401831816
 20
263.5184462146333
 30
0.0
 11
1221.384401831816
 21
263.5184462146333
 31
0.0
  0
LINE
  5
13C3
330
1F
100
AcDbEntity
  8
10
100
AcDbLine
 10
1223.884401831816
 20
263.5184462146333
 30
0.0
 11
1223.884401831816
 21
281.9184462146336
 31
0.0
  0
LINE
  5
13C4
330
1F
100
AcDbEntity
  8
10
100
AcDbLine
 10
1221.384401831816
 20
263.5184462146333
 30
0.0
 11
1221.384401831815
 21
281.9184462146336
 31
0.0
  0
LINE
  5
13C5
330
1F
100
AcDbEntity
  8
10
100
AcDbLine
 10
1223.884401831816
 20
281.9184462146336
 30
0.0
 11
1221.384401831816
 21
281.9184462146336
 31
0.0
  0
LINE
  5
13C6
330
1F
100
AcDbEntity
  8
10
100
AcDbLine
 10
888.8844018318152
 20
264.4684462146333
 30
0.0
 11
888.8844018318152
 21
280.9684462146333
 31
0.0
  0
LINE
  5
13C7
330
1F
100
AcDbEntity
  8
10
100
AcDbLine
 10
880.8844018318152
 20
280.9684462146333
 30
0.0
 11
881.7879287776673
 21
282.5334007908572
 31
0.0
  0
LINE
  5
13C8
330
1F
100
AcDbEntity
  8
10
100
AcDbLine
 10
887.9808748859645
 20
282.5334007908572
 30
0.0
 11
881.7879287776673
 21
282.5334007908572
 31
0.0
  0
LINE
  5
13C9
330
1F
100
AcDbEntity
  8
10
100
AcDbLine
 10
888.8844018318152
 20
280.9684462146333
 30
0.0
 11
887.9808748859645
 21
282.5334007908572
 31
0.0
  0
LINE
  5
13CA
330
1F
100
AcDbEntity
  8
10
100
AcDbLine
 10
887.9808748859645
 20
277.625923502745
 30
0.0
 11
881.7879287776673
 21
277.625923502745
 31
0.0
  0
ARC
  5
13CB
330
1F
100
AcDbEntity
  8
10
100
AcDbCircle
 10
887.5188575480541
 20
280.9684462146333
 30
0.0
 40
6.634455716238125
100
AcDbArc
 50
180.0
 51
210.2525650636278
  0
ARC
  5
13CC
330
1F
100
AcDbEntity
  8
10
100
AcDbCircle
 10
882.2499461155771
 20
280.9684462146333
 30
0.0
 40
6.634455716238125
100
AcDbArc
 50
329.7474349363718
 51
0.0
  0
ARC
  5
13CD
330
1F
100
AcDbEntity
  8
10
100
AcDbCircle
 10
875.1052365343563
 20
272.7184462146333
 30
0.0
 40
13.77916529745972
100
AcDbArc
 50
339.1359356360888
 51
20.86406436391107
  0
ARC
  5
13CE
330
1F
100
AcDbEntity
  8
10
100
AcDbCircle
 10
894.6635671292751
 20
272.7184462146333
 30
0.0
 40
13.77916529745972
100
AcDbArc
 50
159.1359356360888
 51
200.864064363911
  0
ARC
  5
13CF
330
1F
100
AcDbEntity
  8
10
100
AcDbCircle
 10
887.5188575480541
 20
264.4684462146333
 30
0.0
 40
6.634455716238125
100
AcDbArc
 50
149.747434936372
 51
180.0
  0
LINE
  5
13D0
330
1F
100
AcDbEntity
  8
10
100
AcDbLine
 10
880.8844018318152
 20
264.4684462146333
 30
0.0
 11
881.7879287776673
 21
262.9034916384103
 31
0.0
  0
LINE
  5
13D1
330
1F
100
AcDbEntity
  8
10
100
AcDbLine
 10
887.9808748859645
 20
262.9034916384103
 30
0.0
 11
881.7879287776673
 21
262.9034916384103
 31
0.0
  0
ARC
  5
13D2
330
1F
100
AcDbEntity
  8
10
100
AcDbCircle
 10
882.2499461155771
 20
264.4684462146333
 30
0.0
 40
6.634455716238125
100
AcDbArc
 50
0.0
 51
30.25256506362783
  0
LINE
  5
13D3
330
1F
100
AcDbEntity
  8
10
100
AcDbLine
 10
888.8844018318152
 20
264.4684462146333
 30
0.0
 11
887.9808748859645
 21
262.9034916384103
 31
0.0
  0
LINE
  5
13D4
330
1F
100
AcDbEntity
  8
10
100
AcDbLine
 10
880.8844018318152
 20
264.4684462146333
 30
0.0
 11
880.8844018318152
 21
280.9684462146333
 31
0.0
  0
LINE
  5
13D5
330
1F
100
AcDbEntity
  8
10
100
AcDbLine
 10
887.9808748859645
 20
267.8109689265211
 30
0.0
 11
881.7879287776673
 21
267.8109689265211
 31
0.0
  0
LINE
  5
13D6
330
1F
100
AcDbEntity
  8
10
100
AcDbLine
 10
891.3844018318162
 20
263.5184462146333
 30
0.0
 11
888.8844018318163
 21
263.5184462146333
 31
0.0
  0
LINE
  5
13D7
330
1F
100
AcDbEntity
  8
10
100
AcDbLine
 10
891.3844018318162
 20
263.5184462146339
 30
0.0
 11
891.3844018318162
 21
281.918446214634
 31
0.0
  0
LINE
  5
13D8
330
1F
100
AcDbEntity
  8
10
100
AcDbLine
 10
891.3844018318162
 20
281.918446214634
 30
0.0
 11
888.8844018318163
 21
281.918446214634
 31
0.0
  0
LINE
  5
13D9
330
1F
100
AcDbEntity
  8
10
100
AcDbLine
 10
888.8844018318163
 20
263.5184462146333
 30
0.0
 11
888.8844018318152
 21
281.918446214634
 31
0.0
  0
LINE
  5
13DA
330
1F
100
AcDbEntity
  8
10
100
AcDbLine
 10
1222.384401831815
 20
81.21844621463287
 30
0.0
 11
1222.240064264518
 21
81.21844621463287
 31
0.0
  0
ARC
  5
13DB
330
1F
100
AcDbEntity
  8
10
100
AcDbCircle
 10
1220.634401831815
 20
87.85290193087211
 30
0.0
 40
6.634455716238125
100
AcDbArc
 50
296.5569756499283
 51
300.2525650636208
  0
ARC
  5
13DC
330
1F
100
AcDbEntity
  8
10
100
AcDbCircle
 10
1228.884401831815
 20
94.99761151209304
 30
0.0
 40
13.77916529745972
100
AcDbArc
 50
253.124480964324
 51
254.9318680966595
  0
LINE
  5
13DD
330
1F
100
AcDbEntity
  8
10
100
AcDbLine
 10
1225.028739399114
 20
81.21844621463287
 30
0.0
 11
1224.884401831816
 21
81.21844621463287
 31
0.0
  0
ARC
  5
13DE
330
1F
100
AcDbEntity
  8
10
100
AcDbCircle
 10
1228.884401831815
 20
94.99761151209304
 30
0.0
 40
13.77916529745972
100
AcDbArc
 50
285.0681319033403
 51
290.8640643639165
  0
ARC
  5
13DF
330
1F
100
AcDbEntity
  8
10
100
AcDbCircle
 10
892.1344018318173
 20
87.85290193087211
 30
0.0
 40
6.634455716238125
100
AcDbArc
 50
254.7058560380455
 51
256.8822430435584
  0
ARC
  5
13E0
330
1F
100
AcDbEntity
  8
10
100
AcDbCircle
 10
883.8844018318173
 20
94.99761151209304
 30
0.0
 40
13.77916529745972
100
AcDbArc
 50
288.3413426459303
 51
290.8640643639165
  0
ARC
  5
13E1
330
1F
100
AcDbEntity
  8
10
100
AcDbCircle
 10
883.8844018318173
 20
94.99761151209304
 30
0.0
 40
13.77916529745972
100
AcDbArc
 50
285.0681319033403
 51
286.875519035676
  0
LINE
  5
13E2
330
1F
100
AcDbEntity
  8
10
100
AcDbLine
 10
890.3844018318164
 20
81.21844621463287
 30
0.0
 11
890.5287393991132
 21
81.21844621463194
 31
0.0
  0
LINE
  5
13E3
330
1F
100
AcDbEntity
  8
10
100
AcDbLine
 10
890.3844018318164
 20
80.96844621463423
 30
0.0
 11
891.2879287776682
 21
82.53340079085729
 31
0.0
  0
LINE
  5
13E4
330
1F
100
AcDbEntity
  8
10
100
AcDbLine
 10
897.4808748859642
 20
82.53340079085729
 30
0.0
 11
891.2879287776682
 21
82.53340079085729
 31
0.0
  0
LINE
  5
13E5
330
1F
100
AcDbEntity
  8
10
100
AcDbLine
 10
898.3844018318164
 20
80.96844621463423
 30
0.0
 11
897.4808748859642
 21
82.53340079085729
 31
0.0
  0
LINE
  5
13E6
330
1F
100
AcDbEntity
  8
10
100
AcDbLine
 10
897.4808748859642
 20
77.62592350274508
 30
0.0
 11
891.2879287776682
 21
77.62592350274508
 31
0.0
  0
ARC
  5
13E7
330
1F
100
AcDbEntity
  8
10
100
AcDbCircle
 10
897.0188575480541
 20
80.96844621463423
 30
0.0
 40
6.634455716238125
100
AcDbArc
 50
180.0
 51
210.2525650636278
  0
ARC
  5
13E8
330
1F
100
AcDbEntity
  8
10
100
AcDbCircle
 10
891.7499461155781
 20
80.96844621463423
 30
0.0
 40
6.634455716238125
100
AcDbArc
 50
329.7474349363718
 51
0.0
  0
LINE
  5
13E9
330
1F
100
AcDbEntity
  8
10
100
AcDbLine
 10
890.3844018318164
 20
64.46844621463424
 30
0.0
 11
891.2879287776682
 21
62.90349163841028
 31
0.0
  0
LINE
  5
13EA
330
1F
100
AcDbEntity
  8
10
100
AcDbLine
 10
897.4808748859642
 20
62.90349163841028
 30
0.0
 11
891.2879287776682
 21
62.90349163841028
 31
0.0
  0
LINE
  5
13EB
330
1F
100
AcDbEntity
  8
10
100
AcDbLine
 10
898.3844018318164
 20
64.46844621463424
 30
0.0
 11
897.4808748859642
 21
62.90349163841028
 31
0.0
  0
LINE
  5
13EC
330
1F
100
AcDbEntity
  8
10
100
AcDbLine
 10
879.8844018318161
 20
80.96844621463423
 30
0.0
 11
880.7879287776684
 21
82.53340079085729
 31
0.0
  0
LINE
  5
13ED
330
1F
100
AcDbEntity
  8
10
100
AcDbLine
 10
886.9808748859632
 20
82.53340079085729
 30
0.0
 11
880.7879287776684
 21
82.53340079085729
 31
0.0
  0
LINE
  5
13EE
330
1F
100
AcDbEntity
  8
10
100
AcDbLine
 10
887.8844018318162
 20
80.96844621463423
 30
0.0
 11
886.9808748859632
 21
82.53340079085729
 31
0.0
  0
LINE
  5
13EF
330
1F
100
AcDbEntity
  8
10
100
AcDbLine
 10
886.9808748859632
 20
77.62592350274508
 30
0.0
 11
880.7879287776684
 21
77.62592350274508
 31
0.0
  0
ARC
  5
13F0
330
1F
100
AcDbEntity
  8
10
100
AcDbCircle
 10
886.5188575480541
 20
80.96844621463423
 30
0.0
 40
6.634455716238125
100
AcDbArc
 50
180.0
 51
210.2525650636278
  0
ARC
  5
13F1
330
1F
100
AcDbEntity
  8
10
100
AcDbCircle
 10
881.2499461155772
 20
80.96844621463423
 30
0.0
 40
6.634455716238125
100
AcDbArc
 50
329.7474349363718
 51
0.0
  0
ARC
  5
13F2
330
1F
100
AcDbEntity
  8
10
100
AcDbCircle
 10
893.663567129275
 20
72.71844621463424
 30
0.0
 40
13.77916529745972
100
AcDbArc
 50
159.1359356360888
 51
200.864064363911
  0
ARC
  5
13F3
330
1F
100
AcDbEntity
  8
10
100
AcDbCircle
 10
886.5188575480541
 20
64.46844621463424
 30
0.0
 40
6.634455716238125
100
AcDbArc
 50
149.747434936372
 51
180.0
  0
LINE
  5
13F4
330
1F
100
AcDbEntity
  8
10
100
AcDbLine
 10
879.8844018318161
 20
64.46844621463424
 30
0.0
 11
880.7879287776684
 21
62.90349163841028
 31
0.0
  0
LINE
  5
13F5
330
1F
100
AcDbEntity
  8
10
100
AcDbLine
 10
886.9808748859632
 20
62.90349163841028
 30
0.0
 11
880.7879287776684
 21
62.90349163841028
 31
0.0
  0
LINE
  5
13F6
330
1F
100
AcDbEntity
  8
10
100
AcDbLine
 10
887.8844018318162
 20
64.46844621463424
 30
0.0
 11
886.9808748859632
 21
62.90349163841028
 31
0.0
  0
LINE
  5
13F7
330
1F
100
AcDbEntity
  8
10
100
AcDbLine
 10
879.8844018318161
 20
64.46844621463424
 30
0.0
 11
879.8844018318161
 21
80.96844621463423
 31
0.0
  0
LINE
  5
13F8
330
1F
100
AcDbEntity
  8
10
100
AcDbLine
 10
890.3844018318164
 20
63.51844621463442
 30
0.0
 11
887.8844018318162
 21
63.51844621463442
 31
0.0
  0
LINE
  5
13F9
330
1F
100
AcDbEntity
  8
10
100
AcDbLine
 10
890.3844018318164
 20
81.91844621463451
 30
0.0
 11
887.8844018318162
 21
81.91844621463451
 31
0.0
  0
LINE
  5
13FA
330
1F
100
AcDbEntity
  8
10
100
AcDbLine
 10
890.3844018318164
 20
63.51844621463442
 30
0.0
 11
890.3844018318164
 21
81.91844621463451
 31
0.0
  0
ARC
  5
13FB
330
1F
100
AcDbEntity
  8
10
100
AcDbCircle
 10
904.1635671292759
 20
72.71844621463424
 30
0.0
 40
13.77916529745972
100
AcDbArc
 50
159.1359356360888
 51
200.864064363911
  0
LINE
  5
13FC
330
1F
100
AcDbEntity
  8
10
100
AcDbLine
 10
890.3844018318164
 20
64.46844621463424
 30
0.0
 11
890.3844018318164
 21
80.96844621463423
 31
0.0
  0
LINE
  5
13FD
330
1F
100
AcDbEntity
  8
10
100
AcDbLine
 10
897.4808748859642
 20
67.81096892652204
 30
0.0
 11
891.2879287776682
 21
67.81096892652204
 31
0.0
  0
ARC
  5
13FE
330
1F
100
AcDbEntity
  8
10
100
AcDbCircle
 10
891.7499461155781
 20
64.46844621463424
 30
0.0
 40
6.634455716238125
100
AcDbArc
 50
0.0
 51
30.25256506362783
  0
ARC
  5
13FF
330
1F
100
AcDbEntity
  8
10
100
AcDbCircle
 10
897.0188575480541
 20
64.46844621463424
 30
0.0
 40
6.634455716238125
100
AcDbArc
 50
149.747434936372
 51
180.0
  0
ARC
  5
1400
330
1F
100
AcDbEntity
  8
10
100
AcDbCircle
 10
884.6052365343561
 20
72.71844621463424
 30
0.0
 40
13.77916529745972
100
AcDbArc
 50
339.1359356360888
 51
20.86406436391107
  0
LINE
  5
1401
330
1F
100
AcDbEntity
  8
10
100
AcDbLine
 10
898.3844018318164
 20
64.46844621463424
 30
0.0
 11
898.3844018318164
 21
80.96844621463423
 31
0.0
  0
LINE
  5
1402
330
1F
100
AcDbEntity
  8
10
100
AcDbLine
 10
886.9808748859632
 20
67.81096892652204
 30
0.0
 11
880.7879287776684
 21
67.81096892652204
 31
0.0
  0
ARC
  5
1403
330
1F
100
AcDbEntity
  8
10
100
AcDbCircle
 10
881.2499461155772
 20
64.46844621463424
 30
0.0
 40
6.634455716238125
100
AcDbArc
 50
0.0
 51
30.25256506362783
  0
ARC
  5
1404
330
1F
100
AcDbEntity
  8
10
100
AcDbCircle
 10
874.1052365343561
 20
72.71844621463424
 30
0.0
 40
13.77916529745972
100
AcDbArc
 50
339.1359356360888
 51
20.86406436391107
  0
LINE
  5
1405
330
1F
100
AcDbEntity
  8
10
100
AcDbLine
 10
887.8844018318162
 20
64.46844621463424
 30
0.0
 11
887.8844018318162
 21
80.96844621463423
 31
0.0
  0
LINE
  5
1406
330
1F
100
AcDbEntity
  8
10
100
AcDbLine
 10
887.8844018318162
 20
63.51844621463442
 30
0.0
 11
887.8844018318162
 21
81.91844621463451
 31
0.0
  0
LINE
  5
1407
330
1F
100
AcDbEntity
  8
10
100
AcDbLine
 10
1224.884401831816
 20
81.91844621463451
 30
0.0
 11
1222.384401831815
 21
81.91844621463451
 31
0.0
  0
LINE
  5
1408
330
1F
100
AcDbEntity
  8
10
100
AcDbLine
 10
1222.384401831815
 20
63.51844621463442
 30
0.0
 11
1222.384401831815
 21
81.91844621463451
 31
0.0
  0
LINE
  5
1409
330
1F
100
AcDbEntity
  8
10
100
AcDbLine
 10
1232.884401831816
 20
64.46844621463424
 30
0.0
 11
1232.884401831816
 21
80.96844621463288
 31
0.0
  0
LINE
  5
140A
330
1F
100
AcDbEntity
  8
10
100
AcDbLine
 10
1224.884401831816
 20
80.96844621463288
 30
0.0
 11
1225.787928777669
 21
82.53340079085729
 31
0.0
  0
LINE
  5
140B
330
1F
100
AcDbEntity
  8
10
100
AcDbLine
 10
1231.980874885964
 20
82.53340079085729
 30
0.0
 11
1225.787928777669
 21
82.53340079085729
 31
0.0
  0
LINE
  5
140C
330
1F
100
AcDbEntity
  8
10
100
AcDbLine
 10
1232.884401831816
 20
80.96844621463288
 30
0.0
 11
1231.980874885964
 21
82.53340079085729
 31
0.0
  0
LINE
  5
140D
330
1F
100
AcDbEntity
  8
10
100
AcDbLine
 10
1231.980874885964
 20
77.62592350274508
 30
0.0
 11
1225.787928777669
 21
77.62592350274508
 31
0.0
  0
ARC
  5
140E
330
1F
100
AcDbEntity
  8
10
100
AcDbCircle
 10
1231.518857548054
 20
80.96844621463288
 30
0.0
 40
6.634455716238125
100
AcDbArc
 50
180.0
 51
210.2525650636278
  0
ARC
  5
140F
330
1F
100
AcDbEntity
  8
10
100
AcDbCircle
 10
1226.249946115578
 20
80.96844621463288
 30
0.0
 40
6.634455716238125
100
AcDbArc
 50
329.7474349363718
 51
0.0
  0
ARC
  5
1410
330
1F
100
AcDbEntity
  8
10
100
AcDbCircle
 10
1219.105236534357
 20
72.71844621463424
 30
0.0
 40
13.77916529745972
100
AcDbArc
 50
339.1359356360888
 51
20.86406436391107
  0
LINE
  5
1411
330
1F
100
AcDbEntity
  8
10
100
AcDbLine
 10
1231.980874885964
 20
62.90349163840939
 30
0.0
 11
1225.787928777669
 21
62.90349163840939
 31
0.0
  0
ARC
  5
1412
330
1F
100
AcDbEntity
  8
10
100
AcDbCircle
 10
1226.249946115578
 20
64.46844621463424
 30
0.0
 40
6.634455716238125
100
AcDbArc
 50
0.0
 51
30.25256506362783
  0
LINE
  5
1413
330
1F
100
AcDbEntity
  8
10
100
AcDbLine
 10
1232.884401831816
 20
64.46844621463424
 30
0.0
 11
1231.980874885964
 21
62.90349163840939
 31
0.0
  0
LINE
  5
1414
330
1F
100
AcDbEntity
  8
10
100
AcDbLine
 10
1224.884401831816
 20
63.51844621463442
 30
0.0
 11
1222.384401831815
 21
63.51844621463442
 31
0.0
  0
LINE
  5
1415
330
1F
100
AcDbEntity
  8
10
100
AcDbLine
 10
1224.884401831816
 20
63.51844621463442
 30
0.0
 11
1224.884401831816
 21
81.91844621463451
 31
0.0
  0
ARC
  5
1416
330
1F
100
AcDbEntity
  8
10
100
AcDbCircle
 10
1238.663567129274
 20
72.71844621463424
 30
0.0
 40
13.77916529745972
100
AcDbArc
 50
159.1359356360888
 51
200.864064363911
  0
LINE
  5
1417
330
1F
100
AcDbEntity
  8
10
100
AcDbLine
 10
1224.884401831816
 20
64.46844621463424
 30
0.0
 11
1224.884401831816
 21
80.96844621463288
 31
0.0
  0
LINE
  5
1418
330
1F
100
AcDbEntity
  8
10
100
AcDbLine
 10
1231.980874885964
 20
67.81096892652112
 30
0.0
 11
1225.787928777669
 21
67.81096892652112
 31
0.0
  0
LINE
  5
1419
330
1F
100
AcDbEntity
  8
10
100
AcDbLine
 10
1224.884401831816
 20
64.46844621463424
 30
0.0
 11
1225.787928777669
 21
62.90349163840939
 31
0.0
  0
ARC
  5
141A
330
1F
100
AcDbEntity
  8
10
100
AcDbCircle
 10
1231.518857548054
 20
64.46844621463424
 30
0.0
 40
6.634455716238125
100
AcDbArc
 50
149.747434936372
 51
180.0
  0
LINE
  5
141B
330
1F
100
AcDbEntity
  8
10
100
AcDbLine
 10
1222.384401831815
 20
64.46844621463424
 30
0.0
 11
1222.384401831815
 21
80.96844621463288
 31
0.0
  0
LINE
  5
141C
330
1F
100
AcDbEntity
  8
10
100
AcDbLine
 10
1214.384401831815
 20
80.96844621463288
 30
0.0
 11
1215.287928777668
 21
82.53340079085729
 31
0.0
  0
LINE
  5
141D
330
1F
100
AcDbEntity
  8
10
100
AcDbLine
 10
1221.480874885964
 20
82.53340079085729
 30
0.0
 11
1215.287928777668
 21
82.53340079085729
 31
0.0
  0
LINE
  5
141E
330
1F
100
AcDbEntity
  8
10
100
AcDbLine
 10
1222.384401831815
 20
80.96844621463288
 30
0.0
 11
1221.480874885964
 21
82.53340079085729
 31
0.0
  0
LINE
  5
141F
330
1F
100
AcDbEntity
  8
10
100
AcDbLine
 10
1221.480874885964
 20
77.62592350274508
 30
0.0
 11
1215.287928777668
 21
77.62592350274508
 31
0.0
  0
ARC
  5
1420
330
1F
100
AcDbEntity
  8
10
100
AcDbCircle
 10
1221.018857548054
 20
80.96844621463288
 30
0.0
 40
6.634455716238125
100
AcDbArc
 50
180.0
 51
210.2525650636278
  0
ARC
  5
1421
330
1F
100
AcDbEntity
  8
10
100
AcDbCircle
 10
1215.749946115578
 20
80.96844621463288
 30
0.0
 40
6.634455716238125
100
AcDbArc
 50
329.7474349363718
 51
0.0
  0
ARC
  5
1422
330
1F
100
AcDbEntity
  8
10
100
AcDbCircle
 10
1208.605236534356
 20
72.71844621463424
 30
0.0
 40
13.77916529745972
100
AcDbArc
 50
339.1359356360888
 51
20.86406436391107
  0
ARC
  5
1423
330
1F
100
AcDbEntity
  8
10
100
AcDbCircle
 10
1228.163567129276
 20
72.71844621463424
 30
0.0
 40
13.77916529745972
100
AcDbArc
 50
159.1359356360888
 51
200.864064363911
  0
ARC
  5
1424
330
1F
100
AcDbEntity
  8
10
100
AcDbCircle
 10
1221.018857548054
 20
64.46844621463424
 30
0.0
 40
6.634455716238125
100
AcDbArc
 50
149.747434936372
 51
180.0
  0
ARC
  5
1425
330
1F
100
AcDbEntity
  8
10
100
AcDbCircle
 10
1215.749946115578
 20
64.46844621463424
 30
0.0
 40
6.634455716238125
100
AcDbArc
 50
0.0
 51
30.25256506362783
  0
LINE
  5
1426
330
1F
100
AcDbEntity
  8
10
100
AcDbLine
 10
1222.384401831815
 20
64.46844621463424
 30
0.0
 11
1221.480874885964
 21
62.90349163840939
 31
0.0
  0
LINE
  5
1427
330
1F
100
AcDbEntity
  8
10
100
AcDbLine
 10
1214.384401831815
 20
64.46844621463424
 30
0.0
 11
1214.384401831815
 21
80.96844621463288
 31
0.0
  0
LINE
  5
1428
330
1F
100
AcDbEntity
  8
10
100
AcDbLine
 10
1221.480874885964
 20
67.81096892652112
 30
0.0
 11
1215.287928777668
 21
67.81096892652112
 31
0.0
  0
LINE
  5
1429
330
1F
100
AcDbEntity
  8
10
100
AcDbLine
 10
1214.384401831815
 20
64.46844621463424
 30
0.0
 11
1215.287928777668
 21
62.90349163840939
 31
0.0
  0
LINE
  5
142A
330
1F
100
AcDbEntity
  8
10
100
AcDbLine
 10
1221.480874885964
 20
62.90349163840939
 30
0.0
 11
1215.287928777668
 21
62.90349163840939
 31
0.0
  0
LINE
  5
142B
330
1F
100
AcDbEntity
  8
10
100
AcDbLine
 10
1203.884401831815
 20
32.71844621463287
 30
0.0
 11
1203.884401831815
 21
14.71844621463286
 31
0.0
  0
LINE
  5
142C
330
1F
100
AcDbEntity
  8
10
100
AcDbLine
 10
1203.884401831815
 20
14.71844621463286
 30
0.0
 11
1202.284401831816
 21
14.71844621463286
 31
0.0
  0
LINE
  5
142D
330
1F
100
AcDbEntity
  8
10
100
AcDbLine
 10
1202.284401831816
 20
32.71844621463287
 30
0.0
 11
1202.284401831816
 21
14.71844621463286
 31
0.0
  0
LINE
  5
142E
330
1F
100
AcDbEntity
  8
10
100
AcDbLine
 10
1203.884401831815
 20
32.71844621463287
 30
0.0
 11
1202.284401831816
 21
32.71844621463287
 31
0.0
  0
LINE
  5
142F
330
1F
100
AcDbEntity
  8
10
100
AcDbLine
 10
1209.884401831815
 20
32.71844621463287
 30
0.0
 11
1209.884401831815
 21
14.71844621463286
 31
0.0
  0
LINE
  5
1430
330
1F
100
AcDbEntity
  8
10
100
AcDbLine
 10
1211.484401831815
 20
32.71844621463287
 30
0.0
 11
1209.884401831815
 21
32.71844621463287
 31
0.0
  0
LINE
  5
1431
330
1F
100
AcDbEntity
  8
10
100
AcDbLine
 10
1211.484401831815
 20
14.71844621463286
 30
0.0
 11
1209.884401831815
 21
14.71844621463286
 31
0.0
  0
LINE
  5
1432
330
1F
100
AcDbEntity
  8
10
100
AcDbLine
 10
1211.484401831815
 20
32.71844621463287
 30
0.0
 11
1211.484401831815
 21
14.71844621463286
 31
0.0
  0
LINE
  5
1433
330
1F
100
AcDbEntity
  8
10
100
AcDbLine
 10
1211.484401831815
 20
30.96844621463423
 30
0.0
 11
1213.484401831815
 21
30.96844621463423
 31
0.0
  0
LINE
  5
1434
330
1F
100
AcDbEntity
  8
10
100
AcDbLine
 10
1211.484401831815
 20
23.44290361868523
 30
0.0
 11
1213.484401831815
 21
25.44290361868525
 31
0.0
  0
LINE
  5
1435
330
1F
100
AcDbEntity
  8
10
100
AcDbLine
 10
1213.484401831815
 20
24.06157577886688
 30
0.0
 11
1211.484401831815
 21
22.06157577886687
 31
0.0
  0
LINE
  5
1436
330
1F
100
AcDbEntity
  8
10
100
AcDbLine
 10
1213.484401831815
 20
30.96844621463423
 30
0.0
 11
1213.484401831815
 21
16.46844621463424
 31
0.0
  0
LINE
  5
1437
330
1F
100
AcDbEntity
  8
10
100
AcDbLine
 10
1211.484401831815
 20
16.46844621463424
 30
0.0
 11
1213.484401831815
 21
16.46844621463424
 31
0.0
  0
LINE
  5
1438
330
1F
100
AcDbEntity
  8
10
100
AcDbLine
 10
1221.984401831814
 20
16.46844621463424
 30
0.0
 11
1221.984401831814
 21
30.96844621463423
 31
0.0
  0
LINE
  5
1439
330
1F
100
AcDbEntity
  8
10
100
AcDbLine
 10
1219.984401831815
 20
23.37531665040021
 30
0.0
 11
1221.984401831814
 21
25.37531665040023
 31
0.0
  0
LINE
  5
143A
330
1F
100
AcDbEntity
  8
10
100
AcDbLine
 10
1221.984401831814
 20
16.46844621463424
 30
0.0
 11
1219.984401831815
 21
16.46844621463424
 31
0.0
  0
LINE
  5
143B
330
1F
100
AcDbEntity
  8
10
100
AcDbLine
 10
1221.984401831814
 20
30.96844621463423
 30
0.0
 11
1219.984401831815
 21
30.96844621463423
 31
0.0
  0
LINE
  5
143C
330
1F
100
AcDbEntity
  8
10
100
AcDbLine
 10
1219.984401831815
 20
16.46844621463424
 30
0.0
 11
1219.984401831815
 21
30.96844621463423
 31
0.0
  0
LINE
  5
143D
330
1F
100
AcDbEntity
  8
10
100
AcDbLine
 10
1221.984401831814
 20
23.9939888105823
 30
0.0
 11
1219.984401831815
 21
21.99398881058141
 31
0.0
  0
LINE
  5
143E
330
1F
100
AcDbEntity
  8
10
 48
2.0
100
AcDbLine
 10
376.7911525721653
 20
5.718446214632876
 30
0.0
 11
376.7911525721653
 21
-0.2815537853657588
 31
0.0
  0
LINE
  5
143F
330
1F
100
AcDbEntity
  8
10
 48
2.0
100
AcDbLine
 10
391.7911525721653
 20
5.718446214632876
 30
0.0
 11
391.7911525721653
 21
-0.2815537853657588
 31
0.0
  0
LINE
  5
1440
330
1F
100
AcDbEntity
  8
12
 48
2.0
100
AcDbLine
 10
384.2911525721654
 20
15.71844621463424
 30
0.0
 11
384.2911525721654
 21
-10.28155378536711
 31
0.0
  0
LINE
  5
1441
330
1F
100
AcDbEntity
  8
10
 48
2.0
100
AcDbLine
 10
76.7911525721654
 20
5.718446214632876
 30
0.0
 11
76.7911525721654
 21
-0.2815537853657588
 31
0.0
  0
LINE
  5
1442
330
1F
100
AcDbEntity
  8
10
 48
2.0
100
AcDbLine
 10
91.79115257216542
 20
5.718446214632876
 30
0.0
 11
91.79115257216542
 21
-0.2815537853657588
 31
0.0
  0
LINE
  5
1443
330
1F
100
AcDbEntity
  8
12
 48
2.0
100
AcDbLine
 10
84.2911525721654
 20
15.71844621463424
 30
0.0
 11
84.2911525721654
 21
-10.28155378536711
 31
0.0
  0
LINE
  5
1444
330
1F
100
AcDbEntity
  8
10
100
AcDbLine
 10
459.2911525721663
 20
5.718446214632876
 30
0.0
 11
333.2911525721653
 21
5.718446214632876
 31
0.0
  0
LINE
  5
1445
330
1F
100
AcDbEntity
  8
10
100
AcDbLine
 10
135.291152572165
 20
5.718446214632876
 30
0.0
 11
9.291152572165401
 21
5.718446214632876
 31
0.0
  0
LINE
  5
1446
330
1F
100
AcDbEntity
  8
10
100
AcDbLine
 10
351.7911525721653
 20
103.2184462146325
 30
0.0
 11
351.7911525721653
 21
99.71844621463288
 31
0.0
  0
LINE
  5
1447
330
1F
100
AcDbEntity
  8
10
100
AcDbLine
 10
416.7911525721653
 20
103.2184462146325
 30
0.0
 11
416.7911525721653
 21
99.71844621463288
 31
0.0
  0
LINE
  5
1448
330
1F
100
AcDbEntity
  8
10
100
AcDbLine
 10
116.7911525721654
 20
103.2184462146325
 30
0.0
 11
116.7911525721654
 21
99.71844621463288
 31
0.0
  0
LINE
  5
1449
330
1F
100
AcDbEntity
  8
10
100
AcDbLine
 10
51.79115257216539
 20
103.2184462146325
 30
0.0
 11
51.79115257216539
 21
99.71844621463288
 31
0.0
  0
LINE
  5
144A
330
1F
100
AcDbEntity
  8
10
100
AcDbLine
 10
201.7911525721653
 20
103.2184462146325
 30
0.0
 11
201.7911525721653
 21
99.71844621463288
 31
0.0
  0
LINE
  5
144B
330
1F
100
AcDbEntity
  8
10
100
AcDbLine
 10
266.7911525721653
 20
103.2184462146325
 30
0.0
 11
266.7911525721653
 21
99.71844621463288
 31
0.0
  0
LINE
  5
144C
330
1F
100
AcDbEntity
  8
10
100
AcDbLine
 10
421.7911525721651
 20
103.2184462146325
 30
0.0
 11
46.79115257216539
 21
103.2184462146325
 31
0.0
  0
LINE
  5
144D
330
1F
100
AcDbEntity
  8
10
100
AcDbLine
 10
418.7911525721654
 20
103.2184462146325
 30
0.0
 11
418.7911525721654
 21
99.71844621463288
 31
0.0
  0
LINE
  5
144E
330
1F
100
AcDbEntity
  8
10
100
AcDbLine
 10
49.79115257216539
 20
103.2184462146325
 30
0.0
 11
49.79115257216539
 21
99.71844621463288
 31
0.0
  0
LINE
  5
144F
330
1F
100
AcDbEntity
  8
10
100
AcDbLine
 10
9.291152572165401
 20
93.71844621463287
 30
0.0
 11
459.2911525721663
 21
93.71844621463287
 31
0.0
  0
LWPOLYLINE
  5
1450
330
1F
100
AcDbEntity
  8
10
100
AcDbPolyline
 90
        9
 70
     0
 43
0.0
 10
9.291152572165401
 20
-0.2815537853657588
 10
9.291152572165401
 20
99.71844621463288
 10
459.2911525721663
 20
99.71844621463288
 10
459.2911525721663
 20
-0.2815537853657588
 10
333.2911525721653
 20
-0.2815537853657588
 10
333.2911525721653
 20
51.71844621463288
 10
135.291152572165
 20
51.71844621463288
 10
135.291152572165
 20
-0.2815537853657588
 10
9.291152572165401
 20
-0.2815537853657588
  0
LINE
  5
1451
330
1F
100
AcDbEntity
  8
12
100
AcDbLine
 10
418.2911525721654
 20
85.21844621463287
 30
0.0
 11
418.2911525721654
 21
60.21844621463286
 31
0.0
  0
LINE
  5
1452
330
1F
100
AcDbEntity
  8
12
100
AcDbLine
 10
405.7911525721654
 20
72.71844621463424
 30
0.0
 11
430.7911525721654
 21
72.71844621463424
 31
0.0
  0
LINE
  5
1453
330
1F
100
AcDbEntity
  8
12
100
AcDbLine
 10
348.2911525721654
 20
85.21844621463287
 30
0.0
 11
348.2911525721654
 21
60.21844621463286
 31
0.0
  0
LINE
  5
1454
330
1F
100
AcDbEntity
  8
12
100
AcDbLine
 10
335.7911525721654
 20
72.71844621463424
 30
0.0
 11
360.7911525721654
 21
72.71844621463424
 31
0.0
  0
LINE
  5
1455
330
1F
100
AcDbEntity
  8
12
100
AcDbLine
 10
269.2911525721654
 20
85.21844621463287
 30
0.0
 11
269.2911525721654
 21
60.21844621463286
 31
0.0
  0
LINE
  5
1456
330
1F
100
AcDbEntity
  8
12
100
AcDbLine
 10
256.7911525721654
 20
72.71844621463424
 30
0.0
 11
281.7911525721654
 21
72.71844621463424
 31
0.0
  0
LINE
  5
1457
330
1F
100
AcDbEntity
  8
12
100
AcDbLine
 10
199.2911525721654
 20
85.21844621463287
 30
0.0
 11
199.2911525721654
 21
60.21844621463286
 31
0.0
  0
LINE
  5
1458
330
1F
100
AcDbEntity
  8
12
100
AcDbLine
 10
186.7911525721654
 20
72.71844621463424
 30
0.0
 11
211.7911525721654
 21
72.71844621463424
 31
0.0
  0
LINE
  5
1459
330
1F
100
AcDbEntity
  8
12
100
AcDbLine
 10
120.2911525721654
 20
85.21844621463287
 30
0.0
 11
120.2911525721654
 21
60.21844621463286
 31
0.0
  0
LINE
  5
145A
330
1F
100
AcDbEntity
  8
12
100
AcDbLine
 10
107.7911525721654
 20
72.71844621463424
 30
0.0
 11
132.7911525721654
 21
72.71844621463424
 31
0.0
  0
LINE
  5
145B
330
1F
100
AcDbEntity
  8
12
100
AcDbLine
 10
50.29115257216539
 20
85.21844621463287
 30
0.0
 11
50.29115257216539
 21
60.21844621463286
 31
0.0
  0
LINE
  5
145C
330
1F
100
AcDbEntity
  8
12
100
AcDbLine
 10
37.7911525721654
 20
72.71844621463424
 30
0.0
 11
62.79115257216539
 21
72.71844621463424
 31
0.0
  0
LINE
  5
145D
330
1F
100
AcDbEntity
  8
12
 48
2.0
100
AcDbLine
 10
384.2911525721654
 20
267.2184462146336
 30
0.0
 11
384.2911525721654
 21
72.71844621463424
 31
0.0
  0
LINE
  5
145E
330
1F
100
AcDbEntity
  8
12
 48
2.0
100
AcDbLine
 10
84.2911525721654
 20
267.2184462146336
 30
0.0
 11
84.2911525721654
 21
72.71844621463424
 31
0.0
  0
LINE
  5
145F
330
1F
100
AcDbEntity
  8
10
100
AcDbLine
 10
34.10610714838913
 20
328.1219731604859
 30
0.0
 11
34.10610714838913
 21
334.2184462146333
 31
0.0
  0
LINE
  5
1460
330
1F
100
AcDbEntity
  8
10
100
AcDbLine
 10
13.2911525721654
 20
336.7184462146333
 30
0.0
 11
13.2911525721654
 21
338.7184462146338
 31
0.0
  0
LINE
  5
1461
330
1F
100
AcDbEntity
  8
10
100
AcDbLine
 10
14.47619799594213
 20
328.1219731604859
 30
0.0
 11
14.47619799594213
 21
334.2184462146333
 31
0.0
  0
LINE
  5
1462
330
1F
100
AcDbEntity
  8
10
100
AcDbLine
 10
19.38367528405409
 20
328.1219731604859
 30
0.0
 11
19.38367528405409
 21
334.2184462146333
 31
0.0
  0
LINE
  5
1463
330
1F
100
AcDbEntity
  8
10
100
AcDbLine
 10
16.0411525721654
 20
327.2184462146333
 30
0.0
 11
14.47619799594213
 21
328.1219731604859
 31
0.0
  0
ARC
  5
1464
330
1F
100
AcDbEntity
  8
10
100
AcDbCircle
 10
16.0411525721654
 20
333.8529019308726
 30
0.0
 40
6.634455716238125
100
AcDbArc
 50
270.0
 51
300.2525650636208
  0
LINE
  5
1465
330
1F
100
AcDbEntity
  8
10
100
AcDbLine
 10
15.09115257216532
 20
334.2184462146333
 30
0.0
 11
15.09115257216532
 21
336.7184462146333
 31
0.0
  0
LINE
  5
1466
330
1F
100
AcDbEntity
  8
10
100
AcDbLine
 10
29.19862986027714
 20
328.1219731604859
 30
0.0
 11
29.19862986027714
 21
334.2184462146333
 31
0.0
  0
LINE
  5
1467
330
1F
100
AcDbEntity
  8
10
100
AcDbLine
 10
35.2911525721654
 20
336.7184462146333
 30
0.0
 11
35.2911525721654
 21
338.7184462146338
 31
0.0
  0
LINE
  5
1468
330
1F
100
AcDbEntity
  8
10
100
AcDbLine
 10
32.5411525721654
 20
327.2184462146333
 30
0.0
 11
34.10610714838913
 21
328.1219731604859
 31
0.0
  0
LINE
  5
1469
330
1F
100
AcDbEntity
  8
10
100
AcDbLine
 10
33.49115257216544
 20
334.2184462146333
 30
0.0
 11
33.49115257216544
 21
336.7184462146333
 31
0.0
  0
ARC
  5
146A
330
1F
100
AcDbEntity
  8
10
100
AcDbCircle
 10
32.5411525721654
 20
333.8529019308726
 30
0.0
 40
6.634455716238125
100
AcDbArc
 50
239.7474349363788
 51
270.0
  0
LINE
  5
146B
330
1F
100
AcDbEntity
  8
10
100
AcDbLine
 10
35.2911525721654
 20
336.7184462146333
 30
0.0
 11
13.2911525721654
 21
336.7184462146333
 31
0.0
  0
LINE
  5
146C
330
1F
100
AcDbEntity
  8
10
100
AcDbLine
 10
35.2911525721654
 20
338.7184462146338
 30
0.0
 11
13.2911525721654
 21
338.7184462146338
 31
0.0
  0
ARC
  5
146D
330
1F
100
AcDbEntity
  8
10
100
AcDbCircle
 10
24.29115257216539
 20
340.997611512093
 30
0.0
 40
13.77916529745972
100
AcDbArc
 50
249.1359356360835
 51
290.8640643639165
  0
LINE
  5
146E
330
1F
100
AcDbEntity
  8
10
100
AcDbLine
 10
32.5411525721654
 20
327.2184462146333
 30
0.0
 11
16.0411525721654
 21
327.2184462146333
 31
0.0
  0
LINE
  5
146F
330
1F
100
AcDbEntity
  8
10
100
AcDbLine
 10
34.10610714838913
 20
334.2184462146333
 30
0.0
 11
14.47619799594213
 21
334.2184462146333
 31
0.0
  0
LINE
  5
1470
330
1F
100
AcDbEntity
  8
10
100
AcDbLine
 10
454.1061071483891
 20
334.2184462146333
 30
0.0
 11
434.4761979959421
 21
334.2184462146333
 31
0.0
  0
LINE
  5
1471
330
1F
100
AcDbEntity
  8
10
100
AcDbLine
 10
452.5411525721663
 20
327.2184462146333
 30
0.0
 11
436.0411525721663
 21
327.2184462146333
 31
0.0
  0
ARC
  5
1472
330
1F
100
AcDbEntity
  8
10
100
AcDbCircle
 10
444.2911525721663
 20
340.997611512093
 30
0.0
 40
13.77916529745972
100
AcDbArc
 50
249.1359356360835
 51
290.8640643639165
  0
LINE
  5
1473
330
1F
100
AcDbEntity
  8
10
100
AcDbLine
 10
455.2911525721663
 20
338.7184462146338
 30
0.0
 11
433.2911525721653
 21
338.7184462146338
 31
0.0
  0
LINE
  5
1474
330
1F
100
AcDbEntity
  8
10
100
AcDbLine
 10
455.2911525721663
 20
336.7184462146333
 30
0.0
 11
433.2911525721653
 21
336.7184462146333
 31
0.0
  0
ARC
  5
1475
330
1F
100
AcDbEntity
  8
10
100
AcDbCircle
 10
452.5411525721663
 20
333.8529019308726
 30
0.0
 40
6.634455716238125
100
AcDbArc
 50
239.7474349363788
 51
270.0
  0
LINE
  5
1476
330
1F
100
AcDbEntity
  8
10
100
AcDbLine
 10
453.4911525721661
 20
334.2184462146333
 30
0.0
 11
453.4911525721661
 21
336.7184462146333
 31
0.0
  0
LINE
  5
1477
330
1F
100
AcDbEntity
  8
10
100
AcDbLine
 10
452.5411525721663
 20
327.2184462146333
 30
0.0
 11
454.1061071483891
 21
328.1219731604859
 31
0.0
  0
LINE
  5
1478
330
1F
100
AcDbEntity
  8
10
100
AcDbLine
 10
455.2911525721663
 20
336.7184462146333
 30
0.0
 11
455.2911525721663
 21
338.7184462146338
 31
0.0
  0
LINE
  5
1479
330
1F
100
AcDbEntity
  8
10
100
AcDbLine
 10
449.198629860277
 20
328.1219731604859
 30
0.0
 11
449.198629860277
 21
334.2184462146333
 31
0.0
  0
LINE
  5
147A
330
1F
100
AcDbEntity
  8
10
100
AcDbLine
 10
435.0911525721662
 20
334.2184462146333
 30
0.0
 11
435.0911525721662
 21
336.7184462146333
 31
0.0
  0
ARC
  5
147B
330
1F
100
AcDbEntity
  8
10
100
AcDbCircle
 10
436.0411525721663
 20
333.8529019308726
 30
0.0
 40
6.634455716238125
100
AcDbArc
 50
270.0
 51
300.2525650636208
  0
LINE
  5
147C
330
1F
100
AcDbEntity
  8
10
100
AcDbLine
 10
436.0411525721663
 20
327.2184462146333
 30
0.0
 11
434.4761979959421
 21
328.1219731604859
 31
0.0
  0
LINE
  5
147D
330
1F
100
AcDbEntity
  8
10
100
AcDbLine
 10
439.3836752840532
 20
328.1219731604859
 30
0.0
 11
439.3836752840532
 21
334.2184462146333
 31
0.0
  0
LINE
  5
147E
330
1F
100
AcDbEntity
  8
10
100
AcDbLine
 10
434.4761979959421
 20
328.1219731604859
 30
0.0
 11
434.4761979959421
 21
334.2184462146333
 31
0.0
  0
LINE
  5
147F
330
1F
100
AcDbEntity
  8
10
100
AcDbLine
 10
433.2911525721653
 20
336.7184462146333
 30
0.0
 11
433.2911525721653
 21
338.7184462146338
 31
0.0
  0
LINE
  5
1480
330
1F
100
AcDbEntity
  8
10
100
AcDbLine
 10
454.1061071483891
 20
328.1219731604859
 30
0.0
 11
454.1061071483891
 21
334.2184462146333
 31
0.0
  0
LINE
  5
1481
330
1F
100
AcDbEntity
  8
10
100
AcDbLine
 10
367.7911525721654
 20
332.2184462146338
 30
0.0
 11
367.7911525721654
 21
323.8184462146331
 31
0.0
  0
ARC
  5
1482
330
1F
100
AcDbEntity
  8
10
100
AcDbCircle
 10
371.7911525721654
 20
326.1194793872373
 30
0.0
 40
12.59896682739618
100
AcDbArc
 50
72.63623993234777
 51
107.3637600676522
  0
ARC
  5
1483
330
1F
100
AcDbEntity
  8
10
100
AcDbCircle
 10
377.4211525721653
 20
335.5508151994048
 30
0.0
 40
3.33237232554814
100
AcDbArc
 50
235.8638190019322
 51
270.081130590433
  0
LINE
  5
1484
330
1F
100
AcDbEntity
  8
10
100
AcDbLine
 10
367.7911525721654
 20
323.8184462146331
 30
0.0
 11
375.7911525721654
 21
323.8184462146331
 31
0.0
  0
ARC
  5
1485
330
1F
100
AcDbEntity
  8
10
100
AcDbCircle
 10
371.7911525721654
 20
344.8174130420288
 30
0.0
 40
12.59896682739618
100
AcDbArc
 50
252.6362399323476
 51
287.3637600676522
  0
ARC
  5
1486
330
1F
100
AcDbEntity
  8
10
100
AcDbCircle
 10
366.1611525721653
 20
335.5508151994048
 30
0.0
 40
3.33237232554814
100
AcDbArc
 50
269.9188694095669
 51
304.1361809980675
  0
ARC
  5
1487
330
1F
100
AcDbEntity
  8
10
100
AcDbCircle
 10
366.1611525721653
 20
335.3860772298621
 30
0.0
 40
3.33237232554814
100
AcDbArc
 50
55.86381900193251
 51
90.08113059043301
  0
ARC
  5
1488
330
1F
100
AcDbEntity
  8
10
100
AcDbCircle
 10
377.4211525721653
 20
335.3860772298621
 30
0.0
 40
3.33237232554814
100
AcDbArc
 50
89.91886940956701
 51
124.1361809980675
  0
LINE
  5
1489
330
1F
100
AcDbEntity
  8
10
100
AcDbLine
 10
379.2911525721653
 20
332.7925901694125
 30
0.0
 11
379.2911525721653
 21
338.144302259855
 31
0.0
  0
LINE
  5
148A
330
1F
100
AcDbEntity
  8
10
100
AcDbLine
 10
365.2855990727002
 20
332.2184462146333
 30
0.0
 11
364.2911525721653
 21
332.7925901694125
 31
0.0
  0
LINE
  5
148B
330
1F
100
AcDbEntity
  8
10
100
AcDbLine
 10
378.2967060716297
 20
332.2184462146333
 30
0.0
 11
365.2855990727002
 21
332.2184462146333
 31
0.0
  0
LINE
  5
148C
330
1F
100
AcDbEntity
  8
10
100
AcDbLine
 10
365.2855990727002
 20
338.7184462146338
 30
0.0
 11
364.2911525721653
 21
338.144302259855
 31
0.0
  0
LINE
  5
148D
330
1F
100
AcDbEntity
  8
10
100
AcDbLine
 10
378.296706071631
 20
338.7184462146338
 30
0.0
 11
365.2855990727002
 21
338.7184462146338
 31
0.0
  0
LINE
  5
148E
330
1F
100
AcDbEntity
  8
10
100
AcDbLine
 10
368.0311525721652
 20
338.144302259855
 30
0.0
 11
368.0311525721662
 21
332.7925901694125
 31
0.0
  0
LINE
  5
148F
330
1F
100
AcDbEntity
  8
10
100
AcDbLine
 10
364.2911525721653
 20
332.7925901694125
 30
0.0
 11
364.2911525721653
 21
338.144302259855
 31
0.0
  0
LINE
  5
1490
330
1F
100
AcDbEntity
  8
10
100
AcDbLine
 10
378.296706071631
 20
338.7184462146338
 30
0.0
 11
379.2911525721653
 21
338.144302259855
 31
0.0
  0
LINE
  5
1491
330
1F
100
AcDbEntity
  8
10
100
AcDbLine
 10
378.2967060716297
 20
332.2184462146333
 30
0.0
 11
379.2911525721653
 21
332.7925901694125
 31
0.0
  0
LINE
  5
1492
330
1F
100
AcDbEntity
  8
10
100
AcDbLine
 10
302.7911525721654
 20
332.2184462146338
 30
0.0
 11
302.7911525721654
 21
323.8184462146331
 31
0.0
  0
LINE
  5
1493
330
1F
100
AcDbEntity
  8
10
100
AcDbLine
 10
302.7911525721654
 20
323.8184462146331
 30
0.0
 11
310.7911525721654
 21
323.8184462146331
 31
0.0
  0
LINE
  5
1494
330
1F
100
AcDbEntity
  8
10
100
AcDbLine
 10
310.7911525721654
 20
332.2184462146338
 30
0.0
 11
310.7911525721654
 21
323.8184462146331
 31
0.0
  0
ARC
  5
1495
330
1F
100
AcDbEntity
  8
10
100
AcDbCircle
 10
312.4211525721662
 20
335.5508151994048
 30
0.0
 40
3.33237232554814
100
AcDbArc
 50
235.8638190019322
 51
270.081130590433
  0
ARC
  5
1496
330
1F
100
AcDbEntity
  8
10
100
AcDbCircle
 10
306.7911525721654
 20
344.8174130420288
 30
0.0
 40
12.59896682739618
100
AcDbArc
 50
252.6362399323476
 51
287.3637600676522
  0
ARC
  5
1497
330
1F
100
AcDbEntity
  8
10
100
AcDbCircle
 10
301.1611525721653
 20
335.5508151994048
 30
0.0
 40
3.33237232554814
100
AcDbArc
 50
269.9188694095669
 51
304.1361809980675
  0
ARC
  5
1498
330
1F
100
AcDbEntity
  8
10
100
AcDbCircle
 10
301.1611525721653
 20
335.3860772298621
 30
0.0
 40
3.33237232554814
100
AcDbArc
 50
55.86381900193251
 51
90.08113059043301
  0
ARC
  5
1499
330
1F
100
AcDbEntity
  8
10
100
AcDbCircle
 10
312.4211525721662
 20
335.3860772298621
 30
0.0
 40
3.33237232554814
100
AcDbArc
 50
89.91886940956701
 51
124.1361809980675
  0
ARC
  5
149A
330
1F
100
AcDbEntity
  8
10
100
AcDbCircle
 10
306.7911525721654
 20
326.1194793872373
 30
0.0
 40
12.59896682739618
100
AcDbArc
 50
72.63623993234777
 51
107.3637600676522
  0
LINE
  5
149B
330
1F
100
AcDbEntity
  8
10
100
AcDbLine
 10
314.2911525721653
 20
332.7925901694125
 30
0.0
 11
314.2911525721653
 21
338.144302259855
 31
0.0
  0
LINE
  5
149C
330
1F
100
AcDbEntity
  8
10
100
AcDbLine
 10
300.2855990727002
 20
332.2184462146333
 30
0.0
 11
299.2911525721654
 21
332.7925901694125
 31
0.0
  0
LINE
  5
149D
330
1F
100
AcDbEntity
  8
10
100
AcDbLine
 10
313.2967060716298
 20
332.2184462146333
 30
0.0
 11
300.2855990727002
 21
332.2184462146333
 31
0.0
  0
LINE
  5
149E
330
1F
100
AcDbEntity
  8
10
100
AcDbLine
 10
300.2855990727002
 20
338.7184462146338
 30
0.0
 11
299.2911525721654
 21
338.144302259855
 31
0.0
  0
LINE
  5
149F
330
1F
100
AcDbEntity
  8
10
100
AcDbLine
 10
313.2967060716312
 20
338.7184462146338
 30
0.0
 11
300.2855990727002
 21
338.7184462146338
 31
0.0
  0
LINE
  5
14A0
330
1F
100
AcDbEntity
  8
10
100
AcDbLine
 10
303.0311525721653
 20
338.144302259855
 30
0.0
 11
303.0311525721663
 21
332.7925901694125
 31
0.0
  0
LINE
  5
14A1
330
1F
100
AcDbEntity
  8
10
100
AcDbLine
 10
299.2911525721654
 20
332.7925901694125
 30
0.0
 11
299.2911525721654
 21
338.144302259855
 31
0.0
  0
LINE
  5
14A2
330
1F
100
AcDbEntity
  8
10
100
AcDbLine
 10
313.2967060716312
 20
338.7184462146338
 30
0.0
 11
314.2911525721653
 21
338.144302259855
 31
0.0
  0
LINE
  5
14A3
330
1F
100
AcDbEntity
  8
10
100
AcDbLine
 10
313.2967060716298
 20
332.2184462146333
 30
0.0
 11
314.2911525721653
 21
332.7925901694125
 31
0.0
  0
LINE
  5
14A4
330
1F
100
AcDbEntity
  8
10
100
AcDbLine
 10
310.5511525721663
 20
338.144302259855
 30
0.0
 11
310.5511525721663
 21
332.7925901694125
 31
0.0
  0
LINE
  5
14A5
330
1F
100
AcDbEntity
  8
10
100
AcDbLine
 10
157.7911525721654
 20
332.2184462146338
 30
0.0
 11
157.7911525721654
 21
323.8184462146331
 31
0.0
  0
LINE
  5
14A6
330
1F
100
AcDbEntity
  8
10
100
AcDbLine
 10
157.7911525721654
 20
323.8184462146331
 30
0.0
 11
165.7911525721654
 21
323.8184462146331
 31
0.0
  0
LINE
  5
14A7
330
1F
100
AcDbEntity
  8
10
100
AcDbLine
 10
165.7911525721654
 20
332.2184462146338
 30
0.0
 11
165.7911525721654
 21
323.8184462146331
 31
0.0
  0
ARC
  5
14A8
330
1F
100
AcDbEntity
  8
10
100
AcDbCircle
 10
167.4211525721652
 20
335.5508151994048
 30
0.0
 40
3.33237232554814
100
AcDbArc
 50
235.8638190019322
 51
270.081130590433
  0
ARC
  5
14A9
330
1F
100
AcDbEntity
  8
10
100
AcDbCircle
 10
161.7911525721654
 20
344.8174130420288
 30
0.0
 40
12.59896682739618
100
AcDbArc
 50
252.6362399323476
 51
287.3637600676522
  0
ARC
  5
14AA
330
1F
100
AcDbEntity
  8
10
100
AcDbCircle
 10
156.1611525721651
 20
335.5508151994048
 30
0.0
 40
3.33237232554814
100
AcDbArc
 50
269.9188694095669
 51
304.1361809980675
  0
ARC
  5
14AB
330
1F
100
AcDbEntity
  8
10
100
AcDbCircle
 10
156.1611525721651
 20
335.3860772298621
 30
0.0
 40
3.33237232554814
100
AcDbArc
 50
55.86381900193251
 51
90.08113059043301
  0
ARC
  5
14AC
330
1F
100
AcDbEntity
  8
10
100
AcDbCircle
 10
167.4211525721652
 20
335.3860772298621
 30
0.0
 40
3.33237232554814
100
AcDbArc
 50
89.91886940956701
 51
124.1361809980675
  0
ARC
  5
14AD
330
1F
100
AcDbEntity
  8
10
100
AcDbCircle
 10
161.7911525721654
 20
326.1194793872373
 30
0.0
 40
12.59896682739618
100
AcDbArc
 50
72.63623993234777
 51
107.3637600676522
  0
LINE
  5
14AE
330
1F
100
AcDbEntity
  8
10
100
AcDbLine
 10
169.2911525721654
 20
332.7925901694125
 30
0.0
 11
169.2911525721654
 21
338.144302259855
 31
0.0
  0
LINE
  5
14AF
330
1F
100
AcDbEntity
  8
10
100
AcDbLine
 10
155.2855990727001
 20
332.2184462146333
 30
0.0
 11
154.2911525721654
 21
332.7925901694125
 31
0.0
  0
LINE
  5
14B0
330
1F
100
AcDbEntity
  8
10
100
AcDbLine
 10
168.29670607163
 20
332.2184462146333
 30
0.0
 11
155.2855990727001
 21
332.2184462146333
 31
0.0
  0
LINE
  5
14B1
330
1F
100
AcDbEntity
  8
10
100
AcDbLine
 10
155.2855990727001
 20
338.7184462146338
 30
0.0
 11
154.2911525721654
 21
338.144302259855
 31
0.0
  0
LINE
  5
14B2
330
1F
100
AcDbEntity
  8
10
100
AcDbLine
 10
168.2967060716309
 20
338.7184462146338
 30
0.0
 11
155.2855990727001
 21
338.7184462146338
 31
0.0
  0
LINE
  5
14B3
330
1F
100
AcDbEntity
  8
10
100
AcDbLine
 10
158.0311525721654
 20
338.144302259855
 30
0.0
 11
158.0311525721654
 21
332.7925901694125
 31
0.0
  0
LINE
  5
14B4
330
1F
100
AcDbEntity
  8
10
100
AcDbLine
 10
154.2911525721654
 20
332.7925901694125
 30
0.0
 11
154.2911525721654
 21
338.144302259855
 31
0.0
  0
LINE
  5
14B5
330
1F
100
AcDbEntity
  8
10
100
AcDbLine
 10
168.2967060716309
 20
338.7184462146338
 30
0.0
 11
169.2911525721654
 21
338.144302259855
 31
0.0
  0
LINE
  5
14B6
330
1F
100
AcDbEntity
  8
10
100
AcDbLine
 10
168.29670607163
 20
332.2184462146333
 30
0.0
 11
169.2911525721654
 21
332.7925901694125
 31
0.0
  0
LINE
  5
14B7
330
1F
100
AcDbEntity
  8
10
100
AcDbLine
 10
165.5511525721663
 20
338.144302259855
 30
0.0
 11
165.5511525721663
 21
332.7925901694125
 31
0.0
  0
LINE
  5
14B8
330
1F
100
AcDbEntity
  8
10
100
AcDbLine
 10
92.79115257216542
 20
332.2184462146338
 30
0.0
 11
92.79115257216542
 21
323.8184462146331
 31
0.0
  0
LINE
  5
14B9
330
1F
100
AcDbEntity
  8
10
100
AcDbLine
 10
92.79115257216542
 20
323.8184462146331
 30
0.0
 11
100.7911525721653
 21
323.8184462146331
 31
0.0
  0
LINE
  5
14BA
330
1F
100
AcDbEntity
  8
10
100
AcDbLine
 10
100.7911525721653
 20
332.2184462146338
 30
0.0
 11
100.7911525721653
 21
323.8184462146331
 31
0.0
  0
ARC
  5
14BB
330
1F
100
AcDbEntity
  8
10
100
AcDbCircle
 10
102.4211525721649
 20
335.5508151994048
 30
0.0
 40
3.33237232554814
100
AcDbArc
 50
235.8638190019322
 51
270.081130590433
  0
ARC
  5
14BC
330
1F
100
AcDbEntity
  8
10
100
AcDbCircle
 10
96.79115257216542
 20
344.8174130420288
 30
0.0
 40
12.59896682739618
100
AcDbArc
 50
252.6362399323476
 51
287.3637600676522
  0
ARC
  5
14BD
330
1F
100
AcDbEntity
  8
10
100
AcDbCircle
 10
91.16115257216527
 20
335.5508151994048
 30
0.0
 40
3.33237232554814
100
AcDbArc
 50
269.9188694095669
 51
304.1361809980675
  0
ARC
  5
14BE
330
1F
100
AcDbEntity
  8
10
100
AcDbCircle
 10
91.16115257216527
 20
335.3860772298621
 30
0.0
 40
3.33237232554814
100
AcDbArc
 50
55.86381900193251
 51
90.08113059043301
  0
ARC
  5
14BF
330
1F
100
AcDbEntity
  8
10
100
AcDbCircle
 10
102.4211525721649
 20
335.3860772298621
 30
0.0
 40
3.33237232554814
100
AcDbArc
 50
89.91886940956701
 51
124.1361809980675
  0
ARC
  5
14C0
330
1F
100
AcDbEntity
  8
10
100
AcDbCircle
 10
96.79115257216542
 20
326.1194793872373
 30
0.0
 40
12.59896682739618
100
AcDbArc
 50
72.63623993234777
 51
107.3637600676522
  0
LINE
  5
14C1
330
1F
100
AcDbEntity
  8
10
100
AcDbLine
 10
104.2911525721654
 20
332.7925901694125
 30
0.0
 11
104.2911525721654
 21
338.144302259855
 31
0.0
  0
LINE
  5
14C2
330
1F
100
AcDbEntity
  8
10
100
AcDbLine
 10
90.28559907270029
 20
332.2184462146333
 30
0.0
 11
89.29115257216542
 21
332.7925901694125
 31
0.0
  0
LINE
  5
14C3
330
1F
100
AcDbEntity
  8
10
100
AcDbLine
 10
103.2967060716299
 20
332.2184462146333
 30
0.0
 11
90.28559907270029
 21
332.2184462146333
 31
0.0
  0
LINE
  5
14C4
330
1F
100
AcDbEntity
  8
10
100
AcDbLine
 10
90.28559907270029
 20
338.7184462146338
 30
0.0
 11
89.29115257216542
 21
338.144302259855
 31
0.0
  0
LINE
  5
14C5
330
1F
100
AcDbEntity
  8
10
100
AcDbLine
 10
103.2967060716312
 20
338.7184462146338
 30
0.0
 11
90.28559907270029
 21
338.7184462146338
 31
0.0
  0
LINE
  5
14C6
330
1F
100
AcDbEntity
  8
10
100
AcDbLine
 10
93.03115257216541
 20
338.144302259855
 30
0.0
 11
93.0311525721663
 21
332.7925901694125
 31
0.0
  0
LINE
  5
14C7
330
1F
100
AcDbEntity
  8
10
100
AcDbLine
 10
89.29115257216542
 20
332.7925901694125
 30
0.0
 11
89.29115257216542
 21
338.144302259855
 31
0.0
  0
LINE
  5
14C8
330
1F
100
AcDbEntity
  8
10
100
AcDbLine
 10
103.2967060716312
 20
338.7184462146338
 30
0.0
 11
104.2911525721654
 21
338.144302259855
 31
0.0
  0
LINE
  5
14C9
330
1F
100
AcDbEntity
  8
10
100
AcDbLine
 10
103.2967060716299
 20
332.2184462146333
 30
0.0
 11
104.2911525721654
 21
332.7925901694125
 31
0.0
  0
LINE
  5
14CA
330
1F
100
AcDbEntity
  8
10
100
AcDbLine
 10
100.5511525721654
 20
338.144302259855
 30
0.0
 11
100.5511525721654
 21
332.7925901694125
 31
0.0
  0
LINE
  5
14CB
330
1F
100
AcDbEntity
  8
12
100
AcDbLine
 10
405.7911525721654
 20
272.7184462146333
 30
0.0
 11
430.7911525721654
 21
272.7184462146333
 31
0.0
  0
LINE
  5
14CC
330
1F
100
AcDbEntity
  8
12
100
AcDbLine
 10
418.2911525721654
 20
285.2184462146338
 30
0.0
 11
418.2911525721654
 21
260.2184462146336
 31
0.0
  0
LINE
  5
14CD
330
1F
100
AcDbEntity
  8
12
100
AcDbLine
 10
335.7911525721654
 20
272.7184462146333
 30
0.0
 11
360.7911525721654
 21
272.7184462146333
 31
0.0
  0
LINE
  5
14CE
330
1F
100
AcDbEntity
  8
12
100
AcDbLine
 10
348.2911525721654
 20
285.2184462146338
 30
0.0
 11
348.2911525721654
 21
260.2184462146336
 31
0.0
  0
LINE
  5
14CF
330
1F
100
AcDbEntity
  8
12
100
AcDbLine
 10
256.7911525721654
 20
272.7184462146333
 30
0.0
 11
281.7911525721654
 21
272.7184462146333
 31
0.0
  0
LINE
  5
14D0
330
1F
100
AcDbEntity
  8
12
100
AcDbLine
 10
269.2911525721654
 20
285.2184462146338
 30
0.0
 11
269.2911525721654
 21
260.2184462146336
 31
0.0
  0
LINE
  5
14D1
330
1F
100
AcDbEntity
  8
12
100
AcDbLine
 10
186.7911525721654
 20
272.7184462146333
 30
0.0
 11
211.7911525721654
 21
272.7184462146333
 31
0.0
  0
LINE
  5
14D2
330
1F
100
AcDbEntity
  8
12
100
AcDbLine
 10
199.2911525721654
 20
285.2184462146338
 30
0.0
 11
199.2911525721654
 21
260.2184462146336
 31
0.0
  0
LINE
  5
14D3
330
1F
100
AcDbEntity
  8
12
100
AcDbLine
 10
107.7911525721654
 20
272.7184462146333
 30
0.0
 11
132.7911525721654
 21
272.7184462146333
 31
0.0
  0
LINE
  5
14D4
330
1F
100
AcDbEntity
  8
12
100
AcDbLine
 10
120.2911525721654
 20
285.2184462146338
 30
0.0
 11
120.2911525721654
 21
260.2184462146336
 31
0.0
  0
LINE
  5
14D5
330
1F
100
AcDbEntity
  8
12
100
AcDbLine
 10
37.7911525721654
 20
272.7184462146333
 30
0.0
 11
62.79115257216539
 21
272.7184462146333
 31
0.0
  0
LINE
  5
14D6
330
1F
100
AcDbEntity
  8
12
100
AcDbLine
 10
50.29115257216539
 20
285.2184462146338
 30
0.0
 11
50.29115257216539
 21
260.2184462146336
 31
0.0
  0
LINE
  5
14D7
330
1F
100
AcDbEntity
  8
10
100
AcDbLine
 10
421.7911525721651
 20
241.2184462146333
 30
0.0
 11
421.7911525721651
 21
103.2184462146325
 31
0.0
  0
LINE
  5
14D8
330
1F
100
AcDbEntity
  8
10
100
AcDbLine
 10
46.79115257216539
 20
241.2184462146333
 30
0.0
 11
46.79115257216539
 21
103.2184462146325
 31
0.0
  0
LINE
  5
14D9
330
1F
100
AcDbEntity
  8
10
100
AcDbLine
 10
454.2911525721661
 20
244.7184462146333
 30
0.0
 11
454.2911525721661
 21
99.71844621463288
 31
0.0
  0
LINE
  5
14DA
330
1F
100
AcDbEntity
  8
10
100
AcDbLine
 10
14.2911525721654
 20
244.7184462146333
 30
0.0
 11
14.2911525721654
 21
99.71844621463288
 31
0.0
  0
LINE
  5
14DB
330
1F
100
AcDbEntity
  8
10
100
AcDbLine
 10
459.2911525721663
 20
250.7184462146333
 30
0.0
 11
9.291152572165401
 21
250.7184462146333
 31
0.0
  0
LINE
  5
14DC
330
1F
100
AcDbEntity
  8
10
100
AcDbLine
 10
49.79115257216539
 20
244.7184462146333
 30
0.0
 11
49.79115257216539
 21
241.2184462146333
 31
0.0
  0
LINE
  5
14DD
330
1F
100
AcDbEntity
  8
10
100
AcDbLine
 10
418.7911525721654
 20
244.7184462146333
 30
0.0
 11
418.7911525721654
 21
241.2184462146333
 31
0.0
  0
LINE
  5
14DE
330
1F
100
AcDbEntity
  8
10
100
AcDbLine
 10
421.7911525721651
 20
241.2184462146333
 30
0.0
 11
46.79115257216539
 21
241.2184462146333
 31
0.0
  0
LINE
  5
14DF
330
1F
100
AcDbEntity
  8
10
100
AcDbLine
 10
51.79115257216539
 20
244.7184462146333
 30
0.0
 11
51.79115257216539
 21
241.2184462146333
 31
0.0
  0
LINE
  5
14E0
330
1F
100
AcDbEntity
  8
10
100
AcDbLine
 10
116.7911525721654
 20
244.7184462146333
 30
0.0
 11
116.7911525721654
 21
241.2184462146333
 31
0.0
  0
LINE
  5
14E1
330
1F
100
AcDbEntity
  8
10
100
AcDbLine
 10
201.7911525721653
 20
244.7184462146333
 30
0.0
 11
201.7911525721653
 21
241.2184462146333
 31
0.0
  0
LINE
  5
14E2
330
1F
100
AcDbEntity
  8
10
100
AcDbLine
 10
266.7911525721653
 20
244.7184462146333
 30
0.0
 11
266.7911525721653
 21
241.2184462146333
 31
0.0
  0
LINE
  5
14E3
330
1F
100
AcDbEntity
  8
10
100
AcDbLine
 10
351.7911525721653
 20
244.7184462146333
 30
0.0
 11
351.7911525721653
 21
241.2184462146333
 31
0.0
  0
LINE
  5
14E4
330
1F
100
AcDbEntity
  8
10
100
AcDbLine
 10
416.7911525721653
 20
244.7184462146333
 30
0.0
 11
416.7911525721653
 21
241.2184462146333
 31
0.0
  0
LINE
  5
14E5
330
1F
100
AcDbEntity
  8
10
100
AcDbLine
 10
9.291152572165401
 20
338.7184462146338
 30
0.0
 11
459.2911525721663
 21
338.7184462146338
 31
0.0
  0
LINE
  5
14E6
330
1F
100
AcDbEntity
  8
10
100
AcDbLine
 10
375.7911525721654
 20
332.2184462146338
 30
0.0
 11
375.7911525721654
 21
323.8184462146331
 31
0.0
  0
LINE
  5
14E7
330
1F
100
AcDbEntity
  8
10
100
AcDbLine
 10
375.5511525721654
 20
338.144302259855
 30
0.0
 11
375.5511525721654
 21
332.7925901694125
 31
0.0
  0
LWPOLYLINE
  5
14E8
330
1F
100
AcDbEntity
  8
10
100
AcDbPolyline
 90
        5
 70
     0
 43
0.0
 10
9.291152572165401
 20
344.7184462146333
 10
459.2911525721663
 20
344.7184462146333
 10
459.2911525721663
 20
244.7184462146333
 10
9.291152572165401
 20
244.7184462146333
 10
9.291152572165401
 20
344.7184462146333
  0
LINE
  5
14E9
330
1F
100
AcDbEntity
  8
10
100
AcDbLine
 10
70.98288189547407
 20
238.7184462146333
 30
0.0
 11
46.79115257216539
 21
238.7184462146333
 31
0.0
  0
LINE
  5
14EA
330
1F
100
AcDbEntity
  8
10
100
AcDbLine
 10
73.87009994058598
 20
235.7184462146333
 30
0.0
 11
46.79115257216539
 21
235.7184462146333
 31
0.0
  0
LINE
  5
14EB
330
1F
100
AcDbEntity
  8
10
100
AcDbLine
 10
76.75731798569926
 20
232.7184462146333
 30
0.0
 11
46.79115257216539
 21
232.7184462146333
 31
0.0
  0
LINE
  5
14EC
330
1F
100
AcDbEntity
  8
10
100
AcDbLine
 10
79.64453603081209
 20
229.7184462146334
 30
0.0
 11
46.79115257216539
 21
229.7184462146334
 31
0.0
  0
LINE
  5
14ED
330
1F
100
AcDbEntity
  8
10
100
AcDbLine
 10
82.53175407592516
 20
226.7184462146333
 30
0.0
 11
46.79115257216539
 21
226.7184462146333
 31
0.0
  0
LINE
  5
14EE
330
1F
100
AcDbEntity
  8
10
100
AcDbLine
 10
85.41897212103709
 20
223.7184462146333
 30
0.0
 11
46.79115257216539
 21
223.7184462146333
 31
0.0
  0
LINE
  5
14EF
330
1F
100
AcDbEntity
  8
10
100
AcDbLine
 10
88.30619016615036
 20
220.7184462146336
 30
0.0
 11
46.79115257216539
 21
220.7184462146336
 31
0.0
  0
LINE
  5
14F0
330
1F
100
AcDbEntity
  8
10
100
AcDbLine
 10
91.1934082112632
 20
217.7184462146338
 30
0.0
 11
46.79115257216539
 21
217.7184462146338
 31
0.0
  0
LINE
  5
14F1
330
1F
100
AcDbEntity
  8
10
100
AcDbLine
 10
94.08062625637626
 20
214.7184462146333
 30
0.0
 11
46.79115257216539
 21
214.7184462146333
 31
0.0
  0
LINE
  5
14F2
330
1F
100
AcDbEntity
  8
10
100
AcDbLine
 10
96.96784430148909
 20
211.7184462146333
 30
0.0
 11
46.79115257216539
 21
211.7184462146333
 31
0.0
  0
LINE
  5
14F3
330
1F
100
AcDbEntity
  8
10
100
AcDbLine
 10
99.855062346601
 20
208.7184462146333
 30
0.0
 11
46.79115257216539
 21
208.7184462146333
 31
0.0
  0
LINE
  5
14F4
330
1F
100
AcDbEntity
  8
10
100
AcDbLine
 10
102.7422803917143
 20
205.7184462146333
 30
0.0
 11
46.79115257216539
 21
205.7184462146333
 31
0.0
  0
LINE
  5
14F5
330
1F
100
AcDbEntity
  8
10
100
AcDbLine
 10
105.6294984368269
 20
202.7184462146325
 30
0.0
 11
46.79115257216539
 21
202.7184462146325
 31
0.0
  0
LINE
  5
14F6
330
1F
100
AcDbEntity
  8
10
100
AcDbLine
 10
108.5167164819389
 20
199.7184462146325
 30
0.0
 11
46.79115257216539
 21
199.7184462146325
 31
0.0
  0
LINE
  5
14F7
330
1F
100
AcDbEntity
  8
10
100
AcDbLine
 10
109.0950001494593
 20
197.7184462146341
 30
0.0
 11
46.79115257216539
 21
197.7184462146341
 31
0.0
  0
LINE
  5
14F8
330
1F
100
AcDbEntity
  8
10
100
AcDbLine
 10
103.8988477267519
 20
194.7184462146325
 30
0.0
 11
46.79115257216539
 21
194.7184462146325
 31
0.0
  0
LINE
  5
14F9
330
1F
100
AcDbEntity
  8
10
100
AcDbLine
 10
98.70269530404607
 20
191.7184462146325
 30
0.0
 11
46.79115257216539
 21
191.7184462146325
 31
0.0
  0
LINE
  5
14FA
330
1F
100
AcDbEntity
  8
10
100
AcDbLine
 10
93.50654288133933
 20
188.718446214634
 30
0.0
 11
46.79115257216539
 21
188.718446214634
 31
0.0
  0
LINE
  5
14FB
330
1F
100
AcDbEntity
  8
10
100
AcDbLine
 10
88.31039045863233
 20
185.718446214634
 30
0.0
 11
46.79115257216539
 21
185.718446214634
 31
0.0
  0
LINE
  5
14FC
330
1F
100
AcDbEntity
  8
10
100
AcDbLine
 10
83.11423803592516
 20
182.7184462146328
 30
0.0
 11
46.79115257216539
 21
182.7184462146328
 31
0.0
  0
LINE
  5
14FD
330
1F
100
AcDbEntity
  8
10
100
AcDbLine
 10
77.91808561321909
 20
179.7184462146326
 30
0.0
 11
46.79115257216539
 21
179.7184462146326
 31
0.0
  0
LINE
  5
14FE
330
1F
100
AcDbEntity
  8
10
100
AcDbLine
 10
72.72193319051211
 20
176.7184462146325
 30
0.0
 11
46.79115257216539
 21
176.7184462146325
 31
0.0
  0
LINE
  5
14FF
330
1F
100
AcDbEntity
  8
10
100
AcDbLine
 10
67.52578076780537
 20
173.7184462146325
 30
0.0
 11
46.79115257216539
 21
173.7184462146325
 31
0.0
  0
LINE
  5
1500
330
1F
100
AcDbEntity
  8
10
100
AcDbLine
 10
62.32962834509931
 20
170.7184462146328
 30
0.0
 11
46.79115257216539
 21
170.7184462146328
 31
0.0
  0
LINE
  5
1501
330
1F
100
AcDbEntity
  8
10
100
AcDbLine
 10
57.13347592239211
 20
167.7184462146328
 30
0.0
 11
46.79115257216539
 21
167.7184462146328
 31
0.0
  0
LINE
  5
1502
330
1F
100
AcDbEntity
  8
10
100
AcDbLine
 10
59.79197251075333
 20
164.7184462146328
 30
0.0
 11
46.79115257216539
 21
164.7184462146328
 31
0.0
  0
LINE
  5
1503
330
1F
100
AcDbEntity
  8
10
100
AcDbLine
 10
62.45046909911502
 20
161.7184462146328
 30
0.0
 11
46.79115257216539
 21
161.7184462146328
 31
0.0
  0
LINE
  5
1504
330
1F
100
AcDbEntity
  8
10
100
AcDbLine
 10
65.10896568747717
 20
158.7184462146328
 30
0.0
 11
46.79115257216539
 21
158.7184462146328
 31
0.0
  0
LINE
  5
1505
330
1F
100
AcDbEntity
  8
10
100
AcDbLine
 10
67.76746227583817
 20
155.7184462146328
 30
0.0
 11
46.79115257216539
 21
155.7184462146328
 31
0.0
  0
LINE
  5
1506
330
1F
100
AcDbEntity
  8
10
100
AcDbLine
 10
70.42595886420031
 20
152.7184462146328
 30
0.0
 11
46.79115257216539
 21
152.7184462146328
 31
0.0
  0
LINE
  5
1507
330
1F
100
AcDbEntity
  8
10
100
AcDbLine
 10
73.08445545256109
 20
149.7184462146328
 30
0.0
 11
46.79115257216539
 21
149.7184462146328
 31
0.0
  0
LINE
  5
1508
330
1F
100
AcDbEntity
  8
10
100
AcDbLine
 10
75.74295204092322
 20
146.7184462146328
 30
0.0
 11
46.79115257216539
 21
146.7184462146328
 31
0.0
  0
LINE
  5
1509
330
1F
100
AcDbEntity
  8
10
100
AcDbLine
 10
78.40144862928423
 20
143.7184462146328
 30
0.0
 11
46.79115257216539
 21
143.7184462146328
 31
0.0
  0
LINE
  5
150A
330
1F
100
AcDbEntity
  8
10
100
AcDbLine
 10
81.05994521764637
 20
140.7184462146342
 30
0.0
 11
46.79115257216539
 21
140.7184462146342
 31
0.0
  0
LINE
  5
150B
330
1F
100
AcDbEntity
  8
10
100
AcDbLine
 10
83.71844180600806
 20
137.7184462146327
 30
0.0
 11
46.79115257216539
 21
137.7184462146327
 31
0.0
  0
LINE
  5
150C
330
1F
100
AcDbEntity
  8
10
100
AcDbLine
 10
86.37693839436929
 20
134.7184462146328
 30
0.0
 11
46.79115257216539
 21
134.7184462146328
 31
0.0
  0
LINE
  5
150D
330
1F
100
AcDbEntity
  8
10
100
AcDbLine
 10
89.03543498273121
 20
131.7184462146328
 30
0.0
 11
46.79115257216539
 21
131.7184462146328
 31
0.0
  0
LINE
  5
150E
330
1F
100
AcDbEntity
  8
10
100
AcDbLine
 10
91.69393157109244
 20
128.7184462146327
 30
0.0
 11
46.79115257216539
 21
128.7184462146327
 31
0.0
  0
LINE
  5
150F
330
1F
100
AcDbEntity
  8
10
100
AcDbLine
 10
94.35242815945413
 20
125.7184462146327
 30
0.0
 11
46.79115257216539
 21
125.7184462146327
 31
0.0
  0
LINE
  5
1510
330
1F
100
AcDbEntity
  8
10
100
AcDbLine
 10
97.01092474781514
 20
122.7184462146327
 30
0.0
 11
46.79115257216539
 21
122.7184462146327
 31
0.0
  0
LINE
  5
1511
330
1F
100
AcDbEntity
  8
10
100
AcDbLine
 10
99.66942133617727
 20
119.7184462146327
 30
0.0
 11
46.79115257216539
 21
119.7184462146327
 31
0.0
  0
LINE
  5
1512
330
1F
100
AcDbEntity
  8
10
100
AcDbLine
 10
102.3279179245394
 20
116.7184462146325
 30
0.0
 11
46.79115257216539
 21
116.7184462146325
 31
0.0
  0
LINE
  5
1513
330
1F
100
AcDbEntity
  8
10
100
AcDbLine
 10
104.9864145129
 20
113.7184462146327
 30
0.0
 11
46.79115257216539
 21
113.7184462146327
 31
0.0
  0
LINE
  5
1514
330
1F
100
AcDbEntity
  8
10
100
AcDbLine
 10
107.6449111012611
 20
110.7184462146328
 30
0.0
 11
46.79115257216539
 21
110.7184462146328
 31
0.0
  0
LINE
  5
1515
330
1F
100
AcDbEntity
  8
10
100
AcDbLine
 10
110.3034076896233
 20
107.7184462146328
 30
0.0
 11
46.79115257216539
 21
107.7184462146328
 31
0.0
  0
LINE
  5
1516
330
1F
100
AcDbEntity
  8
10
100
AcDbLine
 10
112.9619042779852
 20
104.7184462146342
 30
0.0
 11
46.79115257216539
 21
104.7184462146342
 31
0.0
  0
LINE
  5
1517
330
1F
100
AcDbEntity
  8
10
100
AcDbLine
 10
95.29115257216542
 20
252.7184462146333
 30
0.0
 11
95.29115257216542
 21
250.7184462146333
 31
0.0
  0
LINE
  5
1518
330
1F
100
AcDbEntity
  8
10
100
AcDbLine
 10
94.10610714838913
 20
261.3149192687815
 30
0.0
 11
94.10610714838913
 21
255.2184462146333
 31
0.0
  0
LINE
  5
1519
330
1F
100
AcDbEntity
  8
10
100
AcDbLine
 10
89.19862986027714
 20
261.3149192687815
 30
0.0
 11
89.19862986027714
 21
255.2184462146333
 31
0.0
  0
LINE
  5
151A
330
1F
100
AcDbEntity
  8
10
100
AcDbLine
 10
92.54115257216541
 20
262.2184462146333
 30
0.0
 11
94.10610714838913
 21
261.3149192687815
 31
0.0
  0
ARC
  5
151B
330
1F
100
AcDbEntity
  8
10
100
AcDbCircle
 10
92.54115257216541
 20
255.583990498395
 30
0.0
 40
6.634455716238125
100
AcDbArc
 50
90.0
 51
120.2525650636209
  0
LINE
  5
151C
330
1F
100
AcDbEntity
  8
10
100
AcDbLine
 10
93.49115257216636
 20
255.2184462146333
 30
0.0
 11
93.49115257216636
 21
252.7184462146333
 31
0.0
  0
LINE
  5
151D
330
1F
100
AcDbEntity
  8
10
100
AcDbLine
 10
79.38367528405411
 20
261.3149192687815
 30
0.0
 11
79.38367528405411
 21
255.2184462146333
 31
0.0
  0
LINE
  5
151E
330
1F
100
AcDbEntity
  8
10
100
AcDbLine
 10
73.2911525721654
 20
252.7184462146333
 30
0.0
 11
73.2911525721654
 21
250.7184462146333
 31
0.0
  0
LINE
  5
151F
330
1F
100
AcDbEntity
  8
10
100
AcDbLine
 10
74.47619799594213
 20
261.3149192687815
 30
0.0
 11
74.47619799594213
 21
255.2184462146333
 31
0.0
  0
LINE
  5
1520
330
1F
100
AcDbEntity
  8
10
100
AcDbLine
 10
76.0411525721654
 20
262.2184462146333
 30
0.0
 11
74.47619799594213
 21
261.3149192687815
 31
0.0
  0
LINE
  5
1521
330
1F
100
AcDbEntity
  8
10
100
AcDbLine
 10
75.09115257216534
 20
255.2184462146333
 30
0.0
 11
75.09115257216534
 21
252.7184462146333
 31
0.0
  0
ARC
  5
1522
330
1F
100
AcDbEntity
  8
10
100
AcDbCircle
 10
76.0411525721654
 20
255.583990498395
 30
0.0
 40
6.634455716238125
100
AcDbArc
 50
59.74743493637903
 51
90.0
  0
LINE
  5
1523
330
1F
100
AcDbEntity
  8
10
100
AcDbLine
 10
73.2911525721654
 20
252.7184462146333
 30
0.0
 11
95.29115257216542
 21
252.7184462146333
 31
0.0
  0
LINE
  5
1524
330
1F
100
AcDbEntity
  8
10
100
AcDbLine
 10
73.2911525721654
 20
250.7184462146333
 30
0.0
 11
95.29115257216542
 21
250.7184462146333
 31
0.0
  0
ARC
  5
1525
330
1F
100
AcDbEntity
  8
10
100
AcDbCircle
 10
84.2911525721654
 20
248.4392809171739
 30
0.0
 40
13.77916529745972
100
AcDbArc
 50
69.1359356360835
 51
110.8640643639164
  0
LINE
  5
1526
330
1F
100
AcDbEntity
  8
10
100
AcDbLine
 10
76.0411525721654
 20
262.2184462146333
 30
0.0
 11
92.54115257216541
 21
262.2184462146333
 31
0.0
  0
LINE
  5
1527
330
1F
100
AcDbEntity
  8
10
100
AcDbLine
 10
74.47619799594213
 20
255.2184462146333
 30
0.0
 11
94.10610714838913
 21
255.2184462146333
 31
0.0
  0
LINE
  5
1528
330
1F
100
AcDbEntity
  8
10
100
AcDbLine
 10
245.2911525721654
 20
252.7184462146333
 30
0.0
 11
245.2911525721654
 21
250.7184462146333
 31
0.0
  0
LINE
  5
1529
330
1F
100
AcDbEntity
  8
10
100
AcDbLine
 10
244.1061071483891
 20
261.3149192687815
 30
0.0
 11
244.1061071483891
 21
255.2184462146333
 31
0.0
  0
LINE
  5
152A
330
1F
100
AcDbEntity
  8
10
100
AcDbLine
 10
239.1986298602771
 20
261.3149192687815
 30
0.0
 11
239.1986298602771
 21
255.2184462146333
 31
0.0
  0
LINE
  5
152B
330
1F
100
AcDbEntity
  8
10
100
AcDbLine
 10
242.5411525721654
 20
262.2184462146333
 30
0.0
 11
244.1061071483891
 21
261.3149192687815
 31
0.0
  0
ARC
  5
152C
330
1F
100
AcDbEntity
  8
10
100
AcDbCircle
 10
242.5411525721654
 20
255.583990498395
 30
0.0
 40
6.634455716238125
100
AcDbArc
 50
90.0
 51
120.2525650636209
  0
LINE
  5
152D
330
1F
100
AcDbEntity
  8
10
100
AcDbLine
 10
243.4911525721663
 20
255.2184462146333
 30
0.0
 11
243.4911525721663
 21
252.7184462146333
 31
0.0
  0
LINE
  5
152E
330
1F
100
AcDbEntity
  8
10
100
AcDbLine
 10
229.3836752840541
 20
261.3149192687815
 30
0.0
 11
229.3836752840541
 21
255.2184462146333
 31
0.0
  0
LINE
  5
152F
330
1F
100
AcDbEntity
  8
10
100
AcDbLine
 10
223.2911525721651
 20
252.7184462146333
 30
0.0
 11
223.2911525721651
 21
250.7184462146333
 31
0.0
  0
LINE
  5
1530
330
1F
100
AcDbEntity
  8
10
100
AcDbLine
 10
224.4761979959419
 20
261.3149192687815
 30
0.0
 11
224.4761979959419
 21
255.2184462146333
 31
0.0
  0
LINE
  5
1531
330
1F
100
AcDbEntity
  8
10
100
AcDbLine
 10
226.0411525721654
 20
262.2184462146333
 30
0.0
 11
224.4761979959419
 21
261.3149192687815
 31
0.0
  0
LINE
  5
1532
330
1F
100
AcDbEntity
  8
10
100
AcDbLine
 10
225.0911525721653
 20
255.2184462146333
 30
0.0
 11
225.0911525721653
 21
252.7184462146333
 31
0.0
  0
ARC
  5
1533
330
1F
100
AcDbEntity
  8
10
100
AcDbCircle
 10
226.0411525721654
 20
255.583990498395
 30
0.0
 40
6.634455716238125
100
AcDbArc
 50
59.74743493637903
 51
90.0
  0
LINE
  5
1534
330
1F
100
AcDbEntity
  8
10
100
AcDbLine
 10
223.2911525721651
 20
252.7184462146333
 30
0.0
 11
245.2911525721654
 21
252.7184462146333
 31
0.0
  0
LINE
  5
1535
330
1F
100
AcDbEntity
  8
10
100
AcDbLine
 10
223.2911525721651
 20
250.7184462146333
 30
0.0
 11
245.2911525721654
 21
250.7184462146333
 31
0.0
  0
ARC
  5
1536
330
1F
100
AcDbEntity
  8
10
100
AcDbCircle
 10
234.2911525721654
 20
248.4392809171739
 30
0.0
 40
13.77916529745972
100
AcDbArc
 50
69.1359356360835
 51
110.8640643639164
  0
LINE
  5
1537
330
1F
100
AcDbEntity
  8
10
100
AcDbLine
 10
226.0411525721654
 20
262.2184462146333
 30
0.0
 11
242.5411525721654
 21
262.2184462146333
 31
0.0
  0
LINE
  5
1538
330
1F
100
AcDbEntity
  8
10
100
AcDbLine
 10
224.4761979959419
 20
255.2184462146333
 30
0.0
 11
244.1061071483891
 21
255.2184462146333
 31
0.0
  0
LINE
  5
1539
330
1F
100
AcDbEntity
  8
10
100
AcDbLine
 10
395.2911525721654
 20
252.7184462146333
 30
0.0
 11
395.2911525721654
 21
250.7184462146333
 31
0.0
  0
LINE
  5
153A
330
1F
100
AcDbEntity
  8
10
100
AcDbLine
 10
394.1061071483882
 20
261.3149192687815
 30
0.0
 11
394.1061071483882
 21
255.2184462146333
 31
0.0
  0
LINE
  5
153B
330
1F
100
AcDbEntity
  8
10
100
AcDbLine
 10
389.1986298602771
 20
261.3149192687815
 30
0.0
 11
389.1986298602771
 21
255.2184462146333
 31
0.0
  0
LINE
  5
153C
330
1F
100
AcDbEntity
  8
10
100
AcDbLine
 10
392.5411525721654
 20
262.2184462146333
 30
0.0
 11
394.1061071483882
 21
261.3149192687815
 31
0.0
  0
ARC
  5
153D
330
1F
100
AcDbEntity
  8
10
100
AcDbCircle
 10
392.5411525721654
 20
255.583990498395
 30
0.0
 40
6.634455716238125
100
AcDbArc
 50
90.0
 51
120.2525650636209
  0
LINE
  5
153E
330
1F
100
AcDbEntity
  8
10
100
AcDbLine
 10
393.4911525721652
 20
255.2184462146333
 30
0.0
 11
393.4911525721652
 21
252.7184462146333
 31
0.0
  0
LINE
  5
153F
330
1F
100
AcDbEntity
  8
10
100
AcDbLine
 10
379.3836752840541
 20
261.3149192687815
 30
0.0
 11
379.3836752840541
 21
255.2184462146333
 31
0.0
  0
LINE
  5
1540
330
1F
100
AcDbEntity
  8
10
100
AcDbLine
 10
373.2911525721654
 20
252.7184462146333
 30
0.0
 11
373.2911525721654
 21
250.7184462146333
 31
0.0
  0
LINE
  5
1541
330
1F
100
AcDbEntity
  8
10
100
AcDbLine
 10
374.4761979959421
 20
261.3149192687815
 30
0.0
 11
374.4761979959421
 21
255.2184462146333
 31
0.0
  0
LINE
  5
1542
330
1F
100
AcDbEntity
  8
10
100
AcDbLine
 10
376.0411525721654
 20
262.2184462146333
 30
0.0
 11
374.4761979959421
 21
261.3149192687815
 31
0.0
  0
LINE
  5
1543
330
1F
100
AcDbEntity
  8
10
100
AcDbLine
 10
375.0911525721653
 20
255.2184462146333
 30
0.0
 11
375.0911525721653
 21
252.7184462146333
 31
0.0
  0
ARC
  5
1544
330
1F
100
AcDbEntity
  8
10
100
AcDbCircle
 10
376.0411525721654
 20
255.583990498395
 30
0.0
 40
6.634455716238125
100
AcDbArc
 50
59.74743493637903
 51
90.0
  0
LINE
  5
1545
330
1F
100
AcDbEntity
  8
10
100
AcDbLine
 10
373.2911525721654
 20
252.7184462146333
 30
0.0
 11
395.2911525721654
 21
252.7184462146333
 31
0.0
  0
LINE
  5
1546
330
1F
100
AcDbEntity
  8
10
100
AcDbLine
 10
373.2911525721654
 20
250.7184462146333
 30
0.0
 11
395.2911525721654
 21
250.7184462146333
 31
0.0
  0
ARC
  5
1547
330
1F
100
AcDbEntity
  8
10
100
AcDbCircle
 10
384.2911525721654
 20
248.4392809171739
 30
0.0
 40
13.77916529745972
100
AcDbArc
 50
69.1359356360835
 51
110.8640643639164
  0
LINE
  5
1548
330
1F
100
AcDbEntity
  8
10
100
AcDbLine
 10
376.0411525721654
 20
262.2184462146333
 30
0.0
 11
392.5411525721654
 21
262.2184462146333
 31
0.0
  0
LINE
  5
1549
330
1F
100
AcDbEntity
  8
10
100
AcDbLine
 10
374.4761979959421
 20
255.2184462146333
 30
0.0
 11
394.1061071483882
 21
255.2184462146333
 31
0.0
  0
LINE
  5
154A
330
1F
100
AcDbEntity
  8
10
100
AcDbLine
 10
394.1061071483882
 20
88.3149192687815
 30
0.0
 11
394.1061071483882
 21
82.12197316048605
 31
0.0
  0
LINE
  5
154B
330
1F
100
AcDbEntity
  8
10
100
AcDbLine
 10
395.2911525721654
 20
93.71844621463287
 30
0.0
 11
373.2911525721654
 21
93.71844621463287
 31
0.0
  0
LINE
  5
154C
330
1F
100
AcDbEntity
  8
10
100
AcDbLine
 10
395.2911525721654
 20
91.71844621463288
 30
0.0
 11
373.2911525721654
 21
91.71844621463288
 31
0.0
  0
LINE
  5
154D
330
1F
100
AcDbEntity
  8
10
100
AcDbLine
 10
393.4911525721652
 20
89.21844621463288
 30
0.0
 11
375.0911525721653
 21
89.21844621463288
 31
0.0
  0
ARC
  5
154E
330
1F
100
AcDbEntity
  8
10
100
AcDbCircle
 10
384.2911525721654
 20
75.43928091717408
 30
0.0
 40
13.77916529745972
100
AcDbArc
 50
69.1359356360835
 51
110.8640643639164
  0
LINE
  5
154F
330
1F
100
AcDbEntity
  8
10
100
AcDbLine
 10
376.0411525721654
 20
89.21844621463288
 30
0.0
 11
392.5411525721654
 21
89.21844621463288
 31
0.0
  0
LINE
  5
1550
330
1F
100
AcDbEntity
  8
10
100
AcDbLine
 10
379.3836752840541
 20
88.3149192687815
 30
0.0
 11
379.3836752840541
 21
82.12197316048605
 31
0.0
  0
LINE
  5
1551
330
1F
100
AcDbEntity
  8
10
100
AcDbLine
 10
395.2911525721654
 20
91.71844621463288
 30
0.0
 11
395.2911525721654
 21
93.71844621463287
 31
0.0
  0
LINE
  5
1552
330
1F
100
AcDbEntity
  8
10
100
AcDbLine
 10
373.2911525721654
 20
91.71844621463288
 30
0.0
 11
373.2911525721654
 21
93.71844621463287
 31
0.0
  0
LINE
  5
1553
330
1F
100
AcDbEntity
  8
10
100
AcDbLine
 10
375.0911525721653
 20
89.21844621463288
 30
0.0
 11
375.0911525721653
 21
91.71844621463288
 31
0.0
  0
LINE
  5
1554
330
1F
100
AcDbEntity
  8
10
100
AcDbLine
 10
393.4911525721652
 20
89.21844621463288
 30
0.0
 11
393.4911525721652
 21
91.71844621463288
 31
0.0
  0
LINE
  5
1555
330
1F
100
AcDbEntity
  8
10
100
AcDbLine
 10
392.5411525721654
 20
89.21844621463288
 30
0.0
 11
394.1061071483882
 21
88.3149192687815
 31
0.0
  0
ARC
  5
1556
330
1F
100
AcDbEntity
  8
10
100
AcDbCircle
 10
392.5411525721654
 20
82.58399049839544
 30
0.0
 40
6.634455716238125
100
AcDbArc
 50
90.0
 51
120.2525650636209
  0
LINE
  5
1557
330
1F
100
AcDbEntity
  8
10
100
AcDbLine
 10
392.5411525721654
 20
81.21844621463287
 30
0.0
 11
394.1061071483882
 21
82.12197316048605
 31
0.0
  0
ARC
  5
1558
330
1F
100
AcDbEntity
  8
10
100
AcDbCircle
 10
392.5411525721654
 20
87.85290193087211
 30
0.0
 40
6.634455716238125
100
AcDbArc
 50
239.7474349363788
 51
270.0
  0
LINE
  5
1559
330
1F
100
AcDbEntity
  8
10
100
AcDbLine
 10
376.0411525721654
 20
81.21844621463287
 30
0.0
 11
392.5411525721654
 21
81.21844621463287
 31
0.0
  0
ARC
  5
155A
330
1F
100
AcDbEntity
  8
10
100
AcDbCircle
 10
384.2911525721654
 20
94.99761151209304
 30
0.0
 40
13.77916529745972
100
AcDbArc
 50
249.1359356360835
 51
290.8640643639165
  0
LINE
  5
155B
330
1F
100
AcDbEntity
  8
10
100
AcDbLine
 10
374.4761979959421
 20
88.3149192687815
 30
0.0
 11
374.4761979959421
 21
82.12197316048605
 31
0.0
  0
LINE
  5
155C
330
1F
100
AcDbEntity
  8
10
100
AcDbLine
 10
376.0411525721654
 20
89.21844621463288
 30
0.0
 11
374.4761979959421
 21
88.3149192687815
 31
0.0
  0
ARC
  5
155D
330
1F
100
AcDbEntity
  8
10
100
AcDbCircle
 10
376.0411525721654
 20
82.58399049839544
 30
0.0
 40
6.634455716238125
100
AcDbArc
 50
59.74743493637903
 51
90.0
  0
LINE
  5
155E
330
1F
100
AcDbEntity
  8
10
100
AcDbLine
 10
376.0411525721654
 20
81.21844621463287
 30
0.0
 11
374.4761979959421
 21
82.12197316048605
 31
0.0
  0
ARC
  5
155F
330
1F
100
AcDbEntity
  8
10
100
AcDbCircle
 10
376.0411525721654
 20
87.85290193087211
 30
0.0
 40
6.634455716238125
100
AcDbArc
 50
270.0
 51
300.2525650636208
  0
LINE
  5
1560
330
1F
100
AcDbEntity
  8
10
100
AcDbLine
 10
389.1986298602771
 20
88.3149192687815
 30
0.0
 11
389.1986298602771
 21
82.12197316048605
 31
0.0
  0
LINE
  5
1561
330
1F
100
AcDbEntity
  8
10
100
AcDbLine
 10
389.2911525721654
 20
81.21844621463287
 30
0.0
 11
389.2911525721654
 21
76.71844621463424
 31
0.0
  0
LINE
  5
1562
330
1F
100
AcDbEntity
  8
10
100
AcDbLine
 10
379.2911525721653
 20
76.71844621463424
 30
0.0
 11
389.2911525721654
 21
76.71844621463424
 31
0.0
  0
LINE
  5
1563
330
1F
100
AcDbEntity
  8
10
100
AcDbLine
 10
379.2911525721653
 20
81.21844621463287
 30
0.0
 11
379.2911525721653
 21
76.71844621463424
 31
0.0
  0
LINE
  5
1564
330
1F
100
AcDbEntity
  8
10
100
AcDbLine
 10
244.1061071483891
 20
88.3149192687815
 30
0.0
 11
244.1061071483891
 21
82.12197316048605
 31
0.0
  0
LINE
  5
1565
330
1F
100
AcDbEntity
  8
10
100
AcDbLine
 10
245.2911525721654
 20
93.71844621463287
 30
0.0
 11
223.2911525721651
 21
93.71844621463287
 31
0.0
  0
LINE
  5
1566
330
1F
100
AcDbEntity
  8
10
100
AcDbLine
 10
245.2911525721654
 20
91.71844621463288
 30
0.0
 11
223.2911525721651
 21
91.71844621463288
 31
0.0
  0
LINE
  5
1567
330
1F
100
AcDbEntity
  8
10
100
AcDbLine
 10
243.4911525721654
 20
89.21844621463288
 30
0.0
 11
225.0911525721653
 21
89.21844621463288
 31
0.0
  0
ARC
  5
1568
330
1F
100
AcDbEntity
  8
10
100
AcDbCircle
 10
234.2911525721654
 20
75.43928091717408
 30
0.0
 40
13.77916529745972
100
AcDbArc
 50
69.1359356360835
 51
110.8640643639164
  0
LINE
  5
1569
330
1F
100
AcDbEntity
  8
10
100
AcDbLine
 10
226.0411525721654
 20
89.21844621463288
 30
0.0
 11
242.5411525721654
 21
89.21844621463288
 31
0.0
  0
LINE
  5
156A
330
1F
100
AcDbEntity
  8
10
100
AcDbLine
 10
229.3836752840541
 20
88.3149192687815
 30
0.0
 11
229.3836752840541
 21
82.12197316048605
 31
0.0
  0
LINE
  5
156B
330
1F
100
AcDbEntity
  8
10
100
AcDbLine
 10
245.2911525721654
 20
91.71844621463288
 30
0.0
 11
245.2911525721654
 21
93.71844621463287
 31
0.0
  0
LINE
  5
156C
330
1F
100
AcDbEntity
  8
10
100
AcDbLine
 10
223.2911525721651
 20
91.71844621463288
 30
0.0
 11
223.2911525721651
 21
93.71844621463287
 31
0.0
  0
LINE
  5
156D
330
1F
100
AcDbEntity
  8
10
100
AcDbLine
 10
225.0911525721653
 20
89.21844621463288
 30
0.0
 11
225.0911525721653
 21
91.71844621463288
 31
0.0
  0
LINE
  5
156E
330
1F
100
AcDbEntity
  8
10
100
AcDbLine
 10
243.4911525721663
 20
89.21844621463288
 30
0.0
 11
243.4911525721663
 21
91.71844621463288
 31
0.0
  0
LINE
  5
156F
330
1F
100
AcDbEntity
  8
10
100
AcDbLine
 10
242.5411525721654
 20
89.21844621463288
 30
0.0
 11
244.1061071483891
 21
88.3149192687815
 31
0.0
  0
ARC
  5
1570
330
1F
100
AcDbEntity
  8
10
100
AcDbCircle
 10
242.5411525721654
 20
82.58399049839544
 30
0.0
 40
6.634455716238125
100
AcDbArc
 50
90.0
 51
120.2525650636209
  0
LINE
  5
1571
330
1F
100
AcDbEntity
  8
10
100
AcDbLine
 10
242.5411525721654
 20
81.21844621463287
 30
0.0
 11
244.1061071483891
 21
82.12197316048605
 31
0.0
  0
ARC
  5
1572
330
1F
100
AcDbEntity
  8
10
100
AcDbCircle
 10
242.5411525721654
 20
87.85290193087211
 30
0.0
 40
6.634455716238125
100
AcDbArc
 50
239.7474349363788
 51
270.0
  0
LINE
  5
1573
330
1F
100
AcDbEntity
  8
10
100
AcDbLine
 10
226.0411525721654
 20
81.21844621463287
 30
0.0
 11
242.5411525721654
 21
81.21844621463287
 31
0.0
  0
ARC
  5
1574
330
1F
100
AcDbEntity
  8
10
100
AcDbCircle
 10
234.2911525721654
 20
94.99761151209304
 30
0.0
 40
13.77916529745972
100
AcDbArc
 50
249.1359356360835
 51
290.8640643639165
  0
LINE
  5
1575
330
1F
100
AcDbEntity
  8
10
100
AcDbLine
 10
224.4761979959419
 20
88.3149192687815
 30
0.0
 11
224.4761979959419
 21
82.12197316048605
 31
0.0
  0
LINE
  5
1576
330
1F
100
AcDbEntity
  8
10
100
AcDbLine
 10
226.0411525721654
 20
89.21844621463288
 30
0.0
 11
224.4761979959419
 21
88.3149192687815
 31
0.0
  0
ARC
  5
1577
330
1F
100
AcDbEntity
  8
10
100
AcDbCircle
 10
226.0411525721654
 20
82.58399049839544
 30
0.0
 40
6.634455716238125
100
AcDbArc
 50
59.74743493637903
 51
90.0
  0
LINE
  5
1578
330
1F
100
AcDbEntity
  8
10
100
AcDbLine
 10
226.0411525721654
 20
81.21844621463287
 30
0.0
 11
224.4761979959419
 21
82.12197316048605
 31
0.0
  0
ARC
  5
1579
330
1F
100
AcDbEntity
  8
10
100
AcDbCircle
 10
226.0411525721654
 20
87.85290193087211
 30
0.0
 40
6.634455716238125
100
AcDbArc
 50
270.0
 51
300.2525650636208
  0
LINE
  5
157A
330
1F
100
AcDbEntity
  8
10
100
AcDbLine
 10
239.1986298602771
 20
88.3149192687815
 30
0.0
 11
239.1986298602771
 21
82.12197316048605
 31
0.0
  0
LINE
  5
157B
330
1F
100
AcDbEntity
  8
10
100
AcDbLine
 10
239.2911525721653
 20
81.21844621463287
 30
0.0
 11
239.2911525721653
 21
76.71844621463424
 31
0.0
  0
LINE
  5
157C
330
1F
100
AcDbEntity
  8
10
100
AcDbLine
 10
229.2911525721653
 20
76.71844621463424
 30
0.0
 11
239.2911525721653
 21
76.71844621463424
 31
0.0
  0
LINE
  5
157D
330
1F
100
AcDbEntity
  8
10
100
AcDbLine
 10
229.2911525721653
 20
81.21844621463287
 30
0.0
 11
229.2911525721653
 21
76.71844621463424
 31
0.0
  0
LINE
  5
157E
330
1F
100
AcDbEntity
  8
10
100
AcDbLine
 10
95.29115257216542
 20
93.71844621463287
 30
0.0
 11
73.2911525721654
 21
93.71844621463287
 31
0.0
  0
LINE
  5
157F
330
1F
100
AcDbEntity
  8
10
100
AcDbLine
 10
95.29115257216542
 20
91.71844621463288
 30
0.0
 11
73.2911525721654
 21
91.71844621463288
 31
0.0
  0
LINE
  5
1580
330
1F
100
AcDbEntity
  8
10
100
AcDbLine
 10
95.29115257216542
 20
91.71844621463288
 30
0.0
 11
95.29115257216542
 21
93.71844621463287
 31
0.0
  0
LINE
  5
1581
330
1F
100
AcDbEntity
  8
10
100
AcDbLine
 10
73.2911525721654
 20
91.71844621463288
 30
0.0
 11
73.2911525721654
 21
93.71844621463287
 31
0.0
  0
LINE
  5
1582
330
1F
100
AcDbEntity
  8
10
100
AcDbLine
 10
75.09115257216534
 20
89.21844621463288
 30
0.0
 11
75.09115257216534
 21
91.71844621463288
 31
0.0
  0
LINE
  5
1583
330
1F
100
AcDbEntity
  8
10
100
AcDbLine
 10
93.49115257216636
 20
89.21844621463288
 30
0.0
 11
93.49115257216636
 21
91.71844621463288
 31
0.0
  0
LINE
  5
1584
330
1F
100
AcDbEntity
  8
10
100
AcDbLine
 10
93.49115257216544
 20
89.21844621463288
 30
0.0
 11
75.09115257216534
 21
89.21844621463288
 31
0.0
  0
LINE
  5
1585
330
1F
100
AcDbEntity
  8
10
100
AcDbLine
 10
79.2911525721654
 20
76.71844621463424
 30
0.0
 11
89.29115257216542
 21
76.71844621463424
 31
0.0
  0
LINE
  5
1586
330
1F
100
AcDbEntity
  8
10
100
AcDbLine
 10
89.29115257216542
 20
81.21844621463287
 30
0.0
 11
89.29115257216542
 21
76.71844621463424
 31
0.0
  0
LINE
  5
1587
330
1F
100
AcDbEntity
  8
10
100
AcDbLine
 10
79.2911525721654
 20
81.21844621463287
 30
0.0
 11
79.2911525721654
 21
76.71844621463424
 31
0.0
  0
LINE
  5
1588
330
1F
100
AcDbEntity
  8
10
100
AcDbLine
 10
94.10610714838913
 20
88.3149192687815
 30
0.0
 11
94.10610714838913
 21
82.12197316048605
 31
0.0
  0
LINE
  5
1589
330
1F
100
AcDbEntity
  8
10
100
AcDbLine
 10
89.19862986027714
 20
88.3149192687815
 30
0.0
 11
89.19862986027714
 21
82.12197316048605
 31
0.0
  0
LINE
  5
158A
330
1F
100
AcDbEntity
  8
10
100
AcDbLine
 10
92.54115257216541
 20
89.21844621463288
 30
0.0
 11
94.10610714838913
 21
88.3149192687815
 31
0.0
  0
ARC
  5
158B
330
1F
100
AcDbEntity
  8
10
100
AcDbCircle
 10
92.54115257216541
 20
82.58399049839544
 30
0.0
 40
6.634455716238125
100
AcDbArc
 50
90.0
 51
120.2525650636209
  0
LINE
  5
158C
330
1F
100
AcDbEntity
  8
10
100
AcDbLine
 10
92.54115257216541
 20
81.21844621463287
 30
0.0
 11
94.10610714838913
 21
82.12197316048605
 31
0.0
  0
ARC
  5
158D
330
1F
100
AcDbEntity
  8
10
100
AcDbCircle
 10
92.54115257216541
 20
87.85290193087211
 30
0.0
 40
6.634455716238125
100
AcDbArc
 50
239.7474349363788
 51
270.0
  0
ARC
  5
158E
330
1F
100
AcDbEntity
  8
10
100
AcDbCircle
 10
84.2911525721654
 20
75.43928091717408
 30
0.0
 40
13.77916529745972
100
AcDbArc
 50
69.1359356360835
 51
110.8640643639164
  0
LINE
  5
158F
330
1F
100
AcDbEntity
  8
10
100
AcDbLine
 10
76.0411525721654
 20
89.21844621463288
 30
0.0
 11
92.54115257216541
 21
89.21844621463288
 31
0.0
  0
LINE
  5
1590
330
1F
100
AcDbEntity
  8
10
100
AcDbLine
 10
76.0411525721654
 20
81.21844621463287
 30
0.0
 11
92.54115257216541
 21
81.21844621463287
 31
0.0
  0
ARC
  5
1591
330
1F
100
AcDbEntity
  8
10
100
AcDbCircle
 10
84.2911525721654
 20
94.99761151209304
 30
0.0
 40
13.77916529745972
100
AcDbArc
 50
249.1359356360835
 51
290.8640643639165
  0
LINE
  5
1592
330
1F
100
AcDbEntity
  8
10
100
AcDbLine
 10
74.47619799594213
 20
88.3149192687815
 30
0.0
 11
74.47619799594213
 21
82.12197316048605
 31
0.0
  0
LINE
  5
1593
330
1F
100
AcDbEntity
  8
10
100
AcDbLine
 10
79.38367528405411
 20
88.3149192687815
 30
0.0
 11
79.38367528405411
 21
82.12197316048605
 31
0.0
  0
LINE
  5
1594
330
1F
100
AcDbEntity
  8
10
100
AcDbLine
 10
76.0411525721654
 20
89.21844621463288
 30
0.0
 11
74.47619799594213
 21
88.3149192687815
 31
0.0
  0
ARC
  5
1595
330
1F
100
AcDbEntity
  8
10
100
AcDbCircle
 10
76.0411525721654
 20
82.58399049839544
 30
0.0
 40
6.634455716238125
100
AcDbArc
 50
59.74743493637903
 51
90.0
  0
LINE
  5
1596
330
1F
100
AcDbEntity
  8
10
100
AcDbLine
 10
76.0411525721654
 20
81.21844621463287
 30
0.0
 11
74.47619799594213
 21
82.12197316048605
 31
0.0
  0
ARC
  5
1597
330
1F
100
AcDbEntity
  8
10
100
AcDbCircle
 10
76.0411525721654
 20
87.85290193087211
 30
0.0
 40
6.634455716238125
100
AcDbArc
 50
270.0
 51
300.2525650636208
  0
LINE
  5
1599
330
1F
100
AcDbEntity
  8
10
100
AcDbLine
 10
50.29115257216539
 20
262.9034916384103
 30
0.0
 11
58.7911525721654
 21
267.8109689265211
 31
0.0
  0
CIRCLE
  5
159A
330
1F
100
AcDbEntity
  8
10
100
AcDbCircle
 10
50.29115257216539
 20
272.7184462146333
 30
0.0
 40
8.499999999999994
  0
LINE
  5
159B
330
1F
100
AcDbEntity
  8
10
100
AcDbLine
 10
58.7911525721654
 20
267.8109689265211
 30
0.0
 11
58.7911525721654
 21
277.625923502745
 31
0.0
  0
LINE
  5
159C
330
1F
100
AcDbEntity
  8
10
100
AcDbLine
 10
41.79115257216539
 20
267.8109689265211
 30
0.0
 11
50.29115257216539
 21
262.9034916384103
 31
0.0
  0
LINE
  5
159D
330
1F
100
AcDbEntity
  8
10
100
AcDbLine
 10
50.29115257216539
 20
282.5334007908572
 30
0.0
 11
41.79115257216539
 21
277.625923502745
 31
0.0
  0
LINE
  5
159E
330
1F
100
AcDbEntity
  8
10
100
AcDbLine
 10
58.7911525721654
 20
277.625923502745
 30
0.0
 11
50.29115257216539
 21
282.5334007908572
 31
0.0
  0
LINE
  5
159F
330
1F
100
AcDbEntity
  8
10
100
AcDbLine
 10
41.79115257216539
 20
277.625923502745
 30
0.0
 11
41.79115257216539
 21
267.8109689265211
 31
0.0
  0
CIRCLE
  5
15A0
330
1F
100
AcDbEntity
  8
10
100
AcDbCircle
 10
120.2911525721654
 20
272.7184462146333
 30
0.0
 40
8.499999999999994
  0
LINE
  5
15A1
330
1F
100
AcDbEntity
  8
10
100
AcDbLine
 10
120.2911525721654
 20
262.9034916384103
 30
0.0
 11
128.7911525721654
 21
267.8109689265211
 31
0.0
  0
LINE
  5
15A2
330
1F
100
AcDbEntity
  8
10
100
AcDbLine
 10
120.2911525721654
 20
282.5334007908572
 30
0.0
 11
111.7911525721654
 21
277.625923502745
 31
0.0
  0
LINE
  5
15A3
330
1F
100
AcDbEntity
  8
10
100
AcDbLine
 10
128.7911525721654
 20
277.625923502745
 30
0.0
 11
120.2911525721654
 21
282.5334007908572
 31
0.0
  0
LINE
  5
15A4
330
1F
100
AcDbEntity
  8
10
100
AcDbLine
 10
111.7911525721654
 20
267.8109689265211
 30
0.0
 11
120.2911525721654
 21
262.9034916384103
 31
0.0
  0
LINE
  5
15A5
330
1F
100
AcDbEntity
  8
10
100
AcDbLine
 10
111.7911525721654
 20
277.625923502745
 30
0.0
 11
111.7911525721654
 21
267.8109689265211
 31
0.0
  0
LINE
  5
15A6
330
1F
100
AcDbEntity
  8
10
100
AcDbLine
 10
128.7911525721654
 20
267.8109689265211
 30
0.0
 11
128.7911525721654
 21
277.625923502745
 31
0.0
  0
CIRCLE
  5
15A7
330
1F
100
AcDbEntity
  8
10
100
AcDbCircle
 10
199.2911525721654
 20
272.7184462146333
 30
0.0
 40
8.499999999999994
  0
LINE
  5
15A8
330
1F
100
AcDbEntity
  8
10
100
AcDbLine
 10
199.2911525721654
 20
262.9034916384103
 30
0.0
 11
207.7911525721654
 21
267.8109689265211
 31
0.0
  0
LINE
  5
15A9
330
1F
100
AcDbEntity
  8
10
100
AcDbLine
 10
199.2911525721654
 20
282.5334007908572
 30
0.0
 11
190.7911525721654
 21
277.625923502745
 31
0.0
  0
LINE
  5
15AA
330
1F
100
AcDbEntity
  8
10
100
AcDbLine
 10
207.7911525721654
 20
277.625923502745
 30
0.0
 11
199.2911525721654
 21
282.5334007908572
 31
0.0
  0
LINE
  5
15AB
330
1F
100
AcDbEntity
  8
10
100
AcDbLine
 10
190.7911525721654
 20
267.8109689265211
 30
0.0
 11
199.2911525721654
 21
262.9034916384103
 31
0.0
  0
LINE
  5
15AC
330
1F
100
AcDbEntity
  8
10
100
AcDbLine
 10
190.7911525721654
 20
277.625923502745
 30
0.0
 11
190.7911525721654
 21
267.8109689265211
 31
0.0
  0
LINE
  5
15AD
330
1F
100
AcDbEntity
  8
10
100
AcDbLine
 10
207.7911525721654
 20
267.8109689265211
 30
0.0
 11
207.7911525721654
 21
277.625923502745
 31
0.0
  0
CIRCLE
  5
15AE
330
1F
100
AcDbEntity
  8
10
100
AcDbCircle
 10
269.2911525721654
 20
272.7184462146333
 30
0.0
 40
8.499999999999994
  0
LINE
  5
15AF
330
1F
100
AcDbEntity
  8
10
100
AcDbLine
 10
269.2911525721654
 20
262.9034916384103
 30
0.0
 11
277.7911525721654
 21
267.8109689265211
 31
0.0
  0
LINE
  5
15B0
330
1F
100
AcDbEntity
  8
10
100
AcDbLine
 10
269.2911525721654
 20
282.5334007908572
 30
0.0
 11
260.7911525721651
 21
277.625923502745
 31
0.0
  0
LINE
  5
15B1
330
1F
100
AcDbEntity
  8
10
100
AcDbLine
 10
277.7911525721654
 20
277.625923502745
 30
0.0
 11
269.2911525721654
 21
282.5334007908572
 31
0.0
  0
LINE
  5
15B2
330
1F
100
AcDbEntity
  8
10
100
AcDbLine
 10
260.7911525721651
 20
267.8109689265211
 30
0.0
 11
269.2911525721654
 21
262.9034916384103
 31
0.0
  0
LINE
  5
15B3
330
1F
100
AcDbEntity
  8
10
100
AcDbLine
 10
260.7911525721651
 20
277.625923502745
 30
0.0
 11
260.7911525721651
 21
267.8109689265211
 31
0.0
  0
LINE
  5
15B4
330
1F
100
AcDbEntity
  8
10
100
AcDbLine
 10
277.7911525721654
 20
267.8109689265211
 30
0.0
 11
277.7911525721654
 21
277.625923502745
 31
0.0
  0
CIRCLE
  5
15B5
330
1F
100
AcDbEntity
  8
10
100
AcDbCircle
 10
348.2911525721654
 20
272.7184462146333
 30
0.0
 40
8.499999999999994
  0
LINE
  5
15B6
330
1F
100
AcDbEntity
  8
10
100
AcDbLine
 10
348.2911525721654
 20
262.9034916384103
 30
0.0
 11
356.7911525721654
 21
267.8109689265211
 31
0.0
  0
LINE
  5
15B7
330
1F
100
AcDbEntity
  8
10
100
AcDbLine
 10
348.2911525721654
 20
282.5334007908572
 30
0.0
 11
339.7911525721653
 21
277.625923502745
 31
0.0
  0
LINE
  5
15B8
330
1F
100
AcDbEntity
  8
10
100
AcDbLine
 10
356.7911525721654
 20
277.625923502745
 30
0.0
 11
348.2911525721654
 21
282.5334007908572
 31
0.0
  0
LINE
  5
15B9
330
1F
100
AcDbEntity
  8
10
100
AcDbLine
 10
339.7911525721653
 20
267.8109689265211
 30
0.0
 11
348.2911525721654
 21
262.9034916384103
 31
0.0
  0
LINE
  5
15BA
330
1F
100
AcDbEntity
  8
10
100
AcDbLine
 10
339.7911525721653
 20
277.625923502745
 30
0.0
 11
339.7911525721653
 21
267.8109689265211
 31
0.0
  0
LINE
  5
15BB
330
1F
100
AcDbEntity
  8
10
100
AcDbLine
 10
356.7911525721654
 20
267.8109689265211
 30
0.0
 11
356.7911525721654
 21
277.625923502745
 31
0.0
  0
CIRCLE
  5
15BC
330
1F
100
AcDbEntity
  8
10
100
AcDbCircle
 10
418.2911525721654
 20
272.7184462146333
 30
0.0
 40
8.499999999999994
  0
LINE
  5
15BD
330
1F
100
AcDbEntity
  8
10
100
AcDbLine
 10
418.2911525721654
 20
262.9034916384103
 30
0.0
 11
426.7911525721654
 21
267.8109689265211
 31
0.0
  0
LINE
  5
15BE
330
1F
100
AcDbEntity
  8
10
100
AcDbLine
 10
418.2911525721654
 20
282.5334007908572
 30
0.0
 11
409.7911525721654
 21
277.625923502745
 31
0.0
  0
LINE
  5
15BF
330
1F
100
AcDbEntity
  8
10
100
AcDbLine
 10
426.7911525721654
 20
277.625923502745
 30
0.0
 11
418.2911525721654
 21
282.5334007908572
 31
0.0
  0
LINE
  5
15C0
330
1F
100
AcDbEntity
  8
10
100
AcDbLine
 10
409.7911525721654
 20
267.8109689265211
 30
0.0
 11
418.2911525721654
 21
262.9034916384103
 31
0.0
  0
LINE
  5
15C1
330
1F
100
AcDbEntity
  8
10
100
AcDbLine
 10
409.7911525721654
 20
277.625923502745
 30
0.0
 11
409.7911525721654
 21
267.8109689265211
 31
0.0
  0
LINE
  5
15C2
330
1F
100
AcDbEntity
  8
10
100
AcDbLine
 10
426.7911525721654
 20
267.8109689265211
 30
0.0
 11
426.7911525721654
 21
277.625923502745
 31
0.0
  0
LINE
  5
15C3
330
1F
100
AcDbEntity
  8
10
100
AcDbLine
 10
58.7911525721654
 20
77.62592350274508
 30
0.0
 11
50.29115257216539
 21
82.53340079085729
 31
0.0
  0
LINE
  5
15C4
330
1F
100
AcDbEntity
  8
10
100
AcDbLine
 10
50.29115257216539
 20
82.53340079085729
 30
0.0
 11
41.79115257216539
 21
77.62592350274508
 31
0.0
  0
LINE
  5
15C5
330
1F
100
AcDbEntity
  8
10
100
AcDbLine
 10
41.79115257216539
 20
67.81096892652204
 30
0.0
 11
50.29115257216539
 21
62.90349163841028
 31
0.0
  0
LINE
  5
15C6
330
1F
100
AcDbEntity
  8
10
100
AcDbLine
 10
50.29115257216539
 20
62.90349163841028
 30
0.0
 11
58.7911525721654
 21
67.81096892652204
 31
0.0
  0
CIRCLE
  5
15C7
330
1F
100
AcDbEntity
  8
10
100
AcDbCircle
 10
50.29115257216539
 20
72.71844621463424
 30
0.0
 40
8.499999999999994
  0
LINE
  5
15C8
330
1F
100
AcDbEntity
  8
10
100
AcDbLine
 10
41.79115257216539
 20
77.62592350274508
 30
0.0
 11
41.79115257216539
 21
67.81096892652204
 31
0.0
  0
LINE
  5
15C9
330
1F
100
AcDbEntity
  8
10
100
AcDbLine
 10
58.7911525721654
 20
67.81096892652204
 30
0.0
 11
58.7911525721654
 21
77.62592350274508
 31
0.0
  0
LINE
  5
15CA
330
1F
100
AcDbEntity
  8
10
100
AcDbLine
 10
120.2911525721654
 20
82.53340079085729
 30
0.0
 11
111.7911525721654
 21
77.62592350274508
 31
0.0
  0
LINE
  5
15CB
330
1F
100
AcDbEntity
  8
10
100
AcDbLine
 10
128.7911525721654
 20
77.62592350274508
 30
0.0
 11
120.2911525721654
 21
82.53340079085729
 31
0.0
  0
LINE
  5
15CC
330
1F
100
AcDbEntity
  8
10
100
AcDbLine
 10
111.7911525721654
 20
67.81096892652204
 30
0.0
 11
120.2911525721654
 21
62.90349163841028
 31
0.0
  0
LINE
  5
15CD
330
1F
100
AcDbEntity
  8
10
100
AcDbLine
 10
120.2911525721654
 20
62.90349163841028
 30
0.0
 11
128.7911525721654
 21
67.81096892652204
 31
0.0
  0
CIRCLE
  5
15CE
330
1F
100
AcDbEntity
  8
10
100
AcDbCircle
 10
120.2911525721654
 20
72.71844621463424
 30
0.0
 40
8.499999999999994
  0
LINE
  5
15CF
330
1F
100
AcDbEntity
  8
10
100
AcDbLine
 10
111.7911525721654
 20
77.62592350274508
 30
0.0
 11
111.7911525721654
 21
67.81096892652204
 31
0.0
  0
LINE
  5
15D0
330
1F
100
AcDbEntity
  8
10
100
AcDbLine
 10
128.7911525721654
 20
67.81096892652204
 30
0.0
 11
128.7911525721654
 21
77.62592350274508
 31
0.0
  0
LINE
  5
15D1
330
1F
100
AcDbEntity
  8
10
100
AcDbLine
 10
207.7911525721654
 20
67.81096892652204
 30
0.0
 11
207.7911525721654
 21
77.62592350274508
 31
0.0
  0
LINE
  5
15D2
330
1F
100
AcDbEntity
  8
10
100
AcDbLine
 10
199.2911525721654
 20
82.53340079085729
 30
0.0
 11
190.7911525721654
 21
77.62592350274508
 31
0.0
  0
LINE
  5
15D3
330
1F
100
AcDbEntity
  8
10
100
AcDbLine
 10
207.7911525721654
 20
77.62592350274508
 30
0.0
 11
199.2911525721654
 21
82.53340079085729
 31
0.0
  0
LINE
  5
15D4
330
1F
100
AcDbEntity
  8
10
100
AcDbLine
 10
190.7911525721654
 20
67.81096892652204
 30
0.0
 11
199.2911525721654
 21
62.90349163841028
 31
0.0
  0
LINE
  5
15D5
330
1F
100
AcDbEntity
  8
10
100
AcDbLine
 10
199.2911525721654
 20
62.90349163841028
 30
0.0
 11
207.7911525721654
 21
67.81096892652204
 31
0.0
  0
CIRCLE
  5
15D6
330
1F
100
AcDbEntity
  8
10
100
AcDbCircle
 10
199.2911525721654
 20
72.71844621463424
 30
0.0
 40
8.499999999999994
  0
LINE
  5
15D7
330
1F
100
AcDbEntity
  8
10
100
AcDbLine
 10
190.7911525721654
 20
77.62592350274508
 30
0.0
 11
190.7911525721654
 21
67.81096892652204
 31
0.0
  0
LINE
  5
15D8
330
1F
100
AcDbEntity
  8
10
100
AcDbLine
 10
260.7911525721651
 20
77.62592350274508
 30
0.0
 11
260.7911525721651
 21
67.81096892652204
 31
0.0
  0
LINE
  5
15D9
330
1F
100
AcDbEntity
  8
10
100
AcDbLine
 10
269.2911525721654
 20
82.53340079085729
 30
0.0
 11
260.7911525721651
 21
77.62592350274508
 31
0.0
  0
LINE
  5
15DA
330
1F
100
AcDbEntity
  8
10
100
AcDbLine
 10
277.7911525721654
 20
77.62592350274508
 30
0.0
 11
269.2911525721654
 21
82.53340079085729
 31
0.0
  0
LINE
  5
15DB
330
1F
100
AcDbEntity
  8
10
100
AcDbLine
 10
260.7911525721651
 20
67.81096892652204
 30
0.0
 11
269.2911525721654
 21
62.90349163841028
 31
0.0
  0
LINE
  5
15DC
330
1F
100
AcDbEntity
  8
10
100
AcDbLine
 10
269.2911525721654
 20
62.90349163841028
 30
0.0
 11
277.7911525721654
 21
67.81096892652204
 31
0.0
  0
CIRCLE
  5
15DD
330
1F
100
AcDbEntity
  8
10
100
AcDbCircle
 10
269.2911525721654
 20
72.71844621463424
 30
0.0
 40
8.499999999999994
  0
LINE
  5
15DE
330
1F
100
AcDbEntity
  8
10
100
AcDbLine
 10
277.7911525721654
 20
67.81096892652204
 30
0.0
 11
277.7911525721654
 21
77.62592350274508
 31
0.0
  0
LINE
  5
15DF
330
1F
100
AcDbEntity
  8
10
100
AcDbLine
 10
348.2911525721654
 20
82.53340079085729
 30
0.0
 11
339.7911525721653
 21
77.62592350274508
 31
0.0
  0
LINE
  5
15E0
330
1F
100
AcDbEntity
  8
10
100
AcDbLine
 10
356.7911525721654
 20
77.62592350274508
 30
0.0
 11
348.2911525721654
 21
82.53340079085729
 31
0.0
  0
LINE
  5
15E1
330
1F
100
AcDbEntity
  8
10
100
AcDbLine
 10
339.7911525721653
 20
67.81096892652204
 30
0.0
 11
348.2911525721654
 21
62.90349163841028
 31
0.0
  0
LINE
  5
15E2
330
1F
100
AcDbEntity
  8
10
100
AcDbLine
 10
348.2911525721654
 20
62.90349163841028
 30
0.0
 11
356.7911525721654
 21
67.81096892652204
 31
0.0
  0
CIRCLE
  5
15E3
330
1F
100
AcDbEntity
  8
10
100
AcDbCircle
 10
348.2911525721654
 20
72.71844621463424
 30
0.0
 40
8.499999999999994
  0
LINE
  5
15E4
330
1F
100
AcDbEntity
  8
10
100
AcDbLine
 10
339.7911525721653
 20
77.62592350274508
 30
0.0
 11
339.7911525721653
 21
67.81096892652204
 31
0.0
  0
LINE
  5
15E5
330
1F
100
AcDbEntity
  8
10
100
AcDbLine
 10
356.7911525721654
 20
67.81096892652204
 30
0.0
 11
356.7911525721654
 21
77.62592350274508
 31
0.0
  0
LINE
  5
15E6
330
1F
100
AcDbEntity
  8
10
100
AcDbLine
 10
418.2911525721654
 20
82.53340079085729
 30
0.0
 11
409.7911525721654
 21
77.62592350274508
 31
0.0
  0
LINE
  5
15E7
330
1F
100
AcDbEntity
  8
10
100
AcDbLine
 10
426.7911525721654
 20
77.62592350274508
 30
0.0
 11
418.2911525721654
 21
82.53340079085729
 31
0.0
  0
LINE
  5
15E8
330
1F
100
AcDbEntity
  8
10
100
AcDbLine
 10
409.7911525721654
 20
67.81096892652204
 30
0.0
 11
418.2911525721654
 21
62.90349163841028
 31
0.0
  0
LINE
  5
15E9
330
1F
100
AcDbEntity
  8
10
100
AcDbLine
 10
418.2911525721654
 20
62.90349163841028
 30
0.0
 11
426.7911525721654
 21
67.81096892652204
 31
0.0
  0
CIRCLE
  5
15EA
330
1F
100
AcDbEntity
  8
10
100
AcDbCircle
 10
418.2911525721654
 20
72.71844621463424
 30
0.0
 40
8.499999999999994
  0
LINE
  5
15EB
330
1F
100
AcDbEntity
  8
10
100
AcDbLine
 10
409.7911525721654
 20
77.62592350274508
 30
0.0
 11
409.7911525721654
 21
67.81096892652204
 31
0.0
  0
LINE
  5
15EC
330
1F
100
AcDbEntity
  8
10
100
AcDbLine
 10
426.7911525721654
 20
67.81096892652204
 30
0.0
 11
426.7911525721654
 21
77.62592350274508
 31
0.0
  0
ARC
  5
15ED
330
1F
100
AcDbEntity
  8
10
100
AcDbCircle
 10
892.1344018318164
 20
333.8529019308726
 30
0.0
 40
6.634455716238125
100
AcDbArc
 50
239.7474349363788
 51
270.0
  0
LINE
  5
15EE
330
1F
100
AcDbEntity
  8
10
100
AcDbLine
 10
892.1344018318164
 20
327.2184462146333
 30
0.0
 11
875.6344018318163
 21
327.2184462146333
 31
0.0
  0
LINE
  5
15EF
330
1F
100
AcDbEntity
  8
10
100
AcDbLine
 10
893.699356408039
 20
334.2184462146333
 30
0.0
 11
874.0694472555928
 21
334.2184462146333
 31
0.0
  0
ARC
  5
15F0
330
1F
100
AcDbEntity
  8
10
100
AcDbCircle
 10
883.8844018318164
 20
340.997611512093
 30
0.0
 40
13.77916529745972
100
AcDbArc
 50
249.1359356360835
 51
290.8640643639165
  0
LINE
  5
15F1
330
1F
100
AcDbEntity
  8
10
100
AcDbLine
 10
894.8844018318164
 20
338.7184462146338
 30
0.0
 11
872.8844018318163
 21
338.7184462146338
 31
0.0
  0
LINE
  5
15F2
330
1F
100
AcDbEntity
  8
10
100
AcDbLine
 10
894.8844018318164
 20
336.7184462146333
 30
0.0
 11
872.8844018318163
 21
336.7184462146333
 31
0.0
  0
LINE
  5
15F3
330
1F
100
AcDbEntity
  8
10
100
AcDbLine
 10
893.0844018318161
 20
334.2184462146333
 30
0.0
 11
893.0844018318161
 21
336.7184462146333
 31
0.0
  0
LINE
  5
15F4
330
1F
100
AcDbEntity
  8
10
100
AcDbLine
 10
892.1344018318164
 20
327.2184462146333
 30
0.0
 11
893.699356408039
 21
328.1219731604859
 31
0.0
  0
LINE
  5
15F5
330
1F
100
AcDbEntity
  8
10
100
AcDbLine
 10
894.8844018318164
 20
336.7184462146333
 30
0.0
 11
894.8844018318164
 21
338.7184462146338
 31
0.0
  0
LINE
  5
15F6
330
1F
100
AcDbEntity
  8
10
100
AcDbLine
 10
888.7918791199281
 20
328.1219731604859
 30
0.0
 11
888.7918791199281
 21
334.2184462146333
 31
0.0
  0
LINE
  5
15F7
330
1F
100
AcDbEntity
  8
10
100
AcDbLine
 10
874.684401831816
 20
334.2184462146333
 30
0.0
 11
874.684401831816
 21
336.7184462146333
 31
0.0
  0
ARC
  5
15F8
330
1F
100
AcDbEntity
  8
10
100
AcDbCircle
 10
875.6344018318163
 20
333.8529019308726
 30
0.0
 40
6.634455716238125
100
AcDbArc
 50
270.0
 51
300.2525650636208
  0
LINE
  5
15F9
330
1F
100
AcDbEntity
  8
10
100
AcDbLine
 10
875.6344018318163
 20
327.2184462146333
 30
0.0
 11
874.0694472555928
 21
328.1219731604859
 31
0.0
  0
LINE
  5
15FA
330
1F
100
AcDbEntity
  8
10
100
AcDbLine
 10
878.9769245437051
 20
328.1219731604859
 30
0.0
 11
878.9769245437051
 21
334.2184462146333
 31
0.0
  0
LINE
  5
15FB
330
1F
100
AcDbEntity
  8
10
100
AcDbLine
 10
874.0694472555928
 20
328.1219731604859
 30
0.0
 11
874.0694472555928
 21
334.2184462146333
 31
0.0
  0
LINE
  5
15FC
330
1F
100
AcDbEntity
  8
10
100
AcDbLine
 10
872.8844018318163
 20
336.7184462146333
 30
0.0
 11
872.8844018318163
 21
338.7184462146338
 31
0.0
  0
LINE
  5
15FD
330
1F
100
AcDbEntity
  8
10
100
AcDbLine
 10
893.699356408039
 20
328.1219731604859
 30
0.0
 11
893.699356408039
 21
334.2184462146333
 31
0.0
  0
LWPOLYLINE
  5
15FE
330
1F
100
AcDbEntity
  8
10
100
AcDbPolyline
 90
       13
 70
     0
 43
0.0
 10
858.8844018318164
 20
344.7184462146333
 10
902.8844018318164
 20
344.7184462146333
 42
-0.4142135623730951
 10
908.8844018318164
 20
338.7184462146333
 10
908.8844018318164
 20
250.7184462146333
 42
-0.4142135623730951
 10
902.8844018318164
 20
244.7184462146333
 10
858.8844018318164
 20
244.7184462146333
 10
858.8844018318164
 20
250.7184462146333
 10
899.8844018318164
 20
250.7184462146333
 42
0.4142135623730951
 10
902.8844018318164
 20
253.7184462146333
 10
902.8844018318164
 20
335.7184462146333
 42
0.4142135623730953
 10
899.8844018318164
 20
338.7184462146338
 10
858.8844018318164
 20
338.7184462146338
 10
858.8844018318164
 20
344.7184462146333
  0
LINE
  5
15FF
330
1F
100
AcDbEntity
  8
10
100
AcDbLine
 10
874.0694472555928
 20
252.7184462146333
 30
0.0
 11
893.6993564080403
 21
252.7184462146333
 31
0.0
  0
LINE
  5
1600
330
1F
100
AcDbEntity
  8
10
100
AcDbLine
 10
875.6344018318172
 20
259.7184462146333
 30
0.0
 11
892.1344018318173
 21
259.7184462146333
 31
0.0
  0
ARC
  5
1601
330
1F
100
AcDbEntity
  8
10
100
AcDbCircle
 10
883.8844018318173
 20
245.939280917174
 30
0.0
 40
13.77916529745972
100
AcDbArc
 50
69.1359356360835
 51
110.8640643639164
  0
LINE
  5
1602
330
1F
100
AcDbEntity
  8
10
100
AcDbLine
 10
872.8844018318172
 20
250.7184462146333
 30
0.0
 11
894.8844018318172
 21
250.7184462146333
 31
0.0
  0
LINE
  5
1603
330
1F
100
AcDbEntity
  8
10
100
AcDbLine
 10
872.8844018318172
 20
252.7184462146333
 30
0.0
 11
894.8844018318172
 21
252.7184462146333
 31
0.0
  0
ARC
  5
1604
330
1F
100
AcDbEntity
  8
10
100
AcDbCircle
 10
875.6344018318172
 20
253.0839904983948
 30
0.0
 40
6.634455716238125
100
AcDbArc
 50
59.74743493637903
 51
90.0
  0
LINE
  5
1605
330
1F
100
AcDbEntity
  8
10
100
AcDbLine
 10
875.6344018318172
 20
259.7184462146333
 30
0.0
 11
874.0694472555928
 21
258.8149192687815
 31
0.0
  0
LINE
  5
1606
330
1F
100
AcDbEntity
  8
10
100
AcDbLine
 10
874.0694472555928
 20
258.8149192687815
 30
0.0
 11
874.0694472555928
 21
252.7184462146333
 31
0.0
  0
LINE
  5
1607
330
1F
100
AcDbEntity
  8
10
100
AcDbLine
 10
872.8844018318172
 20
252.7184462146333
 30
0.0
 11
872.8844018318172
 21
250.7184462146333
 31
0.0
  0
LINE
  5
1608
330
1F
100
AcDbEntity
  8
10
100
AcDbLine
 10
878.9769245437051
 20
258.8149192687815
 30
0.0
 11
878.9769245437051
 21
252.7184462146333
 31
0.0
  0
ARC
  5
1609
330
1F
100
AcDbEntity
  8
10
100
AcDbCircle
 10
892.1344018318173
 20
253.0839904983948
 30
0.0
 40
6.634455716238125
100
AcDbArc
 50
90.0
 51
120.2525650636209
  0
LINE
  5
160A
330
1F
100
AcDbEntity
  8
10
100
AcDbLine
 10
892.1344018318173
 20
259.7184462146333
 30
0.0
 11
893.6993564080403
 21
258.8149192687815
 31
0.0
  0
LINE
  5
160B
330
1F
100
AcDbEntity
  8
10
100
AcDbLine
 10
888.7918791199281
 20
258.8149192687815
 30
0.0
 11
888.7918791199281
 21
252.7184462146333
 31
0.0
  0
LINE
  5
160C
330
1F
100
AcDbEntity
  8
10
100
AcDbLine
 10
893.6993564080403
 20
258.8149192687815
 30
0.0
 11
893.6993564080403
 21
252.7184462146333
 31
0.0
  0
LINE
  5
160D
330
1F
100
AcDbEntity
  8
10
100
AcDbLine
 10
894.8844018318172
 20
252.7184462146333
 30
0.0
 11
894.8844018318172
 21
250.7184462146333
 31
0.0
  0
LINE
  5
160E
330
1F
100
AcDbEntity
  8
10
100
AcDbLine
 10
894.8844018318172
 20
93.71844621463287
 30
0.0
 11
872.8844018318172
 21
93.71844621463287
 31
0.0
  0
LINE
  5
160F
330
1F
100
AcDbEntity
  8
10
100
AcDbLine
 10
894.8844018318172
 20
91.71844621463288
 30
0.0
 11
872.8844018318172
 21
91.71844621463288
 31
0.0
  0
LINE
  5
1610
330
1F
100
AcDbEntity
  8
10
100
AcDbLine
 10
893.084401831817
 20
89.21844621463288
 30
0.0
 11
874.6844018318169
 21
89.21844621463288
 31
0.0
  0
ARC
  5
1611
330
1F
100
AcDbEntity
  8
10
100
AcDbCircle
 10
883.8844018318173
 20
75.43928091717408
 30
0.0
 40
13.77916529745972
100
AcDbArc
 50
69.1359356360835
 51
110.8640643639164
  0
LINE
  5
1612
330
1F
100
AcDbEntity
  8
10
100
AcDbLine
 10
875.6344018318172
 20
89.21844621463288
 30
0.0
 11
892.1344018318173
 21
89.21844621463288
 31
0.0
  0
LINE
  5
1613
330
1F
100
AcDbEntity
  8
10
100
AcDbLine
 10
878.9769245437051
 20
88.3149192687815
 30
0.0
 11
878.9769245437051
 21
82.12197316048605
 31
0.0
  0
LINE
  5
1614
330
1F
100
AcDbEntity
  8
10
100
AcDbLine
 10
894.8844018318172
 20
91.71844621463288
 30
0.0
 11
894.8844018318172
 21
93.71844621463287
 31
0.0
  0
LINE
  5
1615
330
1F
100
AcDbEntity
  8
10
100
AcDbLine
 10
872.8844018318172
 20
91.71844621463288
 30
0.0
 11
872.8844018318172
 21
93.71844621463287
 31
0.0
  0
LINE
  5
1616
330
1F
100
AcDbEntity
  8
10
100
AcDbLine
 10
874.6844018318169
 20
89.21844621463288
 30
0.0
 11
874.6844018318169
 21
91.71844621463288
 31
0.0
  0
LINE
  5
1617
330
1F
100
AcDbEntity
  8
10
100
AcDbLine
 10
893.084401831817
 20
89.21844621463288
 30
0.0
 11
893.084401831817
 21
91.71844621463288
 31
0.0
  0
LINE
  5
1618
330
1F
100
AcDbEntity
  8
10
100
AcDbLine
 10
893.6993564080403
 20
88.3149192687815
 30
0.0
 11
893.6993564080411
 21
82.53340079085729
 31
0.0
  0
LINE
  5
1619
330
1F
100
AcDbEntity
  8
10
100
AcDbLine
 10
892.1344018318173
 20
89.21844621463288
 30
0.0
 11
893.6993564080403
 21
88.3149192687815
 31
0.0
  0
ARC
  5
161A
330
1F
100
AcDbEntity
  8
10
100
AcDbCircle
 10
892.1344018318173
 20
82.58399049839544
 30
0.0
 40
6.634455716238125
100
AcDbArc
 50
90.0
 51
120.2525650636209
  0
ARC
  5
161B
330
1F
100
AcDbEntity
  8
10
100
AcDbCircle
 10
892.1344018318173
 20
87.85290193087211
 30
0.0
 40
6.634455716238125
100
AcDbArc
 50
239.7474349363788
 51
243.4430243500713
  0
LINE
  5
161C
330
1F
100
AcDbEntity
  8
10
100
AcDbLine
 10
875.6344018318172
 20
81.21844621463287
 30
0.0
 11
880.0287393991133
 21
81.21844621463287
 31
0.0
  0
ARC
  5
161D
330
1F
100
AcDbEntity
  8
10
100
AcDbCircle
 10
883.8844018318173
 20
94.99761151209304
 30
0.0
 40
13.77916529745972
100
AcDbArc
 50
249.1359356360835
 51
254.9318680966468
  0
LINE
  5
161E
330
1F
100
AcDbEntity
  8
10
100
AcDbLine
 10
874.0694472555928
 20
88.3149192687815
 30
0.0
 11
874.0694472555928
 21
82.12197316048605
 31
0.0
  0
LINE
  5
161F
330
1F
100
AcDbEntity
  8
10
100
AcDbLine
 10
875.6344018318172
 20
89.21844621463288
 30
0.0
 11
874.0694472555928
 21
88.3149192687815
 31
0.0
  0
ARC
  5
1620
330
1F
100
AcDbEntity
  8
10
100
AcDbCircle
 10
875.6344018318172
 20
82.58399049839544
 30
0.0
 40
6.634455716238125
100
AcDbArc
 50
59.74743493637903
 51
90.0
  0
LINE
  5
1621
330
1F
100
AcDbEntity
  8
10
100
AcDbLine
 10
875.6344018318172
 20
81.21844621463287
 30
0.0
 11
874.0694472555928
 21
82.12197316048605
 31
0.0
  0
ARC
  5
1622
330
1F
100
AcDbEntity
  8
10
100
AcDbCircle
 10
875.6344018318172
 20
87.85290193087211
 30
0.0
 40
6.634455716238125
100
AcDbArc
 50
270.0
 51
300.2525650636208
  0
LINE
  5
1623
330
1F
100
AcDbEntity
  8
10
100
AcDbLine
 10
888.7918791199281
 20
88.3149192687815
 30
0.0
 11
888.7918791199281
 21
82.12197316048605
 31
0.0
  0
LINE
  5
1624
330
1F
100
AcDbEntity
  8
10
100
AcDbLine
 10
878.8844018318172
 20
76.71844621463424
 30
0.0
 11
879.8844018318161
 21
76.71844621463424
 31
0.0
  0
LINE
  5
1625
330
1F
100
AcDbEntity
  8
10
100
AcDbLine
 10
878.8844018318172
 20
81.21844621463287
 30
0.0
 11
878.8844018318172
 21
76.71844621463424
 31
0.0
  0
LWPOLYLINE
  5
1626
330
1F
100
AcDbEntity
  8
10
100
AcDbPolyline
 90
        2
 70
     0
 43
0.0
 10
1050.884401831815
 20
241.2184462146333
 10
1056.384401831816
 20
241.2184462146333
  0
LWPOLYLINE
  5
1627
330
1F
100
AcDbEntity
  8
10
100
AcDbPolyline
 90
        2
 70
     0
 43
0.0
 10
1037.884401831816
 20
244.7184462146333
 10
1024.884401831815
 20
244.7184462146333
  0
LWPOLYLINE
  5
1628
330
1F
100
AcDbEntity
  8
10
100
AcDbPolyline
 90
        2
 70
     0
 43
0.0
 10
1024.884401831815
 20
241.2184462146333
 10
1037.884401831816
 20
241.2184462146333
  0
LWPOLYLINE
  5
1629
330
1F
100
AcDbEntity
  8
10
100
AcDbPolyline
 90
        2
 70
     0
 43
0.0
 10
1037.884401831816
 20
241.2184462146333
 10
1024.884401831815
 20
241.2184462146333
  0
LWPOLYLINE
  5
162A
330
1F
100
AcDbEntity
  8
10
100
AcDbPolyline
 90
        2
 70
     0
 43
0.0
 10
1050.884401831815
 20
103.2184462146325
 10
1056.384401831816
 20
103.2184462146325
  0
LWPOLYLINE
  5
162B
330
1F
100
AcDbEntity
  8
10
100
AcDbPolyline
 90
        2
 70
     0
 43
0.0
 10
1024.884401831815
 20
103.2184462146325
 10
1037.884401831816
 20
103.2184462146325
  0
LWPOLYLINE
  5
162C
330
1F
100
AcDbEntity
  8
10
100
AcDbPolyline
 90
        2
 70
     0
 43
0.0
 10
1024.884401831815
 20
99.71844621463288
 10
1037.884401831816
 20
99.71844621463288
  0
LWPOLYLINE
  5
162D
330
1F
100
AcDbEntity
  8
10
100
AcDbPolyline
 90
        2
 70
     0
 43
0.0
 10
998.8844018318163
 20
103.2184462146325
 10
1011.884401831814
 20
103.2184462146325
  0
LWPOLYLINE
  5
162E
330
1F
100
AcDbEntity
  8
10
100
AcDbPolyline
 90
        2
 70
     0
 43
0.0
 10
998.8844018318163
 20
99.71844621463288
 10
1011.884401831814
 20
99.71844621463288
  0
LWPOLYLINE
  5
162F
330
1F
100
AcDbEntity
  8
10
100
AcDbPolyline
 90
        2
 70
     0
 43
0.0
 10
998.8844018318163
 20
241.2184462146333
 10
1011.884401831814
 20
241.2184462146333
  0
LWPOLYLINE
  5
1630
330
1F
100
AcDbEntity
  8
10
100
AcDbPolyline
 90
        2
 70
     0
 43
0.0
 10
972.8844018318163
 20
103.2184462146325
 10
985.8844018318164
 20
103.2184462146325
  0
LWPOLYLINE
  5
1631
330
1F
100
AcDbEntity
  8
10
100
AcDbPolyline
 90
        2
 70
     0
 43
0.0
 10
972.8844018318163
 20
241.2184462146333
 10
985.8844018318164
 20
241.2184462146333
  0
LWPOLYLINE
  5
1632
330
1F
100
AcDbEntity
  8
10
100
AcDbPolyline
 90
        2
 70
     0
 43
0.0
 10
972.8844018318163
 20
99.71844621463288
 10
985.8844018318164
 20
99.71844621463288
  0
LWPOLYLINE
  5
1633
330
1F
100
AcDbEntity
  8
10
100
AcDbPolyline
 90
        2
 70
     0
 43
0.0
 10
946.8844018318172
 20
241.2184462146333
 10
959.8844018318173
 20
241.2184462146333
  0
LWPOLYLINE
  5
1634
330
1F
100
AcDbEntity
  8
10
100
AcDbPolyline
 90
        2
 70
     0
 43
0.0
 10
946.8844018318172
 20
103.2184462146325
 10
959.8844018318173
 20
103.2184462146325
  0
LWPOLYLINE
  5
1635
330
1F
100
AcDbEntity
  8
10
100
AcDbPolyline
 90
        2
 70
     0
 43
0.0
 10
946.8844018318172
 20
99.71844621463288
 10
959.8844018318173
 20
99.71844621463288
  0
LWPOLYLINE
  5
1636
330
1F
100
AcDbEntity
  8
10
100
AcDbPolyline
 90
        2
 70
     0
 43
0.0
 10
959.8844018318173
 20
241.2184462146333
 10
946.8844018318172
 20
241.2184462146333
  0
LWPOLYLINE
  5
1637
330
1F
100
AcDbEntity
  8
10
100
AcDbPolyline
 90
        2
 70
     0
 43
0.0
 10
959.8844018318173
 20
244.7184462146333
 10
946.8844018318172
 20
244.7184462146333
  0
LWPOLYLINE
  5
1638
330
1F
100
AcDbEntity
  8
10
100
AcDbPolyline
 90
        4
 70
     0
 43
0.0
 10
933.8844018318164
 20
241.2184462146333
 10
858.8844018318164
 20
241.2184462146333
 10
858.8844018318164
 20
103.2184462146325
 10
933.8844018318164
 20
103.2184462146325
  0
LWPOLYLINE
  5
1639
330
1F
100
AcDbEntity
  8
10
100
AcDbPolyline
 90
        2
 70
     0
 43
0.0
 10
1011.884401831814
 20
244.7184462146333
 10
998.8844018318163
 20
244.7184462146333
  0
LWPOLYLINE
  5
163A
330
1F
100
AcDbEntity
  8
10
100
AcDbPolyline
 90
        2
 70
     0
 43
0.0
 10
1011.884401831814
 20
241.2184462146333
 10
998.8844018318163
 20
241.2184462146333
  0
LWPOLYLINE
  5
163B
330
1F
100
AcDbEntity
  8
10
100
AcDbPolyline
 90
        2
 70
     0
 43
0.0
 10
985.8844018318164
 20
241.2184462146333
 10
972.8844018318163
 20
241.2184462146333
  0
LWPOLYLINE
  5
163C
330
1F
100
AcDbEntity
  8
10
100
AcDbPolyline
 90
        2
 70
     0
 43
0.0
 10
985.8844018318164
 20
244.7184462146333
 10
972.8844018318163
 20
244.7184462146333
  0
LWPOLYLINE
  5
163D
330
1F
100
AcDbEntity
  8
10
100
AcDbPolyline
 90
        2
 70
     0
 43
0.0
 10
985.8844018318164
 20
103.2184462146325
 10
972.8844018318163
 20
103.2184462146325
  0
LWPOLYLINE
  5
163E
330
1F
100
AcDbEntity
  8
10
100
AcDbPolyline
 90
        2
 70
     0
 43
0.0
 10
959.8844018318173
 20
103.2184462146325
 10
946.8844018318163
 20
103.2184462146325
  0
LWPOLYLINE
  5
163F
330
1F
100
AcDbEntity
  8
10
100
AcDbPolyline
 90
        2
 70
     0
 43
0.0
 10
1037.884401831816
 20
103.2184462146325
 10
1024.884401831815
 20
103.2184462146325
  0
LWPOLYLINE
  5
1640
330
1F
100
AcDbEntity
  8
10
100
AcDbPolyline
 90
        2
 70
     0
 43
0.0
 10
1011.884401831814
 20
103.2184462146325
 10
998.8844018318163
 20
103.2184462146325
  0
LINE
  5
1641
330
1F
100
AcDbEntity
  8
10
100
AcDbLine
 10
916.3844018318163
 20
241.2184462146333
 30
0.0
 11
916.3844018318163
 21
103.2184462146325
 31
0.0
  0
LINE
  5
1642
330
1F
100
AcDbEntity
  8
10
100
AcDbLine
 10
914.3844018318164
 20
241.2184462146333
 30
0.0
 11
914.3844018318164
 21
103.2184462146325
 31
0.0
  0
LINE
  5
1643
330
1F
100
AcDbEntity
  8
10
100
AcDbLine
 10
1239.692672508507
 20
238.7184462146333
 30
0.0
 11
1253.884401831816
 21
238.7184462146333
 31
0.0
  0
LINE
  5
1644
330
1F
100
AcDbEntity
  8
10
100
AcDbLine
 10
1236.938787796727
 20
235.7184462146333
 30
0.0
 11
1253.884401831816
 21
235.7184462146333
 31
0.0
  0
LINE
  5
1645
330
1F
100
AcDbEntity
  8
10
100
AcDbLine
 10
1231.431018373168
 20
229.7184462146333
 30
0.0
 11
1253.884401831816
 21
229.7184462146333
 31
0.0
  0
LINE
  5
1646
330
1F
100
AcDbEntity
  8
10
100
AcDbLine
 10
1228.67713366139
 20
226.7184462146333
 30
0.0
 11
1253.884401831816
 21
226.7184462146333
 31
0.0
  0
LINE
  5
1647
330
1F
100
AcDbEntity
  8
10
100
AcDbLine
 10
1225.92324894961
 20
223.7184462146333
 30
0.0
 11
1253.884401831816
 21
223.7184462146333
 31
0.0
  0
LINE
  5
1648
330
1F
100
AcDbEntity
  8
10
100
AcDbLine
 10
1223.16936423783
 20
220.7184462146333
 30
0.0
 11
1253.884401831816
 21
220.7184462146333
 31
0.0
  0
LINE
  5
1649
330
1F
100
AcDbEntity
  8
10
100
AcDbLine
 10
1220.415479526051
 20
217.7184462146333
 30
0.0
 11
1253.884401831816
 21
217.7184462146333
 31
0.0
  0
LINE
  5
164A
330
1F
100
AcDbEntity
  8
10
100
AcDbLine
 10
1217.661594814272
 20
214.7184462146333
 30
0.0
 11
1253.884401831816
 21
214.7184462146333
 31
0.0
  0
LINE
  5
164B
330
1F
100
AcDbEntity
  8
10
100
AcDbLine
 10
1214.907710102492
 20
211.7184462146333
 30
0.0
 11
1253.884401831816
 21
211.7184462146333
 31
0.0
  0
LINE
  5
164C
330
1F
100
AcDbEntity
  8
10
100
AcDbLine
 10
1212.153825390712
 20
208.7184462146333
 30
0.0
 11
1253.884401831816
 21
208.7184462146333
 31
0.0
  0
LINE
  5
164D
330
1F
100
AcDbEntity
  8
10
100
AcDbLine
 10
1209.399940678933
 20
205.7184462146333
 30
0.0
 11
1253.884401831816
 21
205.7184462146333
 31
0.0
  0
LINE
  5
164E
330
1F
100
AcDbEntity
  8
10
100
AcDbLine
 10
1206.646055967153
 20
202.7184462146325
 30
0.0
 11
1253.884401831816
 21
202.7184462146325
 31
0.0
  0
LINE
  5
164F
330
1F
100
AcDbEntity
  8
10
100
AcDbLine
 10
1203.892171255375
 20
199.7184462146325
 30
0.0
 11
1253.884401831816
 21
199.7184462146325
 31
0.0
  0
LINE
  5
1650
330
1F
100
AcDbEntity
  8
10
100
AcDbLine
 10
1202.944190618159
 20
197.7184462146325
 30
0.0
 11
1253.884401831816
 21
197.7184462146325
 31
0.0
  0
LINE
  5
1651
330
1F
100
AcDbEntity
  8
10
100
AcDbLine
 10
1207.503979404502
 20
194.7184462146325
 30
0.0
 11
1253.884401831816
 21
194.7184462146325
 31
0.0
  0
LINE
  5
1652
330
1F
100
AcDbEntity
  8
10
100
AcDbLine
 10
1212.063768190845
 20
191.7184462146325
 30
0.0
 11
1253.884401831816
 21
191.7184462146325
 31
0.0
  0
LINE
  5
1653
330
1F
100
AcDbEntity
  8
10
100
AcDbLine
 10
1216.623556977188
 20
188.7184462146326
 30
0.0
 11
1253.884401831816
 21
188.7184462146326
 31
0.0
  0
LINE
  5
1654
330
1F
100
AcDbEntity
  8
10
100
AcDbLine
 10
1221.183345763531
 20
185.7184462146328
 30
0.0
 11
1253.884401831816
 21
185.7184462146328
 31
0.0
  0
LINE
  5
1655
330
1F
100
AcDbEntity
  8
10
100
AcDbLine
 10
1225.743134549873
 20
182.7184462146328
 30
0.0
 11
1253.884401831816
 21
182.7184462146328
 31
0.0
  0
LINE
  5
1656
330
1F
100
AcDbEntity
  8
10
100
AcDbLine
 10
1230.302923336217
 20
179.7184462146326
 30
0.0
 11
1253.884401831816
 21
179.7184462146326
 31
0.0
  0
LINE
  5
1657
330
1F
100
AcDbEntity
  8
10
100
AcDbLine
 10
1234.86271212256
 20
176.7184462146325
 30
0.0
 11
1253.884401831816
 21
176.7184462146325
 31
0.0
  0
LINE
  5
1658
330
1F
100
AcDbEntity
  8
10
100
AcDbLine
 10
1239.422500908903
 20
173.7184462146325
 30
0.0
 11
1253.884401831816
 21
173.7184462146325
 31
0.0
  0
LINE
  5
1659
330
1F
100
AcDbEntity
  8
10
100
AcDbLine
 10
1243.982289695246
 20
170.7184462146328
 30
0.0
 11
1253.884401831816
 21
170.7184462146328
 31
0.0
  0
LINE
  5
165A
330
1F
100
AcDbEntity
  8
10
100
AcDbLine
 10
1248.542078481589
 20
167.7184462146328
 30
0.0
 11
1253.884401831816
 21
167.7184462146328
 31
0.0
  0
LINE
  5
165B
330
1F
100
AcDbEntity
  8
10
100
AcDbLine
 10
1246.153617688743
 20
164.7184462146328
 30
0.0
 11
1253.884401831816
 21
164.7184462146328
 31
0.0
  0
LINE
  5
165C
330
1F
100
AcDbEntity
  8
10
100
AcDbLine
 10
1243.765156895896
 20
161.7184462146328
 30
0.0
 11
1253.884401831816
 21
161.7184462146328
 31
0.0
  0
LINE
  5
165D
330
1F
100
AcDbEntity
  8
10
100
AcDbLine
 10
1241.376696103051
 20
158.7184462146328
 30
0.0
 11
1253.884401831816
 21
158.7184462146328
 31
0.0
  0
LINE
  5
165E
330
1F
100
AcDbEntity
  8
10
100
AcDbLine
 10
1238.988235310203
 20
155.7184462146328
 30
0.0
 11
1253.884401831816
 21
155.7184462146328
 31
0.0
  0
LINE
  5
165F
330
1F
100
AcDbEntity
  8
10
100
AcDbLine
 10
1236.599774517357
 20
152.7184462146328
 30
0.0
 11
1253.884401831816
 21
152.7184462146328
 31
0.0
  0
LINE
  5
1660
330
1F
100
AcDbEntity
  8
10
100
AcDbLine
 10
1234.211313724511
 20
149.7184462146328
 30
0.0
 11
1253.884401831816
 21
149.7184462146328
 31
0.0
  0
LINE
  5
1661
330
1F
100
AcDbEntity
  8
10
100
AcDbLine
 10
1231.822852931665
 20
146.7184462146328
 30
0.0
 11
1253.884401831816
 21
146.7184462146328
 31
0.0
  0
LINE
  5
1662
330
1F
100
AcDbEntity
  8
10
100
AcDbLine
 10
1229.434392138819
 20
143.7184462146328
 30
0.0
 11
1253.884401831816
 21
143.7184462146328
 31
0.0
  0
LINE
  5
1663
330
1F
100
AcDbEntity
  8
10
100
AcDbLine
 10
1227.045931345972
 20
140.7184462146327
 30
0.0
 11
1253.884401831816
 21
140.7184462146327
 31
0.0
  0
LINE
  5
1664
330
1F
100
AcDbEntity
  8
10
100
AcDbLine
 10
1224.657470553126
 20
137.7184462146327
 30
0.0
 11
1253.884401831816
 21
137.7184462146327
 31
0.0
  0
LINE
  5
1665
330
1F
100
AcDbEntity
  8
10
100
AcDbLine
 10
1222.26900976028
 20
134.7184462146328
 30
0.0
 11
1253.884401831816
 21
134.7184462146328
 31
0.0
  0
LINE
  5
1666
330
1F
100
AcDbEntity
  8
10
100
AcDbLine
 10
1219.880548967432
 20
131.7184462146328
 30
0.0
 11
1253.884401831816
 21
131.7184462146328
 31
0.0
  0
LINE
  5
1667
330
1F
100
AcDbEntity
  8
10
100
AcDbLine
 10
1217.492088174586
 20
128.7184462146327
 30
0.0
 11
1253.884401831816
 21
128.7184462146327
 31
0.0
  0
LINE
  5
1668
330
1F
100
AcDbEntity
  8
10
100
AcDbLine
 10
1215.10362738174
 20
125.7184462146327
 30
0.0
 11
1253.884401831816
 21
125.7184462146327
 31
0.0
  0
LINE
  5
1669
330
1F
100
AcDbEntity
  8
10
100
AcDbLine
 10
1212.715166588894
 20
122.7184462146327
 30
0.0
 11
1253.884401831816
 21
122.7184462146327
 31
0.0
  0
LINE
  5
166A
330
1F
100
AcDbEntity
  8
10
100
AcDbLine
 10
1210.326705796048
 20
119.7184462146327
 30
0.0
 11
1253.884401831816
 21
119.7184462146327
 31
0.0
  0
LINE
  5
166B
330
1F
100
AcDbEntity
  8
10
100
AcDbLine
 10
1207.938245003201
 20
116.7184462146325
 30
0.0
 11
1253.884401831816
 21
116.7184462146325
 31
0.0
  0
LINE
  5
166C
330
1F
100
AcDbEntity
  8
10
100
AcDbLine
 10
1205.549784210355
 20
113.7184462146327
 30
0.0
 11
1253.884401831816
 21
113.7184462146327
 31
0.0
  0
LINE
  5
166D
330
1F
100
AcDbEntity
  8
10
100
AcDbLine
 10
1203.161323417508
 20
110.7184462146328
 30
0.0
 11
1253.884401831816
 21
110.7184462146328
 31
0.0
  0
LINE
  5
166E
330
1F
100
AcDbEntity
  8
10
100
AcDbLine
 10
1200.772862624662
 20
107.7184462146328
 30
0.0
 11
1253.884401831816
 21
107.7184462146328
 31
0.0
  0
LINE
  5
166F
330
1F
100
AcDbEntity
  8
10
100
AcDbLine
 10
1198.384401831815
 20
104.7184462146327
 30
0.0
 11
1253.884401831816
 21
104.7184462146327
 31
0.0
  0
LINE
  5
1670
330
1F
100
AcDbEntity
  8
10
100
AcDbLine
 10
1234.184903084948
 20
232.7184462146333
 30
0.0
 11
1253.884401831816
 21
232.7184462146333
 31
0.0
  0
LINE
  5
1671
330
1F
100
AcDbEntity
  8
10
100
AcDbLine
 10
1198.384401831815
 20
241.2184462146333
 30
0.0
 11
1198.384401831815
 21
103.2184462146325
 31
0.0
  0
LINE
  5
1672
330
1F
100
AcDbEntity
  8
10
100
AcDbLine
 10
1196.384401831815
 20
241.2184462146333
 30
0.0
 11
1196.384401831815
 21
103.2184462146325
 31
0.0
  0
LWPOLYLINE
  5
1673
330
1F
100
AcDbEntity
  8
10
100
AcDbPolyline
 90
        2
 70
     0
 43
0.0
 10
1100.884401831815
 20
103.2184462146325
 10
1113.884401831816
 20
103.2184462146325
  0
LWPOLYLINE
  5
1674
330
1F
100
AcDbEntity
  8
10
100
AcDbPolyline
 90
        2
 70
     0
 43
0.0
 10
1074.884401831815
 20
103.2184462146325
 10
1087.884401831813
 20
103.2184462146325
  0
LWPOLYLINE
  5
1675
330
1F
100
AcDbEntity
  8
10
100
AcDbPolyline
 90
        2
 70
     0
 43
0.0
 10
1152.884401831814
 20
103.2184462146325
 10
1165.884401831815
 20
103.2184462146325
  0
LWPOLYLINE
  5
1676
330
1F
100
AcDbEntity
  8
10
100
AcDbPolyline
 90
        2
 70
     0
 43
0.0
 10
1126.884401831815
 20
103.2184462146325
 10
1139.884401831815
 20
103.2184462146325
  0
LWPOLYLINE
  5
1677
330
1F
100
AcDbEntity
  8
10
100
AcDbPolyline
 90
        2
 70
     0
 43
0.0
 10
1126.884401831815
 20
244.7184462146333
 10
1139.884401831815
 20
244.7184462146333
  0
LWPOLYLINE
  5
1678
330
1F
100
AcDbEntity
  8
10
100
AcDbPolyline
 90
        2
 70
     0
 43
0.0
 10
1126.884401831815
 20
241.2184462146333
 10
1139.884401831815
 20
241.2184462146333
  0
LWPOLYLINE
  5
1679
330
1F
100
AcDbEntity
  8
10
100
AcDbPolyline
 90
        2
 70
     0
 43
0.0
 10
1100.884401831815
 20
241.2184462146333
 10
1113.884401831816
 20
241.2184462146333
  0
LWPOLYLINE
  5
167A
330
1F
100
AcDbEntity
  8
10
100
AcDbPolyline
 90
        2
 70
     0
 43
0.0
 10
1100.884401831815
 20
244.7184462146333
 10
1113.884401831816
 20
244.7184462146333
  0
LWPOLYLINE
  5
167B
330
1F
100
AcDbEntity
  8
10
100
AcDbPolyline
 90
        4
 70
     0
 43
0.0
 10
1178.884401831812
 20
241.2184462146333
 10
1253.884401831816
 20
241.2184462146333
 10
1253.884401831816
 20
103.2184462146325
 10
1178.884401831812
 20
103.2184462146325
  0
LWPOLYLINE
  5
167C
330
1F
100
AcDbEntity
  8
10
100
AcDbPolyline
 90
        2
 70
     0
 43
0.0
 10
1152.884401831814
 20
244.7184462146333
 10
1165.884401831815
 20
244.7184462146333
  0
LWPOLYLINE
  5
167D
330
1F
100
AcDbEntity
  8
10
100
AcDbPolyline
 90
        2
 70
     0
 43
0.0
 10
1152.884401831814
 20
241.2184462146333
 10
1165.884401831815
 20
241.2184462146333
  0
LWPOLYLINE
  5
167E
330
1F
100
AcDbEntity
  8
10
100
AcDbPolyline
 90
        2
 70
     0
 43
0.0
 10
1165.884401831815
 20
99.71844621463288
 10
1152.884401831814
 20
99.71844621463288
  0
LWPOLYLINE
  5
167F
330
1F
100
AcDbEntity
  8
10
100
AcDbPolyline
 90
        2
 70
     0
 43
0.0
 10
1165.884401831815
 20
103.2184462146325
 10
1152.884401831814
 20
103.2184462146325
  0
LWPOLYLINE
  5
1680
330
1F
100
AcDbEntity
  8
10
100
AcDbPolyline
 90
        2
 70
     0
 43
0.0
 10
1165.884401831815
 20
241.2184462146333
 10
1152.884401831814
 20
241.2184462146333
  0
LWPOLYLINE
  5
1681
330
1F
100
AcDbEntity
  8
10
100
AcDbPolyline
 90
        2
 70
     0
 43
0.0
 10
1139.884401831815
 20
99.71844621463288
 10
1126.884401831816
 20
99.71844621463288
  0
LWPOLYLINE
  5
1682
330
1F
100
AcDbEntity
  8
10
100
AcDbPolyline
 90
        2
 70
     0
 43
0.0
 10
1139.884401831815
 20
241.2184462146333
 10
1126.884401831815
 20
241.2184462146333
  0
LWPOLYLINE
  5
1683
330
1F
100
AcDbEntity
  8
10
100
AcDbPolyline
 90
        2
 70
     0
 43
0.0
 10
1139.884401831815
 20
103.2184462146325
 10
1126.884401831816
 20
103.2184462146325
  0
LWPOLYLINE
  5
1684
330
1F
100
AcDbEntity
  8
10
100
AcDbPolyline
 90
        2
 70
     0
 43
0.0
 10
1113.884401831816
 20
241.2184462146333
 10
1100.884401831815
 20
241.2184462146333
  0
LWPOLYLINE
  5
1685
330
1F
100
AcDbEntity
  8
10
100
AcDbPolyline
 90
        2
 70
     0
 43
0.0
 10
1113.884401831816
 20
99.71844621463288
 10
1100.884401831815
 20
99.71844621463288
  0
LWPOLYLINE
  5
1686
330
1F
100
AcDbEntity
  8
10
100
AcDbPolyline
 90
        2
 70
     0
 43
0.0
 10
1113.884401831816
 20
103.2184462146325
 10
1100.884401831816
 20
103.2184462146325
  0
LWPOLYLINE
  5
1687
330
1F
100
AcDbEntity
  8
10
100
AcDbPolyline
 90
        2
 70
     0
 43
0.0
 10
1087.884401831813
 20
99.71844621463288
 10
1074.884401831815
 20
99.71844621463288
  0
LWPOLYLINE
  5
1688
330
1F
100
AcDbEntity
  8
10
100
AcDbPolyline
 90
        2
 70
     0
 43
0.0
 10
1087.884401831813
 20
103.2184462146325
 10
1074.884401831815
 20
103.2184462146325
  0
LWPOLYLINE
  5
1689
330
1F
100
AcDbEntity
  8
10
100
AcDbPolyline
 90
        2
 70
     0
 43
0.0
 10
1074.884401831815
 20
241.2184462146333
 10
1087.884401831813
 20
241.2184462146333
  0
LWPOLYLINE
  5
168A
330
1F
100
AcDbEntity
  8
10
100
AcDbPolyline
 90
        2
 70
     0
 43
0.0
 10
1087.884401831813
 20
241.2184462146333
 10
1074.884401831815
 20
241.2184462146333
  0
LWPOLYLINE
  5
168B
330
1F
100
AcDbEntity
  8
10
100
AcDbPolyline
 90
        2
 70
     0
 43
0.0
 10
1074.884401831815
 20
244.7184462146333
 10
1087.884401831813
 20
244.7184462146333
  0
LINE
  5
168C
330
1F
100
AcDbEntity
  8
10
100
AcDbLine
 10
1233.884401831815
 20
81.21844621463287
 30
0.0
 11
1233.884401831815
 21
76.71844621463424
 31
0.0
  0
LINE
  5
168D
330
1F
100
AcDbEntity
  8
10
100
AcDbLine
 10
1233.884401831815
 20
76.71844621463424
 30
0.0
 11
1232.884401831816
 21
76.71844621463424
 31
0.0
  0
LINE
  5
168E
330
1F
100
AcDbEntity
  8
10
100
AcDbLine
 10
1223.976924543704
 20
88.3149192687815
 30
0.0
 11
1223.976924543704
 21
82.12197316048605
 31
0.0
  0
ARC
  5
168F
330
1F
100
AcDbEntity
  8
10
100
AcDbCircle
 10
1237.134401831815
 20
87.85290193087211
 30
0.0
 40
6.634455716238125
100
AcDbArc
 50
239.7474349363788
 51
270.0
  0
LINE
  5
1690
330
1F
100
AcDbEntity
  8
10
100
AcDbLine
 10
1237.134401831815
 20
81.21844621463287
 30
0.0
 11
1238.699356408039
 21
82.12197316048605
 31
0.0
  0
ARC
  5
1691
330
1F
100
AcDbEntity
  8
10
100
AcDbCircle
 10
1237.134401831815
 20
82.58399049839544
 30
0.0
 40
6.634455716238125
100
AcDbArc
 50
90.0
 51
120.2525650636209
  0
LINE
  5
1692
330
1F
100
AcDbEntity
  8
10
100
AcDbLine
 10
1237.134401831815
 20
89.21844621463288
 30
0.0
 11
1238.699356408039
 21
88.3149192687815
 31
0.0
  0
LINE
  5
1693
330
1F
100
AcDbEntity
  8
10
100
AcDbLine
 10
1238.699356408039
 20
88.3149192687815
 30
0.0
 11
1238.699356408039
 21
82.12197316048605
 31
0.0
  0
ARC
  5
1694
330
1F
100
AcDbEntity
  8
10
100
AcDbCircle
 10
1228.884401831815
 20
94.99761151209304
 30
0.0
 40
13.77916529745972
100
AcDbArc
 50
249.1359356360835
 51
251.6586573540828
  0
LINE
  5
1695
330
1F
100
AcDbEntity
  8
10
100
AcDbLine
 10
1237.134401831815
 20
81.21844621463287
 30
0.0
 11
1232.740064264519
 21
81.21844621463287
 31
0.0
  0
ARC
  5
1696
330
1F
100
AcDbEntity
  8
10
100
AcDbCircle
 10
1220.634401831815
 20
87.85290193087211
 30
0.0
 40
6.634455716238125
100
AcDbArc
 50
283.1177569564538
 51
285.2941439619667
  0
ARC
  5
1697
330
1F
100
AcDbEntity
  8
10
100
AcDbCircle
 10
1220.634401831815
 20
82.58399049839544
 30
0.0
 40
6.634455716238125
100
AcDbArc
 50
59.74743493637903
 51
90.0
  0
LINE
  5
1698
330
1F
100
AcDbEntity
  8
10
100
AcDbLine
 10
1220.634401831815
 20
89.21844621463288
 30
0.0
 11
1219.069447255591
 21
88.3149192687815
 31
0.0
  0
LINE
  5
1699
330
1F
100
AcDbEntity
  8
10
100
AcDbLine
 10
1219.069447255591
 20
88.3149192687815
 30
0.0
 11
1219.069447255591
 21
82.53340079085729
 31
0.0
  0
LINE
  5
169A
330
1F
100
AcDbEntity
  8
10
100
AcDbLine
 10
1219.684401831814
 20
89.21844621463288
 30
0.0
 11
1219.684401831814
 21
91.71844621463288
 31
0.0
  0
LINE
  5
169B
330
1F
100
AcDbEntity
  8
10
100
AcDbLine
 10
1238.084401831815
 20
89.21844621463288
 30
0.0
 11
1238.084401831815
 21
91.71844621463288
 31
0.0
  0
LINE
  5
169C
330
1F
100
AcDbEntity
  8
10
100
AcDbLine
 10
1239.884401831815
 20
91.71844621463288
 30
0.0
 11
1239.884401831815
 21
93.71844621463287
 31
0.0
  0
LINE
  5
169D
330
1F
100
AcDbEntity
  8
10
100
AcDbLine
 10
1217.884401831815
 20
91.71844621463288
 30
0.0
 11
1217.884401831815
 21
93.71844621463287
 31
0.0
  0
LINE
  5
169E
330
1F
100
AcDbEntity
  8
10
100
AcDbLine
 10
1233.791879119927
 20
88.3149192687815
 30
0.0
 11
1233.791879119927
 21
82.12197316048605
 31
0.0
  0
LINE
  5
169F
330
1F
100
AcDbEntity
  8
10
100
AcDbLine
 10
1237.134401831815
 20
89.21844621463288
 30
0.0
 11
1220.634401831815
 21
89.21844621463288
 31
0.0
  0
ARC
  5
16A0
330
1F
100
AcDbEntity
  8
10
100
AcDbCircle
 10
1228.884401831815
 20
75.43928091717408
 30
0.0
 40
13.77916529745972
100
AcDbArc
 50
69.1359356360835
 51
110.8640643639164
  0
LINE
  5
16A1
330
1F
100
AcDbEntity
  8
10
100
AcDbLine
 10
1219.684401831814
 20
89.21844621463288
 30
0.0
 11
1238.084401831815
 21
89.21844621463288
 31
0.0
  0
LINE
  5
16A2
330
1F
100
AcDbEntity
  8
10
100
AcDbLine
 10
1217.884401831815
 20
91.71844621463288
 30
0.0
 11
1239.884401831815
 21
91.71844621463288
 31
0.0
  0
LINE
  5
16A3
330
1F
100
AcDbEntity
  8
10
100
AcDbLine
 10
1217.884401831815
 20
93.71844621463287
 30
0.0
 11
1239.884401831815
 21
93.71844621463287
 31
0.0
  0
LINE
  5
16A4
330
1F
100
AcDbEntity
  8
10
100
AcDbLine
 10
1217.884401831815
 20
252.7184462146333
 30
0.0
 11
1217.884401831815
 21
250.7184462146333
 31
0.0
  0
LINE
  5
16A5
330
1F
100
AcDbEntity
  8
10
100
AcDbLine
 10
1219.069447255591
 20
258.8149192687815
 30
0.0
 11
1219.069447255591
 21
252.7184462146333
 31
0.0
  0
LINE
  5
16A6
330
1F
100
AcDbEntity
  8
10
100
AcDbLine
 10
1223.976924543703
 20
258.8149192687815
 30
0.0
 11
1223.976924543703
 21
252.7184462146333
 31
0.0
  0
LINE
  5
16A7
330
1F
100
AcDbEntity
  8
10
100
AcDbLine
 10
1220.634401831815
 20
259.7184462146333
 30
0.0
 11
1219.069447255591
 21
258.8149192687815
 31
0.0
  0
ARC
  5
16A8
330
1F
100
AcDbEntity
  8
10
100
AcDbCircle
 10
1220.634401831815
 20
253.0839904983948
 30
0.0
 40
6.634455716238125
100
AcDbArc
 50
59.74743493637903
 51
90.0
  0
LINE
  5
16A9
330
1F
100
AcDbEntity
  8
10
100
AcDbLine
 10
1233.791879119927
 20
258.8149192687815
 30
0.0
 11
1233.791879119927
 21
252.7184462146333
 31
0.0
  0
LINE
  5
16AA
330
1F
100
AcDbEntity
  8
10
100
AcDbLine
 10
1239.884401831815
 20
252.7184462146333
 30
0.0
 11
1239.884401831815
 21
250.7184462146333
 31
0.0
  0
LINE
  5
16AB
330
1F
100
AcDbEntity
  8
10
100
AcDbLine
 10
1238.699356408039
 20
258.8149192687815
 30
0.0
 11
1238.699356408039
 21
252.7184462146333
 31
0.0
  0
LINE
  5
16AC
330
1F
100
AcDbEntity
  8
10
100
AcDbLine
 10
1237.134401831815
 20
259.7184462146333
 30
0.0
 11
1238.699356408039
 21
258.8149192687815
 31
0.0
  0
ARC
  5
16AD
330
1F
100
AcDbEntity
  8
10
100
AcDbCircle
 10
1237.134401831815
 20
253.0839904983948
 30
0.0
 40
6.634455716238125
100
AcDbArc
 50
90.0
 51
120.2525650636209
  0
LINE
  5
16AE
330
1F
100
AcDbEntity
  8
10
100
AcDbLine
 10
1239.884401831815
 20
252.7184462146333
 30
0.0
 11
1217.884401831815
 21
252.7184462146333
 31
0.0
  0
LINE
  5
16AF
330
1F
100
AcDbEntity
  8
10
100
AcDbLine
 10
1239.884401831815
 20
250.7184462146333
 30
0.0
 11
1217.884401831815
 21
250.7184462146333
 31
0.0
  0
ARC
  5
16B0
330
1F
100
AcDbEntity
  8
10
100
AcDbCircle
 10
1228.884401831815
 20
245.939280917174
 30
0.0
 40
13.77916529745972
100
AcDbArc
 50
69.1359356360835
 51
110.8640643639164
  0
LINE
  5
16B1
330
1F
100
AcDbEntity
  8
10
100
AcDbLine
 10
1237.134401831815
 20
259.7184462146333
 30
0.0
 11
1220.634401831815
 21
259.7184462146333
 31
0.0
  0
LINE
  5
16B2
330
1F
100
AcDbEntity
  8
10
100
AcDbLine
 10
1238.699356408039
 20
252.7184462146333
 30
0.0
 11
1219.069447255591
 21
252.7184462146333
 31
0.0
  0
LWPOLYLINE
  5
16B3
330
1F
100
AcDbEntity
  8
10
100
AcDbPolyline
 90
       13
 70
     0
 43
0.0
 10
1253.884401831816
 20
344.7184462146333
 10
1209.884401831815
 20
344.7184462146333
 42
0.4142135623730951
 10
1203.884401831815
 20
338.7184462146333
 10
1203.884401831815
 20
250.7184462146333
 42
0.4142135623730951
 10
1209.884401831815
 20
244.7184462146333
 10
1253.884401831816
 20
244.7184462146333
 10
1253.884401831816
 20
250.7184462146333
 10
1212.884401831815
 20
250.7184462146333
 42
-0.4142135623730951
 10
1209.884401831815
 20
253.7184462146333
 10
1209.884401831815
 20
335.7184462146333
 42
-0.4142135623730953
 10
1212.884401831815
 20
338.7184462146338
 10
1253.884401831816
 20
338.7184462146338
 10
1253.884401831816
 20
344.7184462146333
  0
LINE
  5
16B4
330
1F
100
AcDbEntity
  8
10
100
AcDbLine
 10
1219.069447255592
 20
328.1219731604859
 30
0.0
 11
1219.069447255592
 21
334.2184462146333
 31
0.0
  0
LINE
  5
16B5
330
1F
100
AcDbEntity
  8
10
100
AcDbLine
 10
1239.884401831816
 20
336.7184462146333
 30
0.0
 11
1239.884401831816
 21
338.7184462146338
 31
0.0
  0
LINE
  5
16B6
330
1F
100
AcDbEntity
  8
10
100
AcDbLine
 10
1238.69935640804
 20
328.1219731604859
 30
0.0
 11
1238.69935640804
 21
334.2184462146333
 31
0.0
  0
LINE
  5
16B7
330
1F
100
AcDbEntity
  8
10
100
AcDbLine
 10
1233.791879119927
 20
328.1219731604859
 30
0.0
 11
1233.791879119927
 21
334.2184462146333
 31
0.0
  0
LINE
  5
16B8
330
1F
100
AcDbEntity
  8
10
100
AcDbLine
 10
1237.134401831815
 20
327.2184462146333
 30
0.0
 11
1238.69935640804
 21
328.1219731604859
 31
0.0
  0
ARC
  5
16B9
330
1F
100
AcDbEntity
  8
10
100
AcDbCircle
 10
1237.134401831815
 20
333.8529019308726
 30
0.0
 40
6.634455716238125
100
AcDbArc
 50
239.7474349363788
 51
270.0
  0
LINE
  5
16BA
330
1F
100
AcDbEntity
  8
10
100
AcDbLine
 10
1238.084401831815
 20
334.2184462146333
 30
0.0
 11
1238.084401831815
 21
336.7184462146333
 31
0.0
  0
LINE
  5
16BB
330
1F
100
AcDbEntity
  8
10
100
AcDbLine
 10
1223.976924543704
 20
328.1219731604859
 30
0.0
 11
1223.976924543704
 21
334.2184462146333
 31
0.0
  0
LINE
  5
16BC
330
1F
100
AcDbEntity
  8
10
100
AcDbLine
 10
1217.884401831816
 20
336.7184462146333
 30
0.0
 11
1217.884401831816
 21
338.7184462146338
 31
0.0
  0
LINE
  5
16BD
330
1F
100
AcDbEntity
  8
10
100
AcDbLine
 10
1220.634401831816
 20
327.2184462146333
 30
0.0
 11
1219.069447255592
 21
328.1219731604859
 31
0.0
  0
LINE
  5
16BE
330
1F
100
AcDbEntity
  8
10
100
AcDbLine
 10
1219.684401831814
 20
334.2184462146333
 30
0.0
 11
1219.684401831814
 21
336.7184462146333
 31
0.0
  0
LINE
  5
16BF
330
1F
100
AcDbEntity
  8
10
100
AcDbLine
 10
1217.884401831816
 20
336.7184462146333
 30
0.0
 11
1239.884401831816
 21
336.7184462146333
 31
0.0
  0
LINE
  5
16C0
330
1F
100
AcDbEntity
  8
10
100
AcDbLine
 10
1217.884401831816
 20
338.7184462146338
 30
0.0
 11
1239.884401831816
 21
338.7184462146338
 31
0.0
  0
ARC
  5
16C1
330
1F
100
AcDbEntity
  8
10
100
AcDbCircle
 10
1228.884401831815
 20
340.997611512093
 30
0.0
 40
13.77916529745972
100
AcDbArc
 50
249.1359356360835
 51
290.8640643639165
  0
LINE
  5
16C2
330
1F
100
AcDbEntity
  8
10
100
AcDbLine
 10
1219.069447255592
 20
334.2184462146333
 30
0.0
 11
1238.69935640804
 21
334.2184462146333
 31
0.0
  0
LINE
  5
16C3
330
1F
100
AcDbEntity
  8
10
100
AcDbLine
 10
1220.634401831816
 20
327.2184462146333
 30
0.0
 11
1237.134401831815
 21
327.2184462146333
 31
0.0
  0
ARC
  5
16C4
330
1F
100
AcDbEntity
  8
10
100
AcDbCircle
 10
1220.634401831816
 20
333.8529019308726
 30
0.0
 40
6.634455716238125
100
AcDbArc
 50
270.0
 51
300.2525650636208
  0
LWPOLYLINE
  5
16C5
330
1F
100
AcDbEntity
  8
10
100
AcDbPolyline
 90
        2
 70
     0
 43
0.0
 10
1061.884401831812
 20
244.7184462146333
 10
1050.884401831815
 20
244.7184462146333
  0
LWPOLYLINE
  5
16C6
330
1F
100
AcDbEntity
  8
10
100
AcDbPolyline
 90
        2
 70
     0
 43
0.0
 10
1061.884401831812
 20
241.2184462146333
 10
1050.884401831815
 20
241.2184462146333
  0
LWPOLYLINE
  5
16C7
330
1F
100
AcDbEntity
  8
10
100
AcDbPolyline
 90
        2
 70
     0
 43
0.0
 10
1061.884401831812
 20
103.2184462146325
 10
1050.884401831815
 20
103.2184462146325
  0
LWPOLYLINE
  5
16C8
330
1F
100
AcDbEntity
  8
10
100
AcDbPolyline
 90
        2
 70
     0
 43
0.0
 10
1050.884401831815
 20
99.71844621463288
 10
1061.884401831812
 20
99.71844621463288
  0
LWPOLYLINE
  5
16C9
330
1F
100
AcDbEntity
  8
10
100
AcDbPolyline
 90
        4
 70
     0
 43
0.0
 10
933.8844018318164
 20
211.2184462146333
 10
931.3844018318164
 20
211.2184462146333
 10
931.3844018318164
 20
203.2184462146342
 10
933.8844018318164
 20
203.2184462146342
  0
LWPOLYLINE
  5
16CA
330
1F
100
AcDbEntity
  8
10
100
AcDbPolyline
 90
        2
 70
     0
 43
0.0
 10
959.8844018318164
 20
211.2184462146333
 10
946.8844018318172
 20
211.2184462146333
  0
LWPOLYLINE
  5
16CB
330
1F
100
AcDbEntity
  8
10
100
AcDbPolyline
 90
        2
 70
     0
 43
0.0
 10
946.8844018318172
 20
203.2184462146342
 10
959.8844018318173
 20
203.2184462146342
  0
LWPOLYLINE
  5
16CC
330
1F
100
AcDbEntity
  8
10
100
AcDbPolyline
 90
        2
 70
     0
 43
0.0
 10
985.8844018318164
 20
211.2184462146333
 10
972.8844018318163
 20
211.2184462146333
  0
LWPOLYLINE
  5
16CD
330
1F
100
AcDbEntity
  8
10
100
AcDbPolyline
 90
        2
 70
     0
 43
0.0
 10
972.8844018318163
 20
203.2184462146342
 10
985.8844018318164
 20
203.2184462146342
  0
LWPOLYLINE
  5
16CE
330
1F
100
AcDbEntity
  8
10
100
AcDbPolyline
 90
        2
 70
     0
 43
0.0
 10
1011.884401831814
 20
211.2184462146333
 10
998.8844018318163
 20
211.2184462146333
  0
LWPOLYLINE
  5
16CF
330
1F
100
AcDbEntity
  8
10
100
AcDbPolyline
 90
        2
 70
     0
 43
0.0
 10
998.8844018318163
 20
203.2184462146342
 10
1011.884401831814
 20
203.2184462146342
  0
LWPOLYLINE
  5
16D0
330
1F
100
AcDbEntity
  8
10
100
AcDbPolyline
 90
        2
 70
     0
 43
0.0
 10
1037.884401831816
 20
211.2184462146333
 10
1024.884401831815
 20
211.2184462146333
  0
LWPOLYLINE
  5
16D1
330
1F
100
AcDbEntity
  8
10
100
AcDbPolyline
 90
        2
 70
     0
 43
0.0
 10
1024.884401831815
 20
203.2184462146342
 10
1037.884401831816
 20
203.2184462146342
  0
LWPOLYLINE
  5
16D2
330
1F
100
AcDbEntity
  8
10
100
AcDbPolyline
 90
        2
 70
     0
 43
0.0
 10
1061.884401831812
 20
211.2184462146333
 10
1050.884401831815
 20
211.2184462146333
  0
LWPOLYLINE
  5
16D3
330
1F
100
AcDbEntity
  8
10
100
AcDbPolyline
 90
        2
 70
     0
 43
0.0
 10
1050.884401831815
 20
203.2184462146342
 10
1061.884401831812
 20
203.2184462146342
  0
LWPOLYLINE
  5
16D4
330
1F
100
AcDbEntity
  8
10
100
AcDbPolyline
 90
        2
 70
     0
 43
0.0
 10
1087.884401831813
 20
211.2184462146333
 10
1074.884401831815
 20
211.2184462146333
  0
LWPOLYLINE
  5
16D5
330
1F
100
AcDbEntity
  8
10
100
AcDbPolyline
 90
        2
 70
     0
 43
0.0
 10
1074.884401831815
 20
203.2184462146342
 10
1087.884401831813
 20
203.2184462146342
  0
LWPOLYLINE
  5
16D6
330
1F
100
AcDbEntity
  8
10
100
AcDbPolyline
 90
        2
 70
     0
 43
0.0
 10
1113.884401831816
 20
211.2184462146333
 10
1100.884401831815
 20
211.2184462146333
  0
LWPOLYLINE
  5
16D7
330
1F
100
AcDbEntity
  8
10
100
AcDbPolyline
 90
        2
 70
     0
 43
0.0
 10
1100.884401831815
 20
203.2184462146342
 10
1113.884401831816
 20
203.2184462146342
  0
LWPOLYLINE
  5
16D8
330
1F
100
AcDbEntity
  8
10
100
AcDbPolyline
 90
        2
 70
     0
 43
0.0
 10
1139.884401831815
 20
211.2184462146333
 10
1126.884401831815
 20
211.2184462146333
  0
LWPOLYLINE
  5
16D9
330
1F
100
AcDbEntity
  8
10
100
AcDbPolyline
 90
        2
 70
     0
 43
0.0
 10
1126.884401831815
 20
203.2184462146342
 10
1139.884401831815
 20
203.2184462146342
  0
LWPOLYLINE
  5
16DA
330
1F
100
AcDbEntity
  8
10
100
AcDbPolyline
 90
        2
 70
     0
 43
0.0
 10
1165.884401831815
 20
211.2184462146333
 10
1152.884401831814
 20
211.2184462146333
  0
LWPOLYLINE
  5
16DB
330
1F
100
AcDbEntity
  8
10
100
AcDbPolyline
 90
        2
 70
     0
 43
0.0
 10
1152.884401831814
 20
203.2184462146342
 10
1165.884401831815
 20
203.2184462146342
  0
LWPOLYLINE
  5
16DC
330
1F
100
AcDbEntity
  8
10
100
AcDbPolyline
 90
        4
 70
     0
 43
0.0
 10
1178.884401831812
 20
203.2184462146342
 10
1181.384401831816
 20
203.2184462146342
 10
1181.384401831816
 20
211.2184462146333
 10
1178.884401831812
 20
211.2184462146333
  0
LWPOLYLINE
  5
16DD
330
1F
100
AcDbEntity
  8
10
100
AcDbPolyline
 90
        4
 70
     0
 43
0.0
 10
933.8844018318164
 20
133.2184462146327
 10
931.3844018318164
 20
133.2184462146327
 10
931.3844018318164
 20
148.2184462146328
 10
933.8844018318164
 20
148.2184462146328
  0
LWPOLYLINE
  5
16DE
330
1F
100
AcDbEntity
  8
10
100
AcDbPolyline
 90
        2
 70
     0
 43
0.0
 10
946.8844018318172
 20
148.2184462146328
 10
959.8844018318173
 20
148.2184462146328
  0
LWPOLYLINE
  5
16DF
330
1F
100
AcDbEntity
  8
10
100
AcDbPolyline
 90
        2
 70
     0
 43
0.0
 10
959.8844018318164
 20
133.2184462146327
 10
946.8844018318172
 20
133.2184462146327
  0
LWPOLYLINE
  5
16E0
330
1F
100
AcDbEntity
  8
10
100
AcDbPolyline
 90
        2
 70
     0
 43
0.0
 10
972.8844018318163
 20
148.2184462146328
 10
985.8844018318164
 20
148.2184462146328
  0
LWPOLYLINE
  5
16E1
330
1F
100
AcDbEntity
  8
10
100
AcDbPolyline
 90
        2
 70
     0
 43
0.0
 10
985.8844018318164
 20
133.2184462146327
 10
972.8844018318163
 20
133.2184462146327
  0
LWPOLYLINE
  5
16E2
330
1F
100
AcDbEntity
  8
10
100
AcDbPolyline
 90
        2
 70
     0
 43
0.0
 10
998.8844018318163
 20
148.2184462146328
 10
1011.884401831814
 20
148.2184462146328
  0
LWPOLYLINE
  5
16E3
330
1F
100
AcDbEntity
  8
10
100
AcDbPolyline
 90
        2
 70
     0
 43
0.0
 10
1011.884401831814
 20
133.2184462146327
 10
998.8844018318163
 20
133.2184462146327
  0
LWPOLYLINE
  5
16E4
330
1F
100
AcDbEntity
  8
10
100
AcDbPolyline
 90
        2
 70
     0
 43
0.0
 10
1024.884401831815
 20
148.2184462146328
 10
1037.884401831816
 20
148.2184462146328
  0
LWPOLYLINE
  5
16E5
330
1F
100
AcDbEntity
  8
10
100
AcDbPolyline
 90
        2
 70
     0
 43
0.0
 10
1037.884401831816
 20
133.2184462146327
 10
1024.884401831815
 20
133.2184462146327
  0
LWPOLYLINE
  5
16E6
330
1F
100
AcDbEntity
  8
10
100
AcDbPolyline
 90
        2
 70
     0
 43
0.0
 10
1050.884401831815
 20
148.2184462146328
 10
1061.884401831812
 20
148.2184462146328
  0
LWPOLYLINE
  5
16E7
330
1F
100
AcDbEntity
  8
10
100
AcDbPolyline
 90
        2
 70
     0
 43
0.0
 10
1061.884401831812
 20
133.2184462146327
 10
1050.884401831815
 20
133.2184462146327
  0
LWPOLYLINE
  5
16E8
330
1F
100
AcDbEntity
  8
10
100
AcDbPolyline
 90
        2
 70
     0
 43
0.0
 10
1074.884401831815
 20
148.2184462146328
 10
1087.884401831813
 20
148.2184462146328
  0
LWPOLYLINE
  5
16E9
330
1F
100
AcDbEntity
  8
10
100
AcDbPolyline
 90
        2
 70
     0
 43
0.0
 10
1087.884401831813
 20
133.2184462146327
 10
1074.884401831815
 20
133.2184462146327
  0
LWPOLYLINE
  5
16EA
330
1F
100
AcDbEntity
  8
10
100
AcDbPolyline
 90
        2
 70
     0
 43
0.0
 10
1100.884401831815
 20
148.2184462146328
 10
1113.884401831816
 20
148.2184462146328
  0
LWPOLYLINE
  5
16EB
330
1F
100
AcDbEntity
  8
10
100
AcDbPolyline
 90
        2
 70
     0
 43
0.0
 10
1113.884401831816
 20
133.2184462146327
 10
1100.884401831815
 20
133.2184462146327
  0
LWPOLYLINE
  5
16EC
330
1F
100
AcDbEntity
  8
10
100
AcDbPolyline
 90
        2
 70
     0
 43
0.0
 10
1126.884401831815
 20
148.2184462146328
 10
1139.884401831815
 20
148.2184462146328
  0
LWPOLYLINE
  5
16ED
330
1F
100
AcDbEntity
  8
10
100
AcDbPolyline
 90
        2
 70
     0
 43
0.0
 10
1139.884401831815
 20
133.2184462146327
 10
1126.884401831815
 20
133.2184462146327
  0
LWPOLYLINE
  5
16EE
330
1F
100
AcDbEntity
  8
10
100
AcDbPolyline
 90
        2
 70
     0
 43
0.0
 10
1152.884401831814
 20
148.2184462146328
 10
1165.884401831815
 20
148.2184462146328
  0
LWPOLYLINE
  5
16EF
330
1F
100
AcDbEntity
  8
10
100
AcDbPolyline
 90
        4
 70
     0
 43
0.0
 10
1178.884401831812
 20
148.2184462146328
 10
1181.384401831816
 20
148.2184462146328
 10
1181.384401831816
 20
133.2184462146327
 10
1178.884401831812
 20
133.2184462146327
  0
LWPOLYLINE
  5
16F0
330
1F
100
AcDbEntity
  8
10
100
AcDbPolyline
 90
        2
 70
     0
 43
0.0
 10
1165.884401831815
 20
133.2184462146327
 10
1152.884401831814
 20
133.2184462146327
  0
LINE
  5
16F1
330
1F
100
AcDbEntity
  8
10
100
AcDbLine
 10
933.8844018318164
 20
267.7184462146333
 30
0.0
 11
933.8844018318164
 21
277.7184462146333
 31
0.0
  0
LWPOLYLINE
  5
16F2
330
1F
100
AcDbEntity
  8
10
100
AcDbPolyline
 90
        4
 70
     1
 43
0.0
 10
1074.884401831815
 20
287.7184462146333
 10
1061.884401831812
 20
287.7184462146333
 10
1061.884401831812
 20
56.71844621463424
 10
1074.884401831815
 20
56.71844621463424
  0
LWPOLYLINE
  5
16F3
330
1F
100
AcDbEntity
  8
10
100
AcDbPolyline
 90
        4
 70
     1
 43
0.0
 10
1100.884401831815
 20
287.7184462146333
 10
1087.884401831813
 20
287.7184462146333
 10
1087.884401831813
 20
56.71844621463424
 10
1100.884401831815
 20
56.71844621463424
  0
LWPOLYLINE
  5
16F4
330
1F
100
AcDbEntity
  8
10
100
AcDbPolyline
 90
        4
 70
     1
 43
0.0
 10
1126.884401831815
 20
287.7184462146333
 10
1113.884401831816
 20
287.7184462146333
 10
1113.884401831816
 20
56.71844621463424
 10
1126.884401831815
 20
56.71844621463424
  0
LWPOLYLINE
  5
16F5
330
1F
100
AcDbEntity
  8
10
100
AcDbPolyline
 90
        4
 70
     1
 43
0.0
 10
1152.884401831814
 20
287.7184462146333
 10
1139.884401831815
 20
287.7184462146333
 10
1139.884401831815
 20
56.71844621463424
 10
1152.884401831814
 20
56.71844621463424
  0
LWPOLYLINE
  5
16F6
330
1F
100
AcDbEntity
  8
10
100
AcDbPolyline
 90
        4
 70
     1
 43
0.0
 10
1178.884401831812
 20
287.7184462146333
 10
1165.884401831815
 20
287.7184462146333
 10
1165.884401831815
 20
56.71844621463424
 10
1178.884401831812
 20
56.71844621463424
  0
LWPOLYLINE
  5
16F7
330
1F
100
AcDbEntity
  8
10
100
AcDbPolyline
 90
        4
 70
     1
 43
0.0
 10
933.8844018318164
 20
287.7184462146333
 10
946.8844018318172
 20
287.7184462146333
 10
946.8844018318172
 20
56.71844621463424
 10
933.8844018318164
 20
56.71844621463424
  0
LWPOLYLINE
  5
16F8
330
1F
100
AcDbEntity
  8
10
100
AcDbPolyline
 90
        4
 70
     1
 43
0.0
 10
959.8844018318173
 20
287.7184462146333
 10
972.8844018318163
 20
287.7184462146333
 10
972.8844018318163
 20
56.71844621463424
 10
959.8844018318173
 20
56.71844621463424
  0
LWPOLYLINE
  5
16F9
330
1F
100
AcDbEntity
  8
10
100
AcDbPolyline
 90
        4
 70
     1
 43
0.0
 10
985.8844018318164
 20
287.7184462146333
 10
998.8844018318163
 20
287.7184462146333
 10
998.8844018318163
 20
56.71844621463424
 10
985.8844018318164
 20
56.71844621463424
  0
LWPOLYLINE
  5
16FA
330
1F
100
AcDbEntity
  8
10
100
AcDbPolyline
 90
        4
 70
     1
 43
0.0
 10
1011.884401831814
 20
287.7184462146333
 10
1024.884401831815
 20
287.7184462146333
 10
1024.884401831815
 20
56.71844621463424
 10
1011.884401831814
 20
56.71844621463424
  0
LWPOLYLINE
  5
16FB
330
1F
100
AcDbEntity
  8
10
100
AcDbPolyline
 90
        4
 70
     1
 43
0.0
 10
1037.884401831816
 20
287.7184462146333
 10
1050.884401831815
 20
287.7184462146333
 10
1050.884401831815
 20
56.71844621463424
 10
1037.884401831816
 20
56.71844621463424
  0
LINE
  5
16FC
330
1F
100
AcDbEntity
  8
10
100
AcDbLine
 10
908.8844018318164
 20
277.7184462146333
 30
0.0
 11
933.8844018318164
 21
277.7184462146333
 31
0.0
  0
LINE
  5
16FD
330
1F
100
AcDbEntity
  8
10
100
AcDbLine
 10
908.8844018318164
 20
67.71844621463286
 30
0.0
 11
933.8844018318164
 21
67.71844621463286
 31
0.0
  0
LINE
  5
16FE
330
1F
100
AcDbEntity
  8
10
100
AcDbLine
 10
900.8844018318164
 20
83.71844621463287
 30
0.0
 11
902.8844018318164
 21
83.71844621463287
 31
0.0
  0
LINE
  5
16FF
330
1F
100
AcDbEntity
  8
10
100
AcDbLine
 10
898.3844018318164
 20
81.91844621463451
 30
0.0
 11
900.8844018318164
 21
81.91844621463451
 31
0.0
  0
LINE
  5
1700
330
1F
100
AcDbEntity
  8
10
100
AcDbLine
 10
900.8844018318164
 20
61.71844621463288
 30
0.0
 11
902.8844018318164
 21
61.71844621463288
 31
0.0
  0
LINE
  5
1701
330
1F
100
AcDbEntity
  8
10
100
AcDbLine
 10
898.3844018318164
 20
63.51844621463442
 30
0.0
 11
900.8844018318164
 21
63.51844621463442
 31
0.0
  0
LINE
  5
1702
330
1F
100
AcDbEntity
  8
10
100
AcDbLine
 10
900.8844018318164
 20
61.71844621463288
 30
0.0
 11
900.8844018318164
 21
83.71844621463287
 31
0.0
  0
LINE
  5
1703
330
1F
100
AcDbEntity
  8
10
100
AcDbLine
 10
902.8844018318164
 20
61.71844621463288
 30
0.0
 11
902.8844018318164
 21
83.71844621463287
 31
0.0
  0
LINE
  5
1704
330
1F
100
AcDbEntity
  8
10
100
AcDbLine
 10
898.3844018318164
 20
63.51844621463442
 30
0.0
 11
898.3844018318164
 21
81.91844621463451
 31
0.0
  0
LINE
  5
1705
330
1F
100
AcDbEntity
  8
10
100
AcDbLine
 10
933.8844018318164
 20
67.71844621463286
 30
0.0
 11
933.8844018318164
 21
77.71844621463287
 31
0.0
  0
LINE
  5
1706
330
1F
100
AcDbEntity
  8
10
100
AcDbLine
 10
908.8844018318164
 20
77.71844621463287
 30
0.0
 11
933.8844018318164
 21
77.71844621463287
 31
0.0
  0
LINE
  5
1707
330
1F
100
AcDbEntity
  8
10
100
AcDbLine
 10
946.8844018318163
 20
67.71844621463286
 30
0.0
 11
959.8844018318164
 21
67.71844621463286
 31
0.0
  0
LINE
  5
1708
330
1F
100
AcDbEntity
  8
10
100
AcDbLine
 10
946.8844018318163
 20
77.71844621463287
 30
0.0
 11
959.8844018318164
 21
77.71844621463287
 31
0.0
  0
LINE
  5
1709
330
1F
100
AcDbEntity
  8
10
100
AcDbLine
 10
972.8844018318163
 20
67.71844621463286
 30
0.0
 11
985.8844018318164
 21
67.71844621463286
 31
0.0
  0
LINE
  5
170A
330
1F
100
AcDbEntity
  8
10
100
AcDbLine
 10
972.8844018318163
 20
77.71844621463287
 30
0.0
 11
985.8844018318164
 21
77.71844621463287
 31
0.0
  0
LINE
  5
170B
330
1F
100
AcDbEntity
  8
10
100
AcDbLine
 10
998.8844018318163
 20
67.71844621463286
 30
0.0
 11
1011.884401831814
 21
67.71844621463286
 31
0.0
  0
LINE
  5
170C
330
1F
100
AcDbEntity
  8
10
100
AcDbLine
 10
998.8844018318163
 20
77.71844621463287
 30
0.0
 11
1011.884401831814
 21
77.71844621463287
 31
0.0
  0
LINE
  5
170D
330
1F
100
AcDbEntity
  8
10
100
AcDbLine
 10
1024.884401831815
 20
67.71844621463286
 30
0.0
 11
1037.884401831816
 21
67.71844621463286
 31
0.0
  0
LINE
  5
170E
330
1F
100
AcDbEntity
  8
10
100
AcDbLine
 10
1024.884401831815
 20
77.71844621463287
 30
0.0
 11
1037.884401831816
 21
77.71844621463287
 31
0.0
  0
LINE
  5
170F
330
1F
100
AcDbEntity
  8
10
100
AcDbLine
 10
1050.884401831815
 20
67.71844621463286
 30
0.0
 11
1061.884401831813
 21
67.71844621463286
 31
0.0
  0
LINE
  5
1710
330
1F
100
AcDbEntity
  8
10
100
AcDbLine
 10
1050.884401831815
 20
77.71844621463287
 30
0.0
 11
1061.884401831813
 21
77.71844621463287
 31
0.0
  0
LINE
  5
1711
330
1F
100
AcDbEntity
  8
10
100
AcDbLine
 10
1087.884401831816
 20
77.71844621463287
 30
0.0
 11
1074.884401831815
 21
77.71844621463287
 31
0.0
  0
LINE
  5
1712
330
1F
100
AcDbEntity
  8
10
100
AcDbLine
 10
1087.884401831816
 20
67.71844621463286
 30
0.0
 11
1074.884401831815
 21
67.71844621463286
 31
0.0
  0
LINE
  5
1713
330
1F
100
AcDbEntity
  8
10
100
AcDbLine
 10
1113.884401831816
 20
77.71844621463287
 30
0.0
 11
1100.884401831816
 21
77.71844621463287
 31
0.0
  0
LINE
  5
1714
330
1F
100
AcDbEntity
  8
10
100
AcDbLine
 10
1113.884401831816
 20
67.71844621463286
 30
0.0
 11
1100.884401831816
 21
67.71844621463286
 31
0.0
  0
LINE
  5
1715
330
1F
100
AcDbEntity
  8
10
100
AcDbLine
 10
1139.884401831815
 20
77.71844621463287
 30
0.0
 11
1126.884401831816
 21
77.71844621463287
 31
0.0
  0
LINE
  5
1716
330
1F
100
AcDbEntity
  8
10
100
AcDbLine
 10
1139.884401831815
 20
67.71844621463286
 30
0.0
 11
1126.884401831816
 21
67.71844621463286
 31
0.0
  0
LINE
  5
1717
330
1F
100
AcDbEntity
  8
10
100
AcDbLine
 10
1165.884401831815
 20
77.71844621463287
 30
0.0
 11
1152.884401831814
 21
77.71844621463287
 31
0.0
  0
LINE
  5
1718
330
1F
100
AcDbEntity
  8
10
100
AcDbLine
 10
1165.884401831815
 20
67.71844621463286
 30
0.0
 11
1152.884401831814
 21
67.71844621463286
 31
0.0
  0
LINE
  5
1719
330
1F
100
AcDbEntity
  8
10
100
AcDbLine
 10
1203.884401831815
 20
267.7184462146333
 30
0.0
 11
1178.884401831812
 21
267.7184462146333
 31
0.0
  0
LINE
  5
171A
330
1F
100
AcDbEntity
  8
10
100
AcDbLine
 10
1203.884401831815
 20
277.7184462146333
 30
0.0
 11
1178.884401831812
 21
277.7184462146333
 31
0.0
  0
LINE
  5
171B
330
1F
100
AcDbEntity
  8
10
100
AcDbLine
 10
1178.884401831812
 20
267.7184462146333
 30
0.0
 11
1178.884401831812
 21
277.7184462146333
 31
0.0
  0
LINE
  5
171C
330
1F
100
AcDbEntity
  8
10
100
AcDbLine
 10
1214.384401831815
 20
262.9034916384103
 30
0.0
 11
1214.384401831815
 21
282.5334007908572
 31
0.0
  0
LINE
  5
171D
330
1F
100
AcDbEntity
  8
10
100
AcDbLine
 10
1221.384401831816
 20
264.4684462146333
 30
0.0
 11
1221.384401831816
 21
280.9684462146333
 31
0.0
  0
ARC
  5
171E
330
1F
100
AcDbEntity
  8
10
100
AcDbCircle
 10
1207.605236534356
 20
272.7184462146333
 30
0.0
 40
13.77916529745972
100
AcDbArc
 50
339.1359356360822
 51
20.86406436391774
  0
LINE
  5
171F
330
1F
100
AcDbEntity
  8
10
100
AcDbLine
 10
1209.884401831816
 20
261.7184462146333
 30
0.0
 11
1209.884401831816
 21
283.7184462146333
 31
0.0
  0
ARC
  5
1720
330
1F
100
AcDbEntity
  8
10
100
AcDbCircle
 10
1214.749946115578
 20
264.4684462146333
 30
0.0
 40
6.634455716238125
100
AcDbArc
 50
0.0
 51
30.25256506362055
  0
LINE
  5
1721
330
1F
100
AcDbEntity
  8
10
100
AcDbLine
 10
1214.384401831815
 20
263.5184462146333
 30
0.0
 11
1211.884401831816
 21
263.5184462146333
 31
0.0
  0
LINE
  5
1722
330
1F
100
AcDbEntity
  8
10
100
AcDbLine
 10
1221.384401831816
 20
264.4684462146333
 30
0.0
 11
1220.480874885963
 21
262.9034916384103
 31
0.0
  0
LINE
  5
1723
330
1F
100
AcDbEntity
  8
10
100
AcDbLine
 10
1220.480874885963
 20
262.9034916384103
 30
0.0
 11
1214.384401831815
 21
262.9034916384103
 31
0.0
  0
LINE
  5
1724
330
1F
100
AcDbEntity
  8
10
100
AcDbLine
 10
1211.884401831816
 20
261.7184462146333
 30
0.0
 11
1209.884401831816
 21
261.7184462146333
 31
0.0
  0
LINE
  5
1725
330
1F
100
AcDbEntity
  8
10
100
AcDbLine
 10
1220.480874885963
 20
267.8109689265211
 30
0.0
 11
1214.384401831815
 21
267.8109689265211
 31
0.0
  0
LINE
  5
1726
330
1F
100
AcDbEntity
  8
10
100
AcDbLine
 10
1214.384401831815
 20
281.918446214634
 30
0.0
 11
1211.884401831816
 21
281.918446214634
 31
0.0
  0
ARC
  5
1727
330
1F
100
AcDbEntity
  8
10
100
AcDbCircle
 10
1214.749946115578
 20
280.9684462146333
 30
0.0
 40
6.634455716238125
100
AcDbArc
 50
329.7474349363793
 51
0.0
  0
LINE
  5
1728
330
1F
100
AcDbEntity
  8
10
100
AcDbLine
 10
1221.384401831816
 20
280.9684462146333
 30
0.0
 11
1220.480874885963
 21
282.5334007908572
 31
0.0
  0
LINE
  5
1729
330
1F
100
AcDbEntity
  8
10
100
AcDbLine
 10
1220.480874885963
 20
277.6259235027458
 30
0.0
 11
1214.384401831815
 21
277.6259235027458
 31
0.0
  0
LINE
  5
172A
330
1F
100
AcDbEntity
  8
10
100
AcDbLine
 10
1220.480874885963
 20
282.5334007908572
 30
0.0
 11
1214.384401831815
 21
282.5334007908572
 31
0.0
  0
LINE
  5
172B
330
1F
100
AcDbEntity
  8
10
100
AcDbLine
 10
1211.884401831816
 20
283.7184462146333
 30
0.0
 11
1209.884401831816
 21
283.7184462146333
 31
0.0
  0
LINE
  5
172C
330
1F
100
AcDbEntity
  8
10
100
AcDbLine
 10
1211.884401831816
 20
261.7184462146333
 30
0.0
 11
1211.884401831816
 21
283.7184462146333
 31
0.0
  0
LINE
  5
172D
330
1F
100
AcDbEntity
  8
10
100
AcDbLine
 10
1165.884401831815
 20
267.7184462146333
 30
0.0
 11
1152.884401831814
 21
267.7184462146333
 31
0.0
  0
LINE
  5
172E
330
1F
100
AcDbEntity
  8
10
100
AcDbLine
 10
1165.884401831815
 20
277.7184462146333
 30
0.0
 11
1152.884401831814
 21
277.7184462146333
 31
0.0
  0
LINE
  5
172F
330
1F
100
AcDbEntity
  8
10
100
AcDbLine
 10
1139.884401831815
 20
267.7184462146333
 30
0.0
 11
1126.884401831816
 21
267.7184462146333
 31
0.0
  0
LINE
  5
1730
330
1F
100
AcDbEntity
  8
10
100
AcDbLine
 10
1139.884401831815
 20
277.7184462146333
 30
0.0
 11
1126.884401831816
 21
277.7184462146333
 31
0.0
  0
LINE
  5
1731
330
1F
100
AcDbEntity
  8
10
100
AcDbLine
 10
1113.884401831816
 20
267.7184462146333
 30
0.0
 11
1100.884401831816
 21
267.7184462146333
 31
0.0
  0
LINE
  5
1732
330
1F
100
AcDbEntity
  8
10
100
AcDbLine
 10
1113.884401831816
 20
277.7184462146333
 30
0.0
 11
1100.884401831816
 21
277.7184462146333
 31
0.0
  0
LINE
  5
1733
330
1F
100
AcDbEntity
  8
10
100
AcDbLine
 10
1087.884401831816
 20
267.7184462146333
 30
0.0
 11
1074.884401831815
 21
267.7184462146333
 31
0.0
  0
LINE
  5
1734
330
1F
100
AcDbEntity
  8
10
100
AcDbLine
 10
1087.884401831816
 20
277.7184462146333
 30
0.0
 11
1074.884401831815
 21
277.7184462146333
 31
0.0
  0
LINE
  5
1735
330
1F
100
AcDbEntity
  8
10
100
AcDbLine
 10
1050.884401831815
 20
277.7184462146333
 30
0.0
 11
1061.884401831813
 21
277.7184462146333
 31
0.0
  0
LINE
  5
1736
330
1F
100
AcDbEntity
  8
10
100
AcDbLine
 10
1050.884401831815
 20
267.7184462146333
 30
0.0
 11
1061.884401831813
 21
267.7184462146333
 31
0.0
  0
LINE
  5
1737
330
1F
100
AcDbEntity
  8
10
100
AcDbLine
 10
1024.884401831815
 20
277.7184462146333
 30
0.0
 11
1037.884401831816
 21
277.7184462146333
 31
0.0
  0
LINE
  5
1738
330
1F
100
AcDbEntity
  8
10
100
AcDbLine
 10
1024.884401831815
 20
267.7184462146333
 30
0.0
 11
1037.884401831816
 21
267.7184462146333
 31
0.0
  0
LINE
  5
1739
330
1F
100
AcDbEntity
  8
10
100
AcDbLine
 10
998.8844018318163
 20
277.7184462146333
 30
0.0
 11
1011.884401831814
 21
277.7184462146333
 31
0.0
  0
LINE
  5
173A
330
1F
100
AcDbEntity
  8
10
100
AcDbLine
 10
998.8844018318163
 20
267.7184462146333
 30
0.0
 11
1011.884401831814
 21
267.7184462146333
 31
0.0
  0
LINE
  5
173B
330
1F
100
AcDbEntity
  8
10
100
AcDbLine
 10
972.8844018318163
 20
277.7184462146333
 30
0.0
 11
985.8844018318164
 21
277.7184462146333
 31
0.0
  0
LINE
  5
173C
330
1F
100
AcDbEntity
  8
10
100
AcDbLine
 10
972.8844018318163
 20
267.7184462146333
 30
0.0
 11
985.8844018318164
 21
267.7184462146333
 31
0.0
  0
LINE
  5
173D
330
1F
100
AcDbEntity
  8
10
100
AcDbLine
 10
946.8844018318163
 20
277.7184462146333
 30
0.0
 11
959.8844018318164
 21
277.7184462146333
 31
0.0
  0
LINE
  5
173E
330
1F
100
AcDbEntity
  8
10
100
AcDbLine
 10
946.8844018318163
 20
267.7184462146333
 30
0.0
 11
959.8844018318164
 21
267.7184462146333
 31
0.0
  0
LINE
  5
173F
330
1F
100
AcDbEntity
  8
10
100
AcDbLine
 10
891.3844018318162
 20
264.4684462146333
 30
0.0
 11
891.3844018318162
 21
280.9684462146333
 31
0.0
  0
LINE
  5
1740
330
1F
100
AcDbEntity
  8
10
100
AcDbLine
 10
900.8844018318164
 20
283.7184462146333
 30
0.0
 11
902.8844018318164
 21
283.7184462146333
 31
0.0
  0
LINE
  5
1741
330
1F
100
AcDbEntity
  8
10
100
AcDbLine
 10
892.2879287776691
 20
282.5334007908572
 30
0.0
 11
898.3844018318164
 21
282.5334007908572
 31
0.0
  0
LINE
  5
1742
330
1F
100
AcDbEntity
  8
10
100
AcDbLine
 10
892.2879287776691
 20
277.6259235027458
 30
0.0
 11
898.3844018318164
 21
277.6259235027458
 31
0.0
  0
LINE
  5
1743
330
1F
100
AcDbEntity
  8
10
100
AcDbLine
 10
891.3844018318162
 20
280.9684462146333
 30
0.0
 11
892.2879287776691
 21
282.5334007908572
 31
0.0
  0
ARC
  5
1744
330
1F
100
AcDbEntity
  8
10
100
AcDbCircle
 10
898.0188575480541
 20
280.9684462146333
 30
0.0
 40
6.634455716238125
100
AcDbArc
 50
180.0
 51
210.2525650636204
  0
LINE
  5
1745
330
1F
100
AcDbEntity
  8
10
100
AcDbLine
 10
898.3844018318164
 20
281.918446214634
 30
0.0
 11
900.8844018318164
 21
281.918446214634
 31
0.0
  0
LINE
  5
1746
330
1F
100
AcDbEntity
  8
10
100
AcDbLine
 10
892.2879287776691
 20
267.8109689265211
 30
0.0
 11
898.3844018318164
 21
267.8109689265211
 31
0.0
  0
LINE
  5
1747
330
1F
100
AcDbEntity
  8
10
100
AcDbLine
 10
900.8844018318164
 20
261.7184462146333
 30
0.0
 11
902.8844018318164
 21
261.7184462146333
 31
0.0
  0
LINE
  5
1748
330
1F
100
AcDbEntity
  8
10
100
AcDbLine
 10
892.2879287776691
 20
262.9034916384103
 30
0.0
 11
898.3844018318164
 21
262.9034916384103
 31
0.0
  0
LINE
  5
1749
330
1F
100
AcDbEntity
  8
10
100
AcDbLine
 10
891.3844018318162
 20
264.4684462146333
 30
0.0
 11
892.2879287776691
 21
262.9034916384103
 31
0.0
  0
LINE
  5
174A
330
1F
100
AcDbEntity
  8
10
100
AcDbLine
 10
898.3844018318164
 20
263.5184462146333
 30
0.0
 11
900.8844018318164
 21
263.5184462146333
 31
0.0
  0
ARC
  5
174B
330
1F
100
AcDbEntity
  8
10
100
AcDbCircle
 10
898.0188575480541
 20
264.4684462146333
 30
0.0
 40
6.634455716238125
100
AcDbArc
 50
149.7474349363794
 51
180.0
  0
LINE
  5
174C
330
1F
100
AcDbEntity
  8
10
100
AcDbLine
 10
900.8844018318164
 20
261.7184462146333
 30
0.0
 11
900.8844018318164
 21
283.7184462146333
 31
0.0
  0
LINE
  5
174D
330
1F
100
AcDbEntity
  8
10
100
AcDbLine
 10
902.8844018318164
 20
261.7184462146333
 30
0.0
 11
902.8844018318164
 21
283.7184462146333
 31
0.0
  0
ARC
  5
174E
330
1F
100
AcDbEntity
  8
10
100
AcDbCircle
 10
905.1635671292759
 20
272.7184462146333
 30
0.0
 40
13.77916529745972
100
AcDbArc
 50
159.1359356360821
 51
200.8640643639175
  0
LINE
  5
174F
330
1F
100
AcDbEntity
  8
10
100
AcDbLine
 10
898.3844018318164
 20
262.9034916384103
 30
0.0
 11
898.3844018318164
 21
282.5334007908572
 31
0.0
  0
LINE
  5
1750
330
1F
100
AcDbEntity
  8
10
100
AcDbLine
 10
1203.884401831815
 20
77.71844621463287
 30
0.0
 11
1178.884401831812
 21
77.71844621463287
 31
0.0
  0
LINE
  5
1751
330
1F
100
AcDbEntity
  8
10
100
AcDbLine
 10
1178.884401831812
 20
67.71844621463286
 30
0.0
 11
1178.884401831812
 21
77.71844621463287
 31
0.0
  0
LINE
  5
1752
330
1F
100
AcDbEntity
  8
10
100
AcDbLine
 10
1214.384401831815
 20
63.51844621463442
 30
0.0
 11
1214.384401831815
 21
81.91844621463451
 31
0.0
  0
LINE
  5
1753
330
1F
100
AcDbEntity
  8
10
100
AcDbLine
 10
1209.884401831816
 20
61.71844621463288
 30
0.0
 11
1209.884401831816
 21
83.71844621463287
 31
0.0
  0
LINE
  5
1754
330
1F
100
AcDbEntity
  8
10
100
AcDbLine
 10
1211.884401831816
 20
61.71844621463288
 30
0.0
 11
1211.884401831816
 21
83.71844621463287
 31
0.0
  0
LINE
  5
1755
330
1F
100
AcDbEntity
  8
10
100
AcDbLine
 10
1214.384401831815
 20
63.51844621463442
 30
0.0
 11
1211.884401831816
 21
63.51844621463442
 31
0.0
  0
LINE
  5
1756
330
1F
100
AcDbEntity
  8
10
100
AcDbLine
 10
1211.884401831816
 20
61.71844621463288
 30
0.0
 11
1209.884401831816
 21
61.71844621463288
 31
0.0
  0
LINE
  5
1757
330
1F
100
AcDbEntity
  8
10
100
AcDbLine
 10
1214.384401831815
 20
81.91844621463451
 30
0.0
 11
1211.884401831816
 21
81.91844621463451
 31
0.0
  0
LINE
  5
1758
330
1F
100
AcDbEntity
  8
10
100
AcDbLine
 10
1211.884401831816
 20
83.71844621463287
 30
0.0
 11
1209.884401831816
 21
83.71844621463287
 31
0.0
  0
LINE
  5
1759
330
1F
100
AcDbEntity
  8
10
100
AcDbLine
 10
1203.884401831815
 20
67.71844621463286
 30
0.0
 11
1178.884401831812
 21
67.71844621463286
 31
0.0
  0
LINE
  5
175A
330
1F
100
AcDbEntity
  8
10
100
AcDbLine
 10
908.8844018318164
 20
267.7184462146333
 30
0.0
 11
933.8844018318164
 21
267.7184462146333
 31
0.0
  0
LINE
  5
175B
330
1F
100
AcDbEntity
  8
10
100
AcDbLine
 10
873.0761311551241
 20
238.7184462146333
 30
0.0
 11
858.8844018318164
 21
238.7184462146333
 31
0.0
  0
LINE
  5
175C
330
1F
100
AcDbEntity
  8
10
100
AcDbLine
 10
875.830015866904
 20
235.7184462146333
 30
0.0
 11
858.8844018318164
 21
235.7184462146333
 31
0.0
  0
LINE
  5
175D
330
1F
100
AcDbEntity
  8
10
100
AcDbLine
 10
878.5839005786833
 20
232.7184462146333
 30
0.0
 11
858.8844018318164
 21
232.7184462146333
 31
0.0
  0
LINE
  5
175E
330
1F
100
AcDbEntity
  8
10
100
AcDbLine
 10
881.3377852904633
 20
229.7184462146333
 30
0.0
 11
858.8844018318164
 21
229.7184462146333
 31
0.0
  0
LINE
  5
175F
330
1F
100
AcDbEntity
  8
10
100
AcDbLine
 10
884.0916700022422
 20
226.7184462146333
 30
0.0
 11
858.8844018318164
 21
226.7184462146333
 31
0.0
  0
LINE
  5
1760
330
1F
100
AcDbEntity
  8
10
100
AcDbLine
 10
886.8455547140225
 20
223.7184462146333
 30
0.0
 11
858.8844018318164
 21
223.7184462146333
 31
0.0
  0
LINE
  5
1761
330
1F
100
AcDbEntity
  8
10
100
AcDbLine
 10
889.5994394258014
 20
220.7184462146333
 30
0.0
 11
858.8844018318164
 21
220.7184462146333
 31
0.0
  0
LINE
  5
1762
330
1F
100
AcDbEntity
  8
10
100
AcDbLine
 10
892.3533241375798
 20
217.7184462146333
 30
0.0
 11
858.8844018318164
 21
217.7184462146333
 31
0.0
  0
LINE
  5
1763
330
1F
100
AcDbEntity
  8
10
100
AcDbLine
 10
895.1072088493601
 20
214.7184462146333
 30
0.0
 11
858.8844018318164
 21
214.7184462146333
 31
0.0
  0
LINE
  5
1764
330
1F
100
AcDbEntity
  8
10
100
AcDbLine
 10
897.8610935611404
 20
211.7184462146333
 30
0.0
 11
858.8844018318164
 21
211.7184462146333
 31
0.0
  0
LINE
  5
1765
330
1F
100
AcDbEntity
  8
10
100
AcDbLine
 10
900.614978272919
 20
208.7184462146333
 30
0.0
 11
858.8844018318164
 21
208.7184462146333
 31
0.0
  0
LINE
  5
1766
330
1F
100
AcDbEntity
  8
10
100
AcDbLine
 10
903.3688629846983
 20
205.7184462146333
 30
0.0
 11
858.8844018318164
 21
205.7184462146333
 31
0.0
  0
LINE
  5
1767
330
1F
100
AcDbEntity
  8
10
100
AcDbLine
 10
906.1227476964782
 20
202.7184462146325
 30
0.0
 11
858.8844018318164
 21
202.7184462146325
 31
0.0
  0
LINE
  5
1768
330
1F
100
AcDbEntity
  8
10
100
AcDbLine
 10
908.8766324082572
 20
199.7184462146325
 30
0.0
 11
858.8844018318164
 21
199.7184462146325
 31
0.0
  0
LINE
  5
1769
330
1F
100
AcDbEntity
  8
10
100
AcDbLine
 10
909.8246130454731
 20
197.7184462146325
 30
0.0
 11
858.8844018318164
 21
197.7184462146325
 31
0.0
  0
LINE
  5
176A
330
1F
100
AcDbEntity
  8
10
100
AcDbLine
 10
905.2648242591299
 20
194.7184462146325
 30
0.0
 11
858.8844018318164
 21
194.7184462146325
 31
0.0
  0
LINE
  5
176B
330
1F
100
AcDbEntity
  8
10
100
AcDbLine
 10
900.7050354727871
 20
191.7184462146325
 30
0.0
 11
858.8844018318164
 21
191.7184462146325
 31
0.0
  0
LINE
  5
176C
330
1F
100
AcDbEntity
  8
10
100
AcDbLine
 10
896.1452466864439
 20
188.7184462146326
 30
0.0
 11
858.8844018318164
 21
188.7184462146326
 31
0.0
  0
LINE
  5
176D
330
1F
100
AcDbEntity
  8
10
100
AcDbLine
 10
891.5854579001011
 20
185.7184462146328
 30
0.0
 11
858.8844018318164
 21
185.7184462146328
 31
0.0
  0
LINE
  5
176E
330
1F
100
AcDbEntity
  8
10
100
AcDbLine
 10
887.0256691137578
 20
182.7184462146328
 30
0.0
 11
858.8844018318164
 21
182.7184462146328
 31
0.0
  0
LINE
  5
176F
330
1F
100
AcDbEntity
  8
10
100
AcDbLine
 10
882.4658803274141
 20
179.7184462146326
 30
0.0
 11
858.8844018318164
 21
179.7184462146326
 31
0.0
  0
LINE
  5
1770
330
1F
100
AcDbEntity
  8
10
100
AcDbLine
 10
877.9060915410722
 20
176.7184462146325
 30
0.0
 11
858.8844018318164
 21
176.7184462146325
 31
0.0
  0
LINE
  5
1771
330
1F
100
AcDbEntity
  8
10
100
AcDbLine
 10
873.3463027547292
 20
173.7184462146325
 30
0.0
 11
858.8844018318164
 21
173.7184462146325
 31
0.0
  0
LINE
  5
1772
330
1F
100
AcDbEntity
  8
10
100
AcDbLine
 10
868.7865139683847
 20
170.7184462146328
 30
0.0
 11
858.8844018318164
 21
170.7184462146328
 31
0.0
  0
LINE
  5
1773
330
1F
100
AcDbEntity
  8
10
100
AcDbLine
 10
864.2267251820422
 20
167.7184462146328
 30
0.0
 11
858.8844018318164
 21
167.7184462146328
 31
0.0
  0
LINE
  5
1774
330
1F
100
AcDbEntity
  8
10
100
AcDbLine
 10
866.6151859748891
 20
164.7184462146328
 30
0.0
 11
858.8844018318164
 21
164.7184462146328
 31
0.0
  0
LINE
  5
1775
330
1F
100
AcDbEntity
  8
10
100
AcDbLine
 10
869.003646767735
 20
161.7184462146328
 30
0.0
 11
858.8844018318164
 21
161.7184462146328
 31
0.0
  0
LINE
  5
1776
330
1F
100
AcDbEntity
  8
10
100
AcDbLine
 10
871.3921075605812
 20
158.7184462146328
 30
0.0
 11
858.8844018318164
 21
158.7184462146328
 31
0.0
  0
LINE
  5
1777
330
1F
100
AcDbEntity
  8
10
100
AcDbLine
 10
873.7805683534277
 20
155.7184462146328
 30
0.0
 11
858.8844018318164
 21
155.7184462146328
 31
0.0
  0
LINE
  5
1778
330
1F
100
AcDbEntity
  8
10
100
AcDbLine
 10
876.1690291462738
 20
152.7184462146328
 30
0.0
 11
858.8844018318164
 21
152.7184462146328
 31
0.0
  0
LINE
  5
1779
330
1F
100
AcDbEntity
  8
10
100
AcDbLine
 10
878.5574899391201
 20
149.7184462146328
 30
0.0
 11
858.8844018318164
 21
149.7184462146328
 31
0.0
  0
LINE
  5
177A
330
1F
100
AcDbEntity
  8
10
100
AcDbLine
 10
880.9459507319671
 20
146.7184462146328
 30
0.0
 11
858.8844018318164
 21
146.7184462146328
 31
0.0
  0
LINE
  5
177B
330
1F
100
AcDbEntity
  8
10
100
AcDbLine
 10
883.3344115248133
 20
143.7184462146328
 30
0.0
 11
858.8844018318164
 21
143.7184462146328
 31
0.0
  0
LINE
  5
177C
330
1F
100
AcDbEntity
  8
10
100
AcDbLine
 10
885.7228723176588
 20
140.7184462146327
 30
0.0
 11
858.8844018318164
 21
140.7184462146327
 31
0.0
  0
LINE
  5
177D
330
1F
100
AcDbEntity
  8
10
100
AcDbLine
 10
888.1113331105062
 20
137.7184462146327
 30
0.0
 11
858.8844018318164
 21
137.7184462146327
 31
0.0
  0
LINE
  5
177E
330
1F
100
AcDbEntity
  8
10
100
AcDbLine
 10
890.4997939033524
 20
134.7184462146328
 30
0.0
 11
858.8844018318164
 21
134.7184462146328
 31
0.0
  0
LINE
  5
177F
330
1F
100
AcDbEntity
  8
10
100
AcDbLine
 10
892.888254696199
 20
131.7184462146328
 30
0.0
 11
858.8844018318164
 21
131.7184462146328
 31
0.0
  0
LINE
  5
1780
330
1F
100
AcDbEntity
  8
10
100
AcDbLine
 10
895.2767154890452
 20
128.7184462146327
 30
0.0
 11
858.8844018318164
 21
128.7184462146327
 31
0.0
  0
LINE
  5
1781
330
1F
100
AcDbEntity
  8
10
100
AcDbLine
 10
897.6651762818915
 20
125.7184462146327
 30
0.0
 11
858.8844018318164
 21
125.7184462146327
 31
0.0
  0
LINE
  5
1782
330
1F
100
AcDbEntity
  8
10
100
AcDbLine
 10
900.0536370747381
 20
122.7184462146327
 30
0.0
 11
858.8844018318164
 21
122.7184462146327
 31
0.0
  0
LINE
  5
1783
330
1F
100
AcDbEntity
  8
10
100
AcDbLine
 10
902.4420978675852
 20
119.7184462146327
 30
0.0
 11
858.8844018318164
 21
119.7184462146327
 31
0.0
  0
LINE
  5
1784
330
1F
100
AcDbEntity
  8
10
100
AcDbLine
 10
904.8305586604302
 20
116.7184462146325
 30
0.0
 11
858.8844018318164
 21
116.7184462146325
 31
0.0
  0
LINE
  5
1785
330
1F
100
AcDbEntity
  8
10
100
AcDbLine
 10
907.2190194532772
 20
113.7184462146327
 30
0.0
 11
858.8844018318164
 21
113.7184462146327
 31
0.0
  0
LINE
  5
1786
330
1F
100
AcDbEntity
  8
10
100
AcDbLine
 10
909.6074802461227
 20
110.7184462146328
 30
0.0
 11
858.8844018318164
 21
110.7184462146328
 31
0.0
  0
LINE
  5
1787
330
1F
100
AcDbEntity
  8
10
100
AcDbLine
 10
911.9959410389702
 20
107.7184462146328
 30
0.0
 11
858.8844018318164
 21
107.7184462146328
 31
0.0
  0
LINE
  5
1788
330
1F
100
AcDbEntity
  8
10
100
AcDbLine
 10
914.3844018318164
 20
104.7184462146327
 30
0.0
 11
858.8844018318164
 21
104.7184462146327
 31
0.0
  0
LWPOLYLINE
  5
1789
330
1F
100
AcDbEntity
  8
10
100
AcDbPolyline
 90
        4
 70
     0
 43
0.0
 10
933.8844018318164
 20
244.7184462146333
 10
860.8744793111299
 20
244.7184462146333
 10
860.8744793111299
 20
241.2184462146333
 10
933.8844018318164
 20
241.2184462146333
  0
LWPOLYLINE
  5
178A
330
1F
100
AcDbEntity
  8
10
100
AcDbPolyline
 90
        4
 70
     0
 43
0.0
 10
933.8844018318164
 20
103.2184462146325
 10
860.8744793111299
 20
103.2184462146325
 10
860.8744793111299
 20
99.71844621463288
 10
933.8844018318164
 20
99.71844621463288
  0
LWPOLYLINE
  5
178B
330
1F
100
AcDbEntity
  8
10
100
AcDbPolyline
 90
        4
 70
     0
 43
0.0
 10
1178.884401831812
 20
244.7184462146333
 10
1251.894324352502
 20
244.7184462146333
 10
1251.894324352502
 20
241.2184462146333
 10
1178.884401831812
 20
241.2184462146333
  0
LWPOLYLINE
  5
178C
330
1F
100
AcDbEntity
  8
10
100
AcDbPolyline
 90
        4
 70
     0
 43
0.0
 10
1178.884401831812
 20
103.2184462146325
 10
1251.894324352502
 20
103.2184462146325
 10
1251.894324352502
 20
99.71844621463288
 10
1178.884401831812
 20
99.71844621463288
  0
CIRCLE
  5
178D
330
1F
100
AcDbEntity
  8
10
100
AcDbCircle
 10
444.2911525721663
 20
23.71844621463286
 30
0.0
 40
3.424999999999998
  0
LINE
  5
178E
330
1F
100
AcDbEntity
  8
10
100
AcDbLine
 10
450.7911525721651
 20
27.471222964366
 30
0.0
 11
450.7911525721651
 21
19.96566946490156
 31
0.0
  0
LINE
  5
178F
330
1F
100
AcDbEntity
  8
10
100
AcDbLine
 10
437.7911525721652
 20
19.96566946490156
 30
0.0
 11
444.2911525721663
 21
16.21289271516798
 31
0.0
  0
LINE
  5
1790
330
1F
100
AcDbEntity
  8
10
100
AcDbLine
 10
437.7911525721652
 20
27.471222964366
 30
0.0
 11
437.7911525721652
 21
19.96566946490156
 31
0.0
  0
LINE
  5
1791
330
1F
100
AcDbEntity
  8
10
100
AcDbLine
 10
450.7911525721651
 20
19.96566946490156
 30
0.0
 11
444.2911525721663
 21
16.21289271516798
 31
0.0
  0
CIRCLE
  5
1792
330
1F
100
AcDbEntity
  8
10
100
AcDbCircle
 10
444.2911525721663
 20
23.71844621463286
 30
0.0
 40
6.5
  0
CIRCLE
  5
1793
330
1F
100
AcDbEntity
  8
10
100
AcDbCircle
 10
444.2911525721663
 20
23.71844621463286
 30
0.0
 40
4.0
  0
LINE
  5
1794
330
1F
100
AcDbEntity
  8
10
100
AcDbLine
 10
444.2911525721663
 20
31.22399971409913
 30
0.0
 11
437.7911525721652
 21
27.471222964366
 31
0.0
  0
LINE
  5
1795
330
1F
100
AcDbEntity
  8
10
100
AcDbLine
 10
444.2911525721663
 20
31.22399971409913
 30
0.0
 11
450.7911525721651
 21
27.471222964366
 31
0.0
  0
ARC
  5
1796
330
1F
100
AcDbEntity
  8
10
100
AcDbCircle
 10
306.7939293218983
 20
487.7194793872373
 30
0.0
 40
12.59896682739618
100
AcDbArc
 50
72.67065398763634
 51
107.3293460123634
  0
ARC
  5
1797
330
1F
100
AcDbEntity
  8
10
100
AcDbCircle
 10
301.1744848140371
 20
496.9860772298622
 30
0.0
 40
3.33237232554814
100
AcDbArc
 50
55.9330103530307
 51
90.08113059043301
  0
LINE
  5
1798
330
1F
100
AcDbEntity
  8
10
100
AcDbLine
 10
300.2828223229681
 20
500.3184462146333
 30
0.0
 11
299.2883758224331
 21
499.7443022598551
 31
0.0
  0
LINE
  5
1799
330
1F
100
AcDbEntity
  8
10
100
AcDbLine
 10
299.2883758224331
 20
494.8184462146334
 30
0.0
 11
299.2883758224331
 21
499.7443022598551
 31
0.0
  0
LINE
  5
179A
330
1F
100
AcDbEntity
  8
10
100
AcDbLine
 10
303.0411525721654
 20
494.8184462146334
 30
0.0
 11
303.0411525721654
 21
499.7465584916781
 31
0.0
  0
LINE
  5
179B
330
1F
100
AcDbEntity
  8
10
100
AcDbLine
 10
299.2883758224331
 20
494.8184462146334
 30
0.0
 11
314.2994828213633
 21
494.8184462146334
 31
0.0
  0
LINE
  5
179C
330
1F
100
AcDbEntity
  8
10
100
AcDbLine
 10
297.7939293218982
 20
492.8184462146333
 30
0.0
 11
315.7939293218983
 21
492.8184462146333
 31
0.0
  0
LINE
  5
179D
330
1F
100
AcDbEntity
  8
10
100
AcDbLine
 10
297.7939293218982
 20
492.8184462146333
 30
0.0
 11
297.7939293218982
 21
491.2184462146334
 31
0.0
  0
LINE
  5
179E
330
1F
100
AcDbEntity
  8
10
100
AcDbLine
 10
315.7939293218983
 20
492.8184462146333
 30
0.0
 11
315.7939293218983
 21
491.2184462146334
 31
0.0
  0
LINE
  5
179F
330
1F
100
AcDbEntity
  8
10
100
AcDbLine
 10
314.0439293218983
 20
492.8184462146333
 30
0.0
 11
314.0439293218983
 21
494.8184462146334
 31
0.0
  0
LINE
  5
17A0
330
1F
100
AcDbEntity
  8
10
100
AcDbLine
 10
299.5439293218982
 20
494.8184462146334
 30
0.0
 11
314.0439293218983
 21
494.8184462146334
 31
0.0
  0
LINE
  5
17A1
330
1F
100
AcDbEntity
  8
10
100
AcDbLine
 10
297.7939293218982
 20
491.2184462146334
 30
0.0
 11
315.7939293218983
 21
491.2184462146334
 31
0.0
  0
LINE
  5
17A2
330
1F
100
AcDbEntity
  8
10
100
AcDbLine
 10
299.5439293218982
 20
492.8184462146333
 30
0.0
 11
299.5439293218982
 21
494.8184462146334
 31
0.0
  0
LINE
  5
17A3
330
1F
100
AcDbEntity
  8
10
100
AcDbLine
 10
306.4507997576642
 20
494.8184462146334
 30
0.0
 11
308.4507997576642
 21
492.8184462146333
 31
0.0
  0
LINE
  5
17A4
330
1F
100
AcDbEntity
  8
10
100
AcDbLine
 10
307.0694719178461
 20
492.8184462146333
 30
0.0
 11
305.0694719178461
 21
494.8184462146334
 31
0.0
  0
LINE
  5
17A5
330
1F
100
AcDbEntity
  8
10
100
AcDbLine
 10
300.2883758224331
 20
494.8184462146334
 30
0.0
 11
313.2994828213633
 21
494.8184462146334
 31
0.0
  0
LINE
  5
17A6
330
1F
100
AcDbEntity
  8
10
100
AcDbLine
 10
310.5467060716311
 20
494.8184462146334
 30
0.0
 11
310.5467060716311
 21
499.7465584916781
 31
0.0
  0
LINE
  5
17A7
330
1F
100
AcDbEntity
  8
10
100
AcDbLine
 10
313.2994828213633
 20
500.3184462146333
 30
0.0
 11
300.2828223229681
 21
500.3184462146333
 31
0.0
  0
ARC
  5
17A8
330
1F
100
AcDbEntity
  8
10
100
AcDbCircle
 10
312.4133738297594
 20
496.9860772298622
 30
0.0
 40
3.33237232554814
100
AcDbArc
 50
89.91886940956701
 51
124.0669896469692
  0
LINE
  5
17A9
330
1F
100
AcDbEntity
  8
10
100
AcDbLine
 10
313.3050363208281
 20
500.3184462146333
 30
0.0
 11
314.2994828213633
 21
499.7443022598546
 31
0.0
  0
LINE
  5
17AA
330
1F
100
AcDbEntity
  8
10
100
AcDbLine
 10
314.2994828213633
 20
494.8184462146334
 30
0.0
 11
314.2994828213633
 21
499.7443022598546
 31
0.0
  0
LINE
  5
17AB
330
1F
100
AcDbEntity
  8
10
100
AcDbLine
 10
169.2994828213634
 20
494.8184462146334
 30
0.0
 11
169.2994828213634
 21
499.7443022598546
 31
0.0
  0
LINE
  5
17AC
330
1F
100
AcDbEntity
  8
10
100
AcDbLine
 10
168.305036320828
 20
500.3184462146333
 30
0.0
 11
169.2994828213634
 21
499.7443022598546
 31
0.0
  0
ARC
  5
17AD
330
1F
100
AcDbEntity
  8
10
100
AcDbCircle
 10
167.4133738297594
 20
496.9860772298622
 30
0.0
 40
3.33237232554814
100
AcDbArc
 50
89.91886940956701
 51
124.0669896469692
  0
ARC
  5
17AE
330
1F
100
AcDbEntity
  8
10
100
AcDbCircle
 10
161.7939293218983
 20
487.7194793872373
 30
0.0
 40
12.59896682739618
100
AcDbArc
 50
72.67065398763634
 51
107.3293460123634
  0
ARC
  5
17AF
330
1F
100
AcDbEntity
  8
10
100
AcDbCircle
 10
156.1744848140371
 20
496.9860772298622
 30
0.0
 40
3.33237232554814
100
AcDbArc
 50
55.9330103530307
 51
90.08113059043301
  0
LINE
  5
17B0
330
1F
100
AcDbEntity
  8
10
100
AcDbLine
 10
155.2828223229679
 20
500.3184462146333
 30
0.0
 11
154.2883758224331
 21
499.7443022598551
 31
0.0
  0
LINE
  5
17B1
330
1F
100
AcDbEntity
  8
10
100
AcDbLine
 10
154.2883758224331
 20
494.8184462146334
 30
0.0
 11
154.2883758224331
 21
499.7443022598551
 31
0.0
  0
LINE
  5
17B2
330
1F
100
AcDbEntity
  8
10
100
AcDbLine
 10
158.0411525721653
 20
494.8184462146334
 30
0.0
 11
158.0411525721653
 21
499.7465584916781
 31
0.0
  0
LINE
  5
17B3
330
1F
100
AcDbEntity
  8
10
100
AcDbLine
 10
165.5467060716308
 20
494.8184462146334
 30
0.0
 11
165.5467060716308
 21
499.7465584916781
 31
0.0
  0
LINE
  5
17B4
330
1F
100
AcDbEntity
  8
10
100
AcDbLine
 10
154.2883758224331
 20
494.8184462146334
 30
0.0
 11
169.2994828213634
 21
494.8184462146334
 31
0.0
  0
LINE
  5
17B5
330
1F
100
AcDbEntity
  8
10
100
AcDbLine
 10
152.7939293218983
 20
492.8184462146333
 30
0.0
 11
170.7939293218981
 21
492.8184462146333
 31
0.0
  0
LINE
  5
17B6
330
1F
100
AcDbEntity
  8
10
100
AcDbLine
 10
152.7939293218983
 20
492.8184462146333
 30
0.0
 11
152.7939293218983
 21
491.2184462146334
 31
0.0
  0
LINE
  5
17B7
330
1F
100
AcDbEntity
  8
10
100
AcDbLine
 10
170.7939293218981
 20
492.8184462146333
 30
0.0
 11
170.7939293218981
 21
491.2184462146334
 31
0.0
  0
LINE
  5
17B8
330
1F
100
AcDbEntity
  8
10
100
AcDbLine
 10
169.0439293218983
 20
492.8184462146333
 30
0.0
 11
169.0439293218983
 21
494.8184462146334
 31
0.0
  0
LINE
  5
17B9
330
1F
100
AcDbEntity
  8
10
100
AcDbLine
 10
154.5439293218983
 20
494.8184462146334
 30
0.0
 11
169.0439293218983
 21
494.8184462146334
 31
0.0
  0
LINE
  5
17BA
330
1F
100
AcDbEntity
  8
10
100
AcDbLine
 10
152.7939293218983
 20
491.2184462146334
 30
0.0
 11
170.7939293218981
 21
491.2184462146334
 31
0.0
  0
LINE
  5
17BB
330
1F
100
AcDbEntity
  8
10
100
AcDbLine
 10
154.5439293218983
 20
492.8184462146333
 30
0.0
 11
154.5439293218983
 21
494.8184462146334
 31
0.0
  0
LINE
  5
17BC
330
1F
100
AcDbEntity
  8
10
100
AcDbLine
 10
161.4507997576643
 20
494.8184462146334
 30
0.0
 11
163.4507997576641
 21
492.8184462146333
 31
0.0
  0
LINE
  5
17BD
330
1F
100
AcDbEntity
  8
10
100
AcDbLine
 10
162.0694719178461
 20
492.8184462146333
 30
0.0
 11
160.0694719178461
 21
494.8184462146334
 31
0.0
  0
LINE
  5
17BE
330
1F
100
AcDbEntity
  8
10
100
AcDbLine
 10
155.288375822432
 20
494.8184462146334
 30
0.0
 11
168.2994828213633
 21
494.8184462146334
 31
0.0
  0
LINE
  5
17BF
330
1F
100
AcDbEntity
  8
10
100
AcDbLine
 10
168.2994828213633
 20
500.3184462146333
 30
0.0
 11
155.2828223229679
 21
500.3184462146333
 31
0.0
  0
LINE
  5
17C0
330
1F
100
AcDbEntity
  8
10
100
AcDbLine
 10
87.79392932189828
 20
492.8184462146333
 30
0.0
 11
105.7939293218982
 21
492.8184462146333
 31
0.0
  0
LINE
  5
17C1
330
1F
100
AcDbEntity
  8
10
100
AcDbLine
 10
87.79392932189828
 20
492.8184462146333
 30
0.0
 11
87.79392932189828
 21
491.2184462146334
 31
0.0
  0
LINE
  5
17C2
330
1F
100
AcDbEntity
  8
10
100
AcDbLine
 10
89.54392932189831
 20
494.8184462146334
 30
0.0
 11
104.0439293218982
 21
494.8184462146334
 31
0.0
  0
LINE
  5
17C3
330
1F
100
AcDbEntity
  8
10
100
AcDbLine
 10
87.79392932189828
 20
491.2184462146334
 30
0.0
 11
105.7939293218982
 21
491.2184462146334
 31
0.0
  0
LINE
  5
17C4
330
1F
100
AcDbEntity
  8
10
100
AcDbLine
 10
89.54392932189831
 20
492.8184462146333
 30
0.0
 11
89.54392932189831
 21
494.8184462146334
 31
0.0
  0
LINE
  5
17C5
330
1F
100
AcDbEntity
  8
10
100
AcDbLine
 10
96.4507997576643
 20
494.8184462146334
 30
0.0
 11
98.4507997576652
 21
492.8184462146333
 31
0.0
  0
LINE
  5
17C6
330
1F
100
AcDbEntity
  8
10
100
AcDbLine
 10
97.06947191784616
 20
492.8184462146333
 30
0.0
 11
95.06947191784616
 21
494.8184462146334
 31
0.0
  0
LINE
  5
17C7
330
1F
100
AcDbEntity
  8
10
100
AcDbLine
 10
90.28837582243316
 20
494.8184462146334
 30
0.0
 11
103.2994828213634
 21
494.8184462146334
 31
0.0
  0
LINE
  5
17C8
330
1F
100
AcDbEntity
  8
10
100
AcDbLine
 10
89.28837582243204
 20
494.8184462146334
 30
0.0
 11
89.28837582243204
 21
499.7443022598551
 31
0.0
  0
LINE
  5
17C9
330
1F
100
AcDbEntity
  8
10
100
AcDbLine
 10
93.04115257216542
 20
494.8184462146334
 30
0.0
 11
93.04115257216542
 21
499.7465584916781
 31
0.0
  0
LINE
  5
17CA
330
1F
100
AcDbEntity
  8
10
100
AcDbLine
 10
89.28837582243204
 20
494.8184462146334
 30
0.0
 11
104.2994828213634
 21
494.8184462146334
 31
0.0
  0
LINE
  5
17CB
330
1F
100
AcDbEntity
  8
10
100
AcDbLine
 10
105.7939293218982
 20
492.8184462146333
 30
0.0
 11
105.7939293218982
 21
491.2184462146334
 31
0.0
  0
LINE
  5
17CC
330
1F
100
AcDbEntity
  8
10
100
AcDbLine
 10
104.0439293218982
 20
492.8184462146333
 30
0.0
 11
104.0439293218982
 21
494.8184462146334
 31
0.0
  0
ARC
  5
17CD
330
1F
100
AcDbEntity
  8
10
100
AcDbCircle
 10
96.79392932189831
 20
487.7194793872373
 30
0.0
 40
12.59896682739618
100
AcDbArc
 50
72.67065398763634
 51
107.3293460123634
  0
LINE
  5
17CE
330
1F
100
AcDbEntity
  8
10
100
AcDbLine
 10
103.2994828213634
 20
500.3184462146333
 30
0.0
 11
90.28282232296827
 21
500.3184462146333
 31
0.0
  0
ARC
  5
17CF
330
1F
100
AcDbEntity
  8
10
100
AcDbCircle
 10
91.17448481403608
 20
496.9860772298622
 30
0.0
 40
3.33237232554814
100
AcDbArc
 50
55.9330103530307
 51
90.08113059043301
  0
LINE
  5
17D0
330
1F
100
AcDbEntity
  8
10
100
AcDbLine
 10
90.28282232296827
 20
500.3184462146333
 30
0.0
 11
89.28837582243204
 21
499.7443022598551
 31
0.0
  0
ARC
  5
17D1
330
1F
100
AcDbEntity
  8
10
100
AcDbCircle
 10
102.4133738297593
 20
496.9860772298622
 30
0.0
 40
3.33237232554814
100
AcDbArc
 50
89.91886940956701
 51
124.0669896469692
  0
LINE
  5
17D2
330
1F
100
AcDbEntity
  8
10
100
AcDbLine
 10
103.3050363208281
 20
500.3184462146333
 30
0.0
 11
104.2994828213634
 21
499.7443022598546
 31
0.0
  0
LINE
  5
17D3
330
1F
100
AcDbEntity
  8
10
100
AcDbLine
 10
104.2994828213634
 20
494.8184462146334
 30
0.0
 11
104.2994828213634
 21
499.7443022598546
 31
0.0
  0
LINE
  5
17D4
330
1F
100
AcDbEntity
  8
10
100
AcDbLine
 10
100.5467060716312
 20
494.8184462146334
 30
0.0
 11
100.5467060716312
 21
499.7465584916781
 31
0.0
  0
LINE
  5
17D5
330
1F
100
AcDbEntity
  8
12
 48
2.0
100
AcDbLine
 10
371.7911525721654
 20
505.3184462146333
 30
0.0
 11
371.7911525721654
 21
322.2184462146333
 31
0.0
  0
LINE
  5
17D6
330
1F
100
AcDbEntity
  8
10
100
AcDbLine
 10
414.2911525721654
 20
427.7184462146333
 30
0.0
 11
408.2911525721653
 21
427.7184462146333
 31
0.0
  0
LINE
  5
17D7
330
1F
100
AcDbEntity
  8
10
100
AcDbLine
 10
414.2911525721654
 20
442.7184462146334
 30
0.0
 11
408.2911525721653
 21
442.7184462146334
 31
0.0
  0
LINE
  5
17D8
330
1F
100
AcDbEntity
  8
17
100
AcDbLine
 10
419.0113227487968
 20
435.2184462146333
 30
0.0
 11
403.5709823955341
 21
435.2184462146333
 31
0.0
  0
LINE
  5
17D9
330
1F
100
AcDbEntity
  8
10
100
AcDbLine
 10
264.2911525721653
 20
427.7184462146333
 30
0.0
 11
270.2911525721654
 21
427.7184462146333
 31
0.0
  0
LINE
  5
17DA
330
1F
100
AcDbEntity
  8
10
100
AcDbLine
 10
264.2911525721653
 20
442.7184462146334
 30
0.0
 11
270.2911525721654
 21
442.7184462146334
 31
0.0
  0
LINE
  5
17DB
330
1F
100
AcDbEntity
  8
17
100
AcDbLine
 10
259.5709823955341
 20
435.2184462146333
 30
0.0
 11
275.011322748797
 21
435.2184462146333
 31
0.0
  0
LINE
  5
17DC
330
1F
100
AcDbEntity
  8
10
100
AcDbLine
 10
336.2911525721654
 20
427.7184462146333
 30
0.0
 11
342.2911525721654
 21
427.7184462146333
 31
0.0
  0
LINE
  5
17DD
330
1F
100
AcDbEntity
  8
17
100
AcDbLine
 10
331.5709823955341
 20
435.2184462146333
 30
0.0
 11
347.011322748797
 21
435.2184462146333
 31
0.0
  0
LINE
  5
17DE
330
1F
100
AcDbEntity
  8
10
100
AcDbLine
 10
336.2911525721654
 20
442.7184462146334
 30
0.0
 11
342.2911525721654
 21
442.7184462146334
 31
0.0
  0
LINE
  5
17DF
330
1F
100
AcDbEntity
  8
17
100
AcDbLine
 10
49.5709823955342
 20
435.2184462146333
 30
0.0
 11
65.01132274879704
 21
435.2184462146333
 31
0.0
  0
LINE
  5
17E0
330
1F
100
AcDbEntity
  8
10
100
AcDbLine
 10
54.29115257216539
 20
442.7184462146334
 30
0.0
 11
60.29115257216539
 21
442.7184462146334
 31
0.0
  0
LINE
  5
17E1
330
1F
100
AcDbEntity
  8
10
100
AcDbLine
 10
54.29115257216539
 20
427.7184462146333
 30
0.0
 11
60.29115257216539
 21
427.7184462146333
 31
0.0
  0
LINE
  5
17E2
330
1F
100
AcDbEntity
  8
17
100
AcDbLine
 10
137.0113227487969
 20
435.2184462146333
 30
0.0
 11
121.5709823955342
 21
435.2184462146333
 31
0.0
  0
LINE
  5
17E3
330
1F
100
AcDbEntity
  8
10
100
AcDbLine
 10
132.2911525721652
 20
442.7184462146334
 30
0.0
 11
126.2911525721654
 21
442.7184462146334
 31
0.0
  0
LINE
  5
17E4
330
1F
100
AcDbEntity
  8
10
100
AcDbLine
 10
132.2911525721652
 20
427.7184462146333
 30
0.0
 11
126.2911525721654
 21
427.7184462146333
 31
0.0
  0
LINE
  5
17E5
330
1F
100
AcDbEntity
  8
17
100
AcDbLine
 10
209.0113227487969
 20
435.2184462146333
 30
0.0
 11
193.5709823955339
 21
435.2184462146333
 31
0.0
  0
LINE
  5
17E6
330
1F
100
AcDbEntity
  8
10
100
AcDbLine
 10
204.2911525721653
 20
442.7184462146334
 30
0.0
 11
198.2911525721654
 21
442.7184462146334
 31
0.0
  0
LINE
  5
17E7
330
1F
100
AcDbEntity
  8
10
100
AcDbLine
 10
204.2911525721653
 20
427.7184462146333
 30
0.0
 11
198.2911525721654
 21
427.7184462146333
 31
0.0
  0
LINE
  5
17E8
330
1F
100
AcDbEntity
  8
10
100
AcDbLine
 10
103.7911525721654
 20
380.2184462146333
 30
0.0
 11
103.7911525721654
 21
450.2184462146334
 31
0.0
  0
LINE
  5
17E9
330
1F
100
AcDbEntity
  8
10
100
AcDbLine
 10
89.79115257216539
 20
380.2184462146333
 30
0.0
 11
89.79115257216539
 21
450.2184462146334
 31
0.0
  0
LINE
  5
17EA
330
1F
100
AcDbEntity
  8
10
100
AcDbLine
 10
168.7911525721654
 20
380.2184462146333
 30
0.0
 11
168.7911525721654
 21
450.2184462146334
 31
0.0
  0
LINE
  5
17EB
330
1F
100
AcDbEntity
  8
10
100
AcDbLine
 10
154.7911525721653
 20
380.2184462146333
 30
0.0
 11
154.7911525721653
 21
450.2184462146334
 31
0.0
  0
LINE
  5
17EC
330
1F
100
AcDbEntity
  8
10
100
AcDbLine
 10
313.7911525721654
 20
380.2184462146333
 30
0.0
 11
313.7911525721654
 21
450.2184462146334
 31
0.0
  0
LINE
  5
17ED
330
1F
100
AcDbEntity
  8
10
100
AcDbLine
 10
299.7911525721653
 20
380.2184462146333
 30
0.0
 11
299.7911525721653
 21
450.2184462146334
 31
0.0
  0
LINE
  5
17EE
330
1F
100
AcDbEntity
  8
10
100
AcDbLine
 10
378.7911525721654
 20
380.2184462146333
 30
0.0
 11
378.7911525721654
 21
450.2184462146334
 31
0.0
  0
LINE
  5
17EF
330
1F
100
AcDbEntity
  8
10
100
AcDbLine
 10
364.7911525721653
 20
380.2184462146333
 30
0.0
 11
364.7911525721653
 21
450.2184462146334
 31
0.0
  0
LINE
  5
17F0
330
1F
100
AcDbEntity
  8
17
 48
2.0
100
AcDbLine
 10
24.29115257216539
 20
547.1490362324272
 30
0.0
 11
24.29115257216539
 21
322.2184462146333
 31
0.0
  0
LINE
  5
17F1
330
1F
100
AcDbEntity
  8
17
 48
2.0
100
AcDbLine
 10
444.2911525721663
 20
546.8110527310606
 30
0.0
 11
444.2911525721663
 21
322.2184462146333
 31
0.0
  0
LINE
  5
17F2
330
1F
100
AcDbEntity
  8
12
 48
2.0
100
AcDbLine
 10
96.79115257216542
 20
505.3184462146333
 30
0.0
 11
96.79115257216542
 21
322.2184462146333
 31
0.0
  0
LINE
  5
17F3
330
1F
100
AcDbEntity
  8
12
 48
2.0
100
AcDbLine
 10
161.7911525721654
 20
505.3184462146333
 30
0.0
 11
161.7911525721654
 21
322.2184462146333
 31
0.0
  0
LINE
  5
17F4
330
1F
100
AcDbEntity
  8
12
 48
2.0
100
AcDbLine
 10
306.7911525721654
 20
505.3184462146333
 30
0.0
 11
306.7911525721654
 21
322.2184462146333
 31
0.0
  0
LINE
  5
17F5
330
1F
100
AcDbEntity
  8
17
  6
DOT_CENTER
 48
2.0
100
AcDbLine
 10
417.7911525721663
 20
519.2184462146339
 30
0.0
 11
470.7911525721661
 21
519.2184462146339
 31
0.0
  0
LINE
  5
17F6
330
1F
100
AcDbEntity
  8
10
100
AcDbLine
 10
1258.884401831815
 20
365.2184462146308
 30
0.0
 11
1258.884401831817
 21
465.2184462146311
 31
0.0
  0
LINE
  5
17F7
330
1F
100
AcDbEntity
  8
10
100
AcDbLine
 10
853.8844018318162
 20
365.2184462146333
 30
0.0
 11
853.8844018318162
 21
465.2184462146333
 31
0.0
  0
LINE
  5
17F8
330
1F
100
AcDbEntity
  8
10
100
AcDbLine
 10
901.8844018318173
 20
465.2184462146333
 30
0.0
 11
1210.884401831815
 21
465.2184462146333
 31
0.0
  0
LINE
  5
17F9
330
1F
100
AcDbEntity
  8
17
 48
2.0
100
AcDbLine
 10
1228.884401831815
 20
540.7184462146334
 30
0.0
 11
1228.884401831815
 21
322.2184462146333
 31
0.0
  0
LINE
  5
17FA
330
1F
100
AcDbEntity
  8
17
100
AcDbLine
 10
1348.884401831816
 20
447.7184462146338
 30
0.0
 11
1348.884401831816
 21
422.7184462146338
 31
0.0
  0
LINE
  5
17FB
330
1F
100
AcDbEntity
  8
17
100
AcDbLine
 10
1361.384401831815
 20
435.2184462146333
 30
0.0
 11
1336.384401831816
 21
435.2184462146333
 31
0.0
  0
LINE
  5
17FC
330
1F
100
AcDbEntity
  8
17
100
AcDbLine
 10
1308.884401831815
 20
447.7184462146338
 30
0.0
 11
1308.884401831815
 21
422.7184462146338
 31
0.0
  0
LINE
  5
17FD
330
1F
100
AcDbEntity
  8
17
100
AcDbLine
 10
1321.384401831815
 20
435.2184462146333
 30
0.0
 11
1296.384401831816
 21
435.2184462146333
 31
0.0
  0
CIRCLE
  5
17FE
330
1F
100
AcDbEntity
  8
10
100
AcDbCircle
 10
1348.884401831816
 20
435.2184462146333
 30
0.0
 40
7.5
  0
CIRCLE
  5
17FF
330
1F
100
AcDbEntity
  8
10
100
AcDbCircle
 10
1308.884401831815
 20
435.2184462146333
 30
0.0
 40
7.5
  0
CIRCLE
  5
1800
330
1F
100
AcDbEntity
  8
10
100
AcDbCircle
 10
803.8844018318155
 20
435.2184462146333
 30
0.0
 40
7.5
  0
CIRCLE
  5
1801
330
1F
100
AcDbEntity
  8
10
100
AcDbCircle
 10
763.8844018318162
 20
435.2184462146333
 30
0.0
 40
7.5
  0
LINE
  5
1802
330
1F
100
AcDbEntity
  8
17
100
AcDbLine
 10
791.3844018318163
 20
435.2184462146333
 30
0.0
 11
816.3844018318162
 21
435.2184462146333
 31
0.0
  0
LINE
  5
1803
330
1F
100
AcDbEntity
  8
17
100
AcDbLine
 10
803.8844018318155
 20
447.7184462146338
 30
0.0
 11
803.8844018318155
 21
422.7184462146338
 31
0.0
  0
LINE
  5
1804
330
1F
100
AcDbEntity
  8
17
100
AcDbLine
 10
751.3844018318162
 20
435.2184462146333
 30
0.0
 11
776.3844018318162
 21
435.2184462146333
 31
0.0
  0
LINE
  5
1805
330
1F
100
AcDbEntity
  8
17
100
AcDbLine
 10
763.8844018318162
 20
447.7184462146338
 30
0.0
 11
763.8844018318162
 21
422.7184462146338
 31
0.0
  0
LINE
  5
1806
330
1F
100
AcDbEntity
  8
17
 48
2.0
100
AcDbLine
 10
861.3844018318173
 20
519.2184462146339
 30
0.0
 11
906.3844018318173
 21
519.2184462146339
 31
0.0
  0
LINE
  5
1807
330
1F
100
AcDbEntity
  8
17
 48
2.0
100
AcDbLine
 10
883.8844018318173
 20
543.8043501113611
 30
0.0
 11
883.8844018318173
 21
322.2184462146333
 31
0.0
  0
LINE
  5
1808
330
1F
100
AcDbEntity
  8
10
100
AcDbLine
 10
1210.884401831815
 20
365.2184462146333
 30
0.0
 11
901.8844018318173
 21
365.2184462146333
 31
0.0
  0
LINE
  5
1809
330
1F
100
AcDbEntity
  8
17
100
AcDbLine
 10
1361.384401831815
 20
395.2184462146333
 30
0.0
 11
1336.384401831816
 21
395.2184462146333
 31
0.0
  0
LINE
  5
180A
330
1F
100
AcDbEntity
  8
17
100
AcDbLine
 10
1348.884401831816
 20
407.7184462146333
 30
0.0
 11
1348.884401831816
 21
382.7184462146333
 31
0.0
  0
LINE
  5
180B
330
1F
100
AcDbEntity
  8
17
100
AcDbLine
 10
1308.884401831815
 20
407.7184462146333
 30
0.0
 11
1308.884401831815
 21
382.7184462146333
 31
0.0
  0
LINE
  5
180C
330
1F
100
AcDbEntity
  8
17
100
AcDbLine
 10
1321.384401831815
 20
395.2184462146333
 30
0.0
 11
1296.384401831816
 21
395.2184462146333
 31
0.0
  0
CIRCLE
  5
180D
330
1F
100
AcDbEntity
  8
10
100
AcDbCircle
 10
1348.884401831816
 20
395.2184462146333
 30
0.0
 40
7.5
  0
CIRCLE
  5
180E
330
1F
100
AcDbEntity
  8
10
100
AcDbCircle
 10
1308.884401831815
 20
395.2184462146333
 30
0.0
 40
7.5
  0
CIRCLE
  5
180F
330
1F
100
AcDbEntity
  8
10
100
AcDbCircle
 10
803.8844018318155
 20
395.2184462146333
 30
0.0
 40
7.5
  0
CIRCLE
  5
1810
330
1F
100
AcDbEntity
  8
10
100
AcDbCircle
 10
763.8844018318162
 20
395.2184462146333
 30
0.0
 40
7.5
  0
LINE
  5
1811
330
1F
100
AcDbEntity
  8
17
100
AcDbLine
 10
791.3844018318163
 20
395.2184462146333
 30
0.0
 11
816.3844018318162
 21
395.2184462146333
 31
0.0
  0
LINE
  5
1812
330
1F
100
AcDbEntity
  8
17
100
AcDbLine
 10
803.8844018318155
 20
407.7184462146333
 30
0.0
 11
803.8844018318155
 21
382.7184462146333
 31
0.0
  0
LINE
  5
1813
330
1F
100
AcDbEntity
  8
17
100
AcDbLine
 10
763.8844018318162
 20
407.7184462146333
 30
0.0
 11
763.8844018318162
 21
382.7184462146333
 31
0.0
  0
LINE
  5
1814
330
1F
100
AcDbEntity
  8
17
100
AcDbLine
 10
751.3844018318162
 20
395.2184462146333
 30
0.0
 11
776.3844018318162
 21
395.2184462146333
 31
0.0
  0
LINE
  5
1815
330
1F
100
AcDbEntity
  8
10
100
AcDbLine
 10
414.2911525721654
 20
402.7184462146333
 30
0.0
 11
408.2911525721653
 21
402.7184462146333
 31
0.0
  0
LINE
  5
1816
330
1F
100
AcDbEntity
  8
10
100
AcDbLine
 10
414.2911525721654
 20
387.7184462146333
 30
0.0
 11
408.2911525721653
 21
387.7184462146333
 31
0.0
  0
LINE
  5
1817
330
1F
100
AcDbEntity
  8
17
100
AcDbLine
 10
419.0113227487968
 20
395.2184462146333
 30
0.0
 11
403.5709823955341
 21
395.2184462146333
 31
0.0
  0
LINE
  5
1818
330
1F
100
AcDbEntity
  8
10
100
AcDbLine
 10
264.2911525721653
 20
402.7184462146333
 30
0.0
 11
270.2911525721654
 21
402.7184462146333
 31
0.0
  0
LINE
  5
1819
330
1F
100
AcDbEntity
  8
10
100
AcDbLine
 10
264.2911525721653
 20
387.7184462146333
 30
0.0
 11
270.2911525721654
 21
387.7184462146333
 31
0.0
  0
LINE
  5
181A
330
1F
100
AcDbEntity
  8
17
100
AcDbLine
 10
259.5709823955341
 20
395.2184462146333
 30
0.0
 11
275.011322748797
 21
395.2184462146333
 31
0.0
  0
LINE
  5
181B
330
1F
100
AcDbEntity
  8
17
100
AcDbLine
 10
331.5709823955341
 20
395.2184462146333
 30
0.0
 11
347.011322748797
 21
395.2184462146333
 31
0.0
  0
LINE
  5
181C
330
1F
100
AcDbEntity
  8
10
100
AcDbLine
 10
336.2911525721654
 20
387.7184462146333
 30
0.0
 11
342.2911525721654
 21
387.7184462146333
 31
0.0
  0
LINE
  5
181D
330
1F
100
AcDbEntity
  8
10
100
AcDbLine
 10
336.2911525721654
 20
402.7184462146333
 30
0.0
 11
342.2911525721654
 21
402.7184462146333
 31
0.0
  0
LINE
  5
181E
330
1F
100
AcDbEntity
  8
17
100
AcDbLine
 10
49.5709823955342
 20
395.2184462146333
 30
0.0
 11
65.01132274879704
 21
395.2184462146333
 31
0.0
  0
LINE
  5
181F
330
1F
100
AcDbEntity
  8
10
100
AcDbLine
 10
54.29115257216539
 20
387.7184462146333
 30
0.0
 11
60.29115257216539
 21
387.7184462146333
 31
0.0
  0
LINE
  5
1820
330
1F
100
AcDbEntity
  8
10
100
AcDbLine
 10
54.29115257216539
 20
402.7184462146333
 30
0.0
 11
60.29115257216539
 21
402.7184462146333
 31
0.0
  0
LINE
  5
1821
330
1F
100
AcDbEntity
  8
17
100
AcDbLine
 10
137.0113227487969
 20
395.2184462146333
 30
0.0
 11
121.5709823955342
 21
395.2184462146333
 31
0.0
  0
LINE
  5
1822
330
1F
100
AcDbEntity
  8
10
100
AcDbLine
 10
132.2911525721652
 20
387.7184462146333
 30
0.0
 11
126.2911525721654
 21
387.7184462146333
 31
0.0
  0
LINE
  5
1823
330
1F
100
AcDbEntity
  8
10
100
AcDbLine
 10
132.2911525721652
 20
402.7184462146333
 30
0.0
 11
126.2911525721654
 21
402.7184462146333
 31
0.0
  0
LINE
  5
1824
330
1F
100
AcDbEntity
  8
17
100
AcDbLine
 10
209.0113227487969
 20
395.2184462146333
 30
0.0
 11
193.5709823955339
 21
395.2184462146333
 31
0.0
  0
LINE
  5
1825
330
1F
100
AcDbEntity
  8
10
100
AcDbLine
 10
204.2911525721653
 20
387.7184462146333
 30
0.0
 11
198.2911525721654
 21
387.7184462146333
 31
0.0
  0
LINE
  5
1826
330
1F
100
AcDbEntity
  8
10
100
AcDbLine
 10
204.2911525721653
 20
402.7184462146333
 30
0.0
 11
198.2911525721654
 21
402.7184462146333
 31
0.0
  0
LWPOLYLINE
  5
1827
330
1F
100
AcDbEntity
  8
10
100
AcDbPolyline
 90
        5
 70
     0
 43
0.0
 10
432.2911525721654
 20
344.7184462146333
 10
432.2911525721654
 20
485.2184462146338
 10
456.2911525721654
 20
485.2184462146338
 10
456.2911525721654
 20
344.7184462146333
 10
432.2911525721654
 20
344.7184462146333
  0
LWPOLYLINE
  5
1828
330
1F
100
AcDbEntity
  8
10
100
AcDbPolyline
 90
        5
 70
     0
 43
0.0
 10
36.2911525721654
 20
344.7184462146333
 10
36.2911525721654
 20
485.2184462146338
 10
12.2911525721654
 20
485.2184462146338
 10
12.2911525721654
 20
344.7184462146333
 10
36.2911525721654
 20
344.7184462146333
  0
LWPOLYLINE
  5
1829
330
1F
100
AcDbEntity
  8
10
100
AcDbPolyline
 90
        5
 70
     0
 43
0.0
 10
9.291152572165401
 20
485.2184462146338
 10
9.291152572165401
 20
491.2184462146334
 10
459.2911525721663
 20
491.2184462146334
 10
459.2911525721663
 20
485.2184462146338
 10
9.291152572165401
 20
485.2184462146338
  0
LWPOLYLINE
  5
182A
330
1F
100
AcDbEntity
  8
10
100
AcDbPolyline
 90
        3
 70
     0
 43
0.0
 10
254.2911525721653
 20
485.2184462146338
 10
254.2911525721653
 20
450.2184462146334
 10
264.2911525721653
 20
450.2184462146334
  0
LWPOLYLINE
  5
182B
330
1F
100
AcDbEntity
  8
10
100
AcDbPolyline
 90
        5
 70
     0
 43
0.0
 10
254.2911525721653
 20
380.2184462146333
 10
254.2911525721653
 20
344.7184462146333
 10
424.2911525721654
 20
344.7184462146333
 10
424.2911525721654
 20
380.2184462146333
 10
414.2911525721654
 20
380.2184462146333
  0
LWPOLYLINE
  5
182C
330
1F
100
AcDbEntity
  8
10
100
AcDbPolyline
 90
        5
 70
     0
 43
0.0
 10
214.2911525721653
 20
380.2184462146333
 10
214.2911525721653
 20
344.7184462146333
 10
44.29115257216539
 20
344.7184462146333
 10
44.29115257216539
 20
380.2184462146333
 10
54.29115257216539
 20
380.2184462146333
  0
LWPOLYLINE
  5
182D
330
1F
100
AcDbEntity
  8
10
100
AcDbPolyline
 90
        3
 70
     0
 43
0.0
 10
214.2911525721653
 20
485.2184462146338
 10
214.2911525721653
 20
450.2184462146334
 10
204.2911525721653
 20
450.2184462146334
  0
LWPOLYLINE
  5
182E
330
1F
100
AcDbEntity
  8
10
100
AcDbPolyline
 90
        5
 70
     0
 43
0.0
 10
414.2911525721654
 20
465.2184462146333
 10
408.2911525721653
 20
465.2184462146333
 10
408.2911525721653
 20
365.2184462146333
 10
414.2911525721654
 20
365.2184462146333
 10
414.2911525721654
 20
465.2184462146333
  0
LWPOLYLINE
  5
182F
330
1F
100
AcDbEntity
  8
10
100
AcDbPolyline
 90
        4
 70
     0
 43
0.0
 10
414.2911525721654
 20
450.2184462146334
 10
424.2911525721654
 20
450.2184462146334
 10
424.2911525721654
 20
485.2184462146338
 10
254.2911525721653
 20
485.2184462146338
  0
LWPOLYLINE
  5
1830
330
1F
100
AcDbEntity
  8
10
100
AcDbPolyline
 90
        2
 70
     0
 43
0.0
 10
408.2911525721653
 20
380.2184462146333
 10
342.2911525721654
 20
380.2184462146333
  0
LWPOLYLINE
  5
1831
330
1F
100
AcDbEntity
  8
10
100
AcDbPolyline
 90
        5
 70
     0
 43
0.0
 10
264.2911525721653
 20
465.2184462146333
 10
270.2911525721654
 20
465.2184462146333
 10
270.2911525721654
 20
365.2184462146333
 10
264.2911525721653
 20
365.2184462146333
 10
264.2911525721653
 20
465.2184462146333
  0
LWPOLYLINE
  5
1832
330
1F
100
AcDbEntity
  8
10
100
AcDbPolyline
 90
        5
 70
     0
 43
0.0
 10
336.2911525721654
 20
465.2184462146333
 10
342.2911525721654
 20
465.2184462146333
 10
342.2911525721654
 20
365.2184462146333
 10
336.2911525721654
 20
365.2184462146333
 10
336.2911525721654
 20
465.2184462146333
  0
LWPOLYLINE
  5
1833
330
1F
100
AcDbEntity
  8
10
100
AcDbPolyline
 90
        5
 70
     0
 43
0.0
 10
54.29115257216539
 20
465.2184462146333
 10
60.29115257216539
 20
465.2184462146333
 10
60.29115257216539
 20
365.2184462146333
 10
54.29115257216539
 20
365.2184462146333
 10
54.29115257216539
 20
465.2184462146333
  0
LWPOLYLINE
  5
1834
330
1F
100
AcDbEntity
  8
10
100
AcDbPolyline
 90
        5
 70
     0
 43
0.0
 10
132.2911525721652
 20
465.2184462146333
 10
126.2911525721654
 20
465.2184462146333
 10
126.2911525721654
 20
365.2184462146333
 10
132.2911525721652
 20
365.2184462146333
 10
132.2911525721652
 20
465.2184462146333
  0
LWPOLYLINE
  5
1835
330
1F
100
AcDbEntity
  8
10
100
AcDbPolyline
 90
        5
 70
     0
 43
0.0
 10
204.2911525721653
 20
465.2184462146333
 10
198.2911525721654
 20
465.2184462146333
 10
198.2911525721654
 20
365.2184462146333
 10
204.2911525721653
 20
365.2184462146333
 10
204.2911525721653
 20
465.2184462146333
  0
LWPOLYLINE
  5
1836
330
1F
100
AcDbEntity
  8
10
100
AcDbPolyline
 90
        2
 70
     0
 43
0.0
 10
342.2911525721654
 20
450.2184462146334
 10
408.2911525721653
 20
450.2184462146334
  0
LWPOLYLINE
  5
1837
330
1F
100
AcDbEntity
  8
10
100
AcDbPolyline
 90
        2
 70
     0
 43
0.0
 10
270.2911525721654
 20
450.2184462146334
 10
336.2911525721654
 20
450.2184462146334
  0
LWPOLYLINE
  5
1838
330
1F
100
AcDbEntity
  8
10
100
AcDbPolyline
 90
        2
 70
     0
 43
0.0
 10
264.2911525721653
 20
380.2184462146333
 10
254.2911525721653
 20
380.2184462146333
  0
LWPOLYLINE
  5
1839
330
1F
100
AcDbEntity
  8
10
100
AcDbPolyline
 90
        2
 70
     0
 43
0.0
 10
336.2911525721654
 20
380.2184462146333
 10
270.2911525721654
 20
380.2184462146333
  0
LWPOLYLINE
  5
183A
330
1F
100
AcDbEntity
  8
10
100
AcDbPolyline
 90
        2
 70
     0
 43
0.0
 10
198.2911525721654
 20
450.2184462146334
 10
132.2911525721652
 20
450.2184462146334
  0
LWPOLYLINE
  5
183B
330
1F
100
AcDbEntity
  8
10
100
AcDbPolyline
 90
        2
 70
     0
 43
0.0
 10
204.2911525721653
 20
380.2184462146333
 10
214.2911525721653
 20
380.2184462146333
  0
LWPOLYLINE
  5
183C
330
1F
100
AcDbEntity
  8
10
100
AcDbPolyline
 90
        2
 70
     0
 43
0.0
 10
132.2911525721652
 20
380.2184462146333
 10
198.2911525721654
 20
380.2184462146333
  0
LWPOLYLINE
  5
183D
330
1F
100
AcDbEntity
  8
10
100
AcDbPolyline
 90
        2
 70
     0
 43
0.0
 10
126.2911525721654
 20
450.2184462146334
 10
60.29115257216539
 20
450.2184462146334
  0
LWPOLYLINE
  5
183E
330
1F
100
AcDbEntity
  8
10
100
AcDbPolyline
 90
        4
 70
     0
 43
0.0
 10
54.29115257216539
 20
450.2184462146334
 10
44.29115257216539
 20
450.2184462146334
 10
44.29115257216539
 20
485.2184462146338
 10
214.2911525721653
 20
485.2184462146338
  0
LWPOLYLINE
  5
183F
330
1F
100
AcDbEntity
  8
10
100
AcDbPolyline
 90
        2
 70
     0
 43
0.0
 10
60.29115257216539
 20
380.2184462146333
 10
126.2911525721654
 20
380.2184462146333
  0
LWPOLYLINE
  5
1840
330
1F
100
AcDbEntity
  8
10
100
AcDbPolyline
 90
        4
 70
     0
 43
0.0
 10
1246.884401831815
 20
465.2184462146333
 10
1373.884401831816
 20
465.2184462146333
 10
1373.884401831816
 20
365.2184462146333
 10
1246.884401831815
 20
365.2184462146333
  0
LWPOLYLINE
  5
1841
330
1F
100
AcDbEntity
  8
10
100
AcDbPolyline
 90
        5
 70
     0
 43
0.0
 10
1246.884401831815
 20
344.7184462146333
 10
1246.884401831815
 20
380.2184462146333
 10
1240.884401831816
 20
380.2184462146333
 10
1240.884401831816
 20
344.7184462146333
 10
1246.884401831815
 20
344.7184462146333
  0
LWPOLYLINE
  5
1842
330
1F
100
AcDbEntity
  8
10
100
AcDbPolyline
 90
        5
 70
     0
 43
0.0
 10
1216.884401831816
 20
344.7184462146333
 10
1216.884401831816
 20
380.2184462146333
 10
1210.884401831815
 20
380.2184462146333
 10
1210.884401831815
 20
344.7184462146333
 10
1216.884401831816
 20
344.7184462146333
  0
LWPOLYLINE
  5
1843
330
1F
100
AcDbEntity
  8
10
100
AcDbPolyline
 90
        5
 70
     0
 43
0.0
 10
1216.884401831816
 20
485.2184462146338
 10
1216.884401831816
 20
450.2184462146334
 10
1210.884401831815
 20
450.2184462146334
 10
1210.884401831815
 20
485.2184462146338
 10
1216.884401831816
 20
485.2184462146338
  0
LWPOLYLINE
  5
1844
330
1F
100
AcDbEntity
  8
10
100
AcDbPolyline
 90
        5
 70
     0
 43
0.0
 10
1246.884401831815
 20
485.2184462146338
 10
1246.884401831815
 20
450.2184462146334
 10
1240.884401831816
 20
450.2184462146334
 10
1240.884401831816
 20
485.2184462146338
 10
1246.884401831815
 20
485.2184462146338
  0
LWPOLYLINE
  5
1845
330
1F
100
AcDbEntity
  8
10
100
AcDbPolyline
 90
        5
 70
     0
 43
0.0
 10
1249.884401831815
 20
485.2184462146338
 10
1249.884401831815
 20
491.2184462146334
 10
1207.884401831815
 20
491.2184462146334
 10
1207.884401831815
 20
485.2184462146338
 10
1249.884401831815
 20
485.2184462146338
  0
LWPOLYLINE
  5
1846
330
1F
100
AcDbEntity
  8
10
100
AcDbPolyline
 90
        5
 70
     0
 43
0.0
 10
1240.884401831816
 20
344.7184462146333
 10
1240.884401831816
 20
485.2184462146338
 10
1216.884401831816
 20
485.2184462146338
 10
1216.884401831816
 20
344.7184462146333
 10
1240.884401831816
 20
344.7184462146333
  0
LWPOLYLINE
  5
1847
330
1F
100
AcDbEntity
  8
10
100
AcDbPolyline
 90
        5
 70
     0
 43
0.0
 10
871.8844018318163
 20
344.7184462146333
 10
871.8844018318163
 20
485.2184462146338
 10
895.8844018318162
 20
485.2184462146338
 10
895.8844018318162
 20
344.7184462146333
 10
871.8844018318163
 20
344.7184462146333
  0
LWPOLYLINE
  5
1848
330
1F
100
AcDbEntity
  8
10
100
AcDbPolyline
 90
        5
 70
     0
 43
0.0
 10
862.8844018318172
 20
485.2184462146338
 10
862.8844018318172
 20
491.2184462146334
 10
904.8844018318172
 20
491.2184462146334
 10
904.8844018318172
 20
485.2184462146338
 10
862.8844018318172
 20
485.2184462146338
  0
LWPOLYLINE
  5
1849
330
1F
100
AcDbEntity
  8
10
100
AcDbPolyline
 90
        5
 70
     0
 43
0.0
 10
865.8844018318163
 20
485.2184462146338
 10
865.8844018318163
 20
450.2184462146334
 10
871.8844018318163
 20
450.2184462146334
 10
871.8844018318163
 20
485.2184462146338
 10
865.8844018318163
 20
485.2184462146338
  0
LWPOLYLINE
  5
184A
330
1F
100
AcDbEntity
  8
10
100
AcDbPolyline
 90
        5
 70
     0
 43
0.0
 10
895.8844018318162
 20
485.2184462146338
 10
895.8844018318162
 20
450.2184462146334
 10
901.8844018318164
 20
450.2184462146334
 10
901.8844018318164
 20
485.2184462146338
 10
895.8844018318162
 20
485.2184462146338
  0
LWPOLYLINE
  5
184B
330
1F
100
AcDbEntity
  8
10
100
AcDbPolyline
 90
        5
 70
     0
 43
0.0
 10
895.8844018318162
 20
344.7184462146333
 10
895.8844018318162
 20
380.2184462146333
 10
901.8844018318164
 20
380.2184462146333
 10
901.8844018318164
 20
344.7184462146333
 10
895.8844018318162
 20
344.7184462146333
  0
LWPOLYLINE
  5
184C
330
1F
100
AcDbEntity
  8
10
100
AcDbPolyline
 90
        5
 70
     0
 43
0.0
 10
865.8844018318163
 20
344.7184462146333
 10
865.8844018318163
 20
380.2184462146333
 10
871.8844018318163
 20
380.2184462146333
 10
871.8844018318163
 20
344.7184462146333
 10
865.8844018318163
 20
344.7184462146333
  0
LWPOLYLINE
  5
184D
330
1F
100
AcDbEntity
  8
10
100
AcDbPolyline
 90
        4
 70
     0
 43
0.0
 10
865.8844018318163
 20
465.2184462146333
 10
738.8844018318162
 20
465.2184462146333
 10
738.8844018318162
 20
365.2184462146333
 10
865.8844018318163
 20
365.2184462146333
  0
LWPOLYLINE
  5
184E
330
1F
100
AcDbEntity
  8
10
100
AcDbPolyline
 90
       13
 70
     0
 43
0.0
 10
858.8844018318164
 20
-0.2815537853657588
 10
902.8844018318164
 20
-0.2815537853657588
 42
0.4142135623730951
 10
908.8844018318164
 20
5.718446214634241
 10
908.8844018318164
 20
93.71844621463287
 42
0.4142135623730951
 10
902.8844018318164
 20
99.71844621463288
 10
858.8844018318164
 20
99.71844621463288
 10
858.8844018318164
 20
93.71844621463287
 10
899.8844018318164
 20
93.71844621463287
 42
-0.4142135623730951
 10
902.8844018318164
 20
90.71844621463288
 10
902.8844018318164
 20
8.718446214632875
 42
-0.4142135623730953
 10
899.8844018318164
 20
5.718446214632876
 10
858.8844018318164
 20
5.718446214632876
 10
858.8844018318164
 20
-0.2815537853657588
  0
LWPOLYLINE
  5
184F
330
1F
100
AcDbEntity
  8
10
100
AcDbPolyline
 90
       13
 70
     0
 43
0.0
 10
1253.884401831816
 20
-0.2815537853657588
 10
1209.884401831815
 20
-0.2815537853657588
 42
-0.4142135623730951
 10
1203.884401831815
 20
5.718446214634241
 10
1203.884401831815
 20
93.71844621463287
 42
-0.4142135623730951
 10
1209.884401831815
 20
99.71844621463288
 10
1253.884401831816
 20
99.71844621463288
 10
1253.884401831816
 20
93.71844621463287
 10
1212.884401831815
 20
93.71844621463287
 42
0.4142135623730951
 10
1209.884401831815
 20
90.71844621463288
 10
1209.884401831815
 20
8.718446214632875
 42
0.4142135623730953
 10
1212.884401831815
 20
5.718446214632876
 10
1253.884401831816
 20
5.718446214632876
 10
1253.884401831816
 20
-0.2815537853657588
  0
LINE
  5
1850
330
1F
100
AcDbEntity
  8
16
 48
2.0
100
AcDbLine
 10
234.2911525721654
 20
518.2184462146334
 30
0.0
 11
234.2911525721654
 21
-10.28155378536711
 31
0.0
  0
LINE
  5
1851
330
1F
100
AcDbEntity
  8
10
100
AcDbLine
 10
1202.284401831816
 20
31.22399971409822
 30
0.0
 11
1197.358545786592
 21
31.22399971409822
 31
0.0
  0
LINE
  5
1852
330
1F
100
AcDbEntity
  8
10
100
AcDbLine
 10
1202.284401831816
 20
16.21289271516934
 30
0.0
 11
1202.284401831816
 21
31.22399971409822
 31
0.0
  0
LINE
  5
1853
330
1F
100
AcDbEntity
  8
10
100
AcDbLine
 10
1196.784401831816
 20
30.22955321356312
 30
0.0
 11
1197.358545786592
 21
31.22399971409822
 31
0.0
  0
LINE
  5
1854
330
1F
100
AcDbEntity
  8
10
100
AcDbLine
 10
1202.284401831816
 20
16.21289271516934
 30
0.0
 11
1197.358545786592
 21
16.21289271516934
 31
0.0
  0
LINE
  5
1855
330
1F
100
AcDbEntity
  8
10
100
AcDbLine
 10
1202.284401831816
 20
27.471222964366
 30
0.0
 11
1197.356289554771
 21
27.471222964366
 31
0.0
  0
LINE
  5
1856
330
1F
100
AcDbEntity
  8
10
100
AcDbLine
 10
1202.284401831816
 20
19.96566946490156
 30
0.0
 11
1197.356289554771
 21
19.96566946490156
 31
0.0
  0
LINE
  5
1857
330
1F
100
AcDbEntity
  8
10
100
AcDbLine
 10
1196.784401831816
 20
17.20733921570354
 30
0.0
 11
1197.358545786592
 21
16.21289271516934
 31
0.0
  0
ARC
  5
1858
330
1F
100
AcDbEntity
  8
10
100
AcDbCircle
 10
1200.116770816587
 20
18.09900170677201
 30
0.0
 40
3.33237232554814
100
AcDbArc
 50
145.9330103529936
 51
180.0811305904329
  0
ARC
  5
1859
330
1F
100
AcDbEntity
  8
10
100
AcDbCircle
 10
1209.383368659212
 20
23.71844621463286
 30
0.0
 40
12.59896682739618
100
AcDbArc
 50
162.6706539876398
 51
197.3293460123601
  0
LINE
  5
185A
330
1F
100
AcDbEntity
  8
10
100
AcDbLine
 10
1196.784401831816
 20
30.22399971409821
 30
0.0
 11
1196.784401831816
 21
17.20733921570354
 31
0.0
  0
ARC
  5
185B
330
1F
100
AcDbEntity
  8
10
100
AcDbCircle
 10
1200.116770816587
 20
29.33789072249556
 30
0.0
 40
3.33237232554814
100
AcDbArc
 50
179.9188694095669
 51
214.0669896470063
  0
ARC
  5
185C
330
1F
100
AcDbEntity
  8
10
100
AcDbCircle
 10
1225.316770816586
 20
29.44661147403849
 30
0.0
 40
3.33237232554814
100
AcDbArc
 50
179.9188694095669
 51
214.1361809980751
  0
ARC
  5
185D
330
1F
100
AcDbEntity
  8
10
100
AcDbCircle
 10
1216.652032847044
 20
29.34844621463298
 30
0.0
 40
3.33237232554814
100
AcDbArc
 50
325.8638190019248
 51
0.0811305904329931
  0
LINE
  5
185E
330
1F
100
AcDbEntity
  8
10
100
AcDbLine
 10
1219.984401831815
 20
30.22399971409821
 30
0.0
 11
1219.984401831815
 21
17.21289271516798
 31
0.0
  0
LINE
  5
185F
330
1F
100
AcDbEntity
  8
10
100
AcDbLine
 10
1221.984401831814
 20
30.32216497350328
 30
0.0
 11
1222.558545786593
 21
31.31661147403837
 31
0.0
  0
LINE
  5
1860
330
1F
100
AcDbEntity
  8
10
100
AcDbLine
 10
1221.984401831814
 20
30.32216497350328
 30
0.0
 11
1221.984401831814
 21
17.31105797457348
 31
0.0
  0
LINE
  5
1861
330
1F
100
AcDbEntity
  8
10
100
AcDbLine
 10
1227.910257877037
 20
31.31661147403837
 30
0.0
 11
1222.558545786593
 21
31.31661147403837
 31
0.0
  0
LINE
  5
1862
330
1F
100
AcDbEntity
  8
10
100
AcDbLine
 10
1219.984401831815
 20
30.22399971409821
 30
0.0
 11
1219.410257877037
 21
31.21844621463287
 31
0.0
  0
LINE
  5
1863
330
1F
100
AcDbEntity
  8
10
100
AcDbLine
 10
1228.484401831813
 20
27.81661147403838
 30
0.0
 11
1238.484401831815
 21
27.81661147403838
 31
0.0
  0
LINE
  5
1864
330
1F
100
AcDbEntity
  8
10
100
AcDbLine
 10
1238.484401831815
 20
19.81661147403837
 30
0.0
 11
1238.484401831815
 21
27.81661147403838
 31
0.0
  0
LINE
  5
1865
330
1F
100
AcDbEntity
  8
10
100
AcDbLine
 10
1228.484401831813
 20
19.81661147403837
 30
0.0
 11
1238.484401831815
 21
19.81661147403837
 31
0.0
  0
LINE
  5
1866
330
1F
100
AcDbEntity
  8
10
100
AcDbLine
 10
1228.484401831815
 20
30.32216497350328
 30
0.0
 11
1227.910257877037
 21
31.31661147403837
 31
0.0
  0
LINE
  5
1867
330
1F
100
AcDbEntity
  8
10
100
AcDbLine
 10
1227.910257877037
 20
16.31661147403838
 30
0.0
 11
1222.558545786593
 21
16.31661147403838
 31
0.0
  0
LINE
  5
1868
330
1F
100
AcDbEntity
  8
10
100
AcDbLine
 10
1222.558545786593
 20
27.57661147403814
 30
0.0
 11
1227.910257877037
 21
27.57661147403814
 31
0.0
  0
LINE
  5
1869
330
1F
100
AcDbEntity
  8
10
100
AcDbLine
 10
1222.558545786593
 20
20.05661147403816
 30
0.0
 11
1227.910257877037
 21
20.05661147403816
 31
0.0
  0
LINE
  5
186A
330
1F
100
AcDbEntity
  8
10
100
AcDbLine
 10
1221.984401831814
 20
17.31105797457348
 30
0.0
 11
1222.558545786593
 21
16.31661147403838
 31
0.0
  0
LINE
  5
186B
330
1F
100
AcDbEntity
  8
10
100
AcDbLine
 10
1228.484401831815
 20
30.32216497350328
 30
0.0
 11
1228.484401831815
 21
17.31105797457348
 31
0.0
  0
LINE
  5
186C
330
1F
100
AcDbEntity
  8
10
100
AcDbLine
 10
1228.484401831815
 20
17.31105797457348
 30
0.0
 11
1227.910257877037
 21
16.31661147403838
 31
0.0
  0
ARC
  5
186D
330
1F
100
AcDbEntity
  8
10
100
AcDbCircle
 10
1234.583368659212
 20
23.81661147403837
 30
0.0
 40
12.59896682739618
100
AcDbArc
 50
162.6362399323494
 51
197.3637600676505
  0
ARC
  5
186E
330
1F
100
AcDbEntity
  8
10
100
AcDbCircle
 10
1225.316770816586
 20
18.18661147403826
 30
0.0
 40
3.33237232554814
100
AcDbArc
 50
145.8638190019248
 51
180.0811305904329
  0
ARC
  5
186F
330
1F
100
AcDbEntity
  8
10
100
AcDbCircle
 10
1225.152032847043
 20
18.18661147403826
 30
0.0
 40
3.33237232554814
100
AcDbArc
 50
359.9188694095668
 51
34.13618099807512
  0
ARC
  5
1870
330
1F
100
AcDbEntity
  8
10
100
AcDbCircle
 10
1215.885435004419
 20
23.81661147403837
 30
0.0
 40
12.59896682739618
100
AcDbArc
 50
342.6362399323493
 51
17.36376006765051
  0
ARC
  5
1871
330
1F
100
AcDbEntity
  8
10
100
AcDbCircle
 10
1225.152032847043
 20
29.44661147403849
 30
0.0
 40
3.33237232554814
100
AcDbArc
 50
325.8638190019248
 51
0.0811305904329931
  0
LINE
  5
1872
330
1F
100
AcDbEntity
  8
10
100
AcDbLine
 10
1213.484401831815
 20
30.22399971409913
 30
0.0
 11
1214.058545786593
 21
31.21844621463287
 31
0.0
  0
LINE
  5
1873
330
1F
100
AcDbEntity
  8
10
100
AcDbLine
 10
1219.410257877037
 20
16.21844621463287
 30
0.0
 11
1214.058545786593
 21
16.21844621463287
 31
0.0
  0
LINE
  5
1874
330
1F
100
AcDbEntity
  8
10
100
AcDbLine
 10
1214.058545786593
 20
27.47844621463308
 30
0.0
 11
1219.410257877037
 21
27.47844621463308
 31
0.0
  0
LINE
  5
1875
330
1F
100
AcDbEntity
  8
10
100
AcDbLine
 10
1214.058545786593
 20
19.9584462146331
 30
0.0
 11
1219.410257877037
 21
19.9584462146331
 31
0.0
  0
LINE
  5
1876
330
1F
100
AcDbEntity
  8
10
100
AcDbLine
 10
1213.484401831815
 20
30.22399971409913
 30
0.0
 11
1213.484401831815
 21
17.21289271516798
 31
0.0
  0
LINE
  5
1877
330
1F
100
AcDbEntity
  8
10
100
AcDbLine
 10
1213.484401831815
 20
17.21289271516798
 30
0.0
 11
1214.058545786593
 21
16.21844621463287
 31
0.0
  0
LINE
  5
1878
330
1F
100
AcDbEntity
  8
10
100
AcDbLine
 10
1219.984401831815
 20
17.21289271516798
 30
0.0
 11
1219.410257877037
 21
16.21844621463287
 31
0.0
  0
LINE
  5
1879
330
1F
100
AcDbEntity
  8
10
100
AcDbLine
 10
1219.410257877037
 20
31.21844621463287
 30
0.0
 11
1214.058545786593
 21
31.21844621463287
 31
0.0
  0
ARC
  5
187A
330
1F
100
AcDbEntity
  8
10
100
AcDbCircle
 10
1226.08336865921
 20
23.71844621463286
 30
0.0
 40
12.59896682739618
100
AcDbArc
 50
162.6362399323494
 51
197.3637600676505
  0
ARC
  5
187B
330
1F
100
AcDbEntity
  8
10
100
AcDbCircle
 10
1216.816770816587
 20
29.34844621463298
 30
0.0
 40
3.33237232554814
100
AcDbArc
 50
179.9188694095669
 51
214.1361809980751
  0
ARC
  5
187C
330
1F
100
AcDbEntity
  8
10
100
AcDbCircle
 10
1216.816770816587
 20
18.08844621463322
 30
0.0
 40
3.33237232554814
100
AcDbArc
 50
145.8638190019248
 51
180.0811305904329
  0
ARC
  5
187D
330
1F
100
AcDbEntity
  8
10
100
AcDbCircle
 10
1216.652032847044
 20
18.08844621463322
 30
0.0
 40
3.33237232554814
100
AcDbArc
 50
359.9188694095668
 51
34.13618099807512
  0
ARC
  5
187E
330
1F
100
AcDbEntity
  8
10
100
AcDbCircle
 10
1207.385435004419
 20
23.71844621463286
 30
0.0
 40
12.59896682739618
100
AcDbArc
 50
342.6362399323493
 51
17.36376006765051
  0
LINE
  5
187F
330
1F
100
AcDbEntity
  8
16
 48
2.0
100
AcDbLine
 10
1056.384401831816
 20
518.2184462146334
 30
0.0
 11
1056.384401831816
 21
-10.28155378536711
 31
0.0
  0
LINE
  5
1880
330
1F
100
AcDbEntity
  8
10
 48
5.0
100
AcDbLine
 10
940.3844018318164
 20
287.7184462146333
 30
0.0
 11
953.3844018318163
 21
415.2184462146333
 31
0.0
  0
LINE
  5
1881
330
1F
100
AcDbEntity
  8
10
 48
5.0
100
AcDbLine
 10
953.3844018318163
 20
415.2184462146333
 30
0.0
 11
966.3844018318163
 21
287.7184462146333
 31
0.0
  0
LINE
  5
1882
330
1F
100
AcDbEntity
  8
10
 48
5.0
100
AcDbLine
 10
1005.384401831814
 20
415.2184462146333
 30
0.0
 11
1018.384401831817
 21
287.7184462146333
 31
0.0
  0
LINE
  5
1883
330
1F
100
AcDbEntity
  8
10
 48
5.0
100
AcDbLine
 10
992.3844018318163
 20
287.7184462146333
 30
0.0
 11
1005.384401831814
 21
415.2184462146333
 31
0.0
  0
LINE
  5
1884
330
1F
100
AcDbEntity
  8
10
 48
5.0
100
AcDbLine
 10
1056.384401831816
 20
415.2184462146311
 30
0.0
 11
1069.384401831815
 21
287.7184462146308
 31
0.0
  0
LINE
  5
1885
330
1F
100
AcDbEntity
  8
10
 48
5.0
100
AcDbLine
 10
1043.384401831816
 20
287.7184462146308
 30
0.0
 11
1056.384401831816
 21
415.2184462146311
 31
0.0
  0
LINE
  5
1886
330
1F
100
AcDbEntity
  8
10
 48
5.0
100
AcDbLine
 10
1120.384401831815
 20
287.7184462146333
 30
0.0
 11
1107.384401831815
 21
415.2184462146333
 31
0.0
  0
LINE
  5
1887
330
1F
100
AcDbEntity
  8
10
 48
5.0
100
AcDbLine
 10
1107.384401831815
 20
415.2184462146333
 30
0.0
 11
1094.384401831815
 21
287.7184462146333
 31
0.0
  0
LINE
  5
1888
330
1F
100
AcDbEntity
  8
10
 48
5.0
100
AcDbLine
 10
1159.384401831814
 20
415.2184462146333
 30
0.0
 11
1146.384401831815
 21
287.7184462146333
 31
0.0
  0
LINE
  5
1889
330
1F
100
AcDbEntity
  8
10
 48
5.0
100
AcDbLine
 10
1172.384401831815
 20
287.7184462146333
 30
0.0
 11
1159.384401831814
 21
415.2184462146333
 31
0.0
  0
CIRCLE
  5
188A
330
1F
100
AcDbEntity
  8
10
100
AcDbCircle
 10
953.3844018318163
 20
415.2184462146333
 30
0.0
 40
4.0
  0
CIRCLE
  5
188B
330
1F
100
AcDbEntity
  8
10
100
AcDbCircle
 10
1005.384401831814
 20
415.2184462146333
 30
0.0
 40
4.0
  0
CIRCLE
  5
188C
330
1F
100
AcDbEntity
  8
10
100
AcDbCircle
 10
1056.384401831816
 20
415.2184462146333
 30
0.0
 40
4.0
  0
CIRCLE
  5
188D
330
1F
100
AcDbEntity
  8
10
100
AcDbCircle
 10
1107.384401831815
 20
415.2184462146333
 30
0.0
 40
4.0
  0
CIRCLE
  5
188E
330
1F
100
AcDbEntity
  8
10
100
AcDbCircle
 10
1159.384401831814
 20
415.2184462146333
 30
0.0
 40
4.0
  0
VIEWPORT
  5
409
330
23
100
AcDbEntity
 67
     1
  8
0
100
AcDbViewport
 10
142.6315765380859
 20
99.1129140853882
 30
0.0
 40
314.2372683715819
 41
259.7433703258352
 68
     1
 69
     1
1001
ACAD
1000
MVIEW
1002
{
1070
    16
1010
0.0
1020
0.0
1030
0.0
1010
0.0
1020
0.0
1030
1.0
1040
0.0
1040
259.7433703258352
1040
142.6315765380859
1040
99.1129140853882
1040
50.0
1040
0.0
1040
0.0
1070
     0
1070
   100
1070
     1
1070
     1
1070
     0
1070
     0
1070
     0
1070
     0
1040
0.0
1040
0.0
1040
0.0
1040
10.0
1040
10.0
1040
10.0
1040
10.0
1070
     0
1002
{
1002
}
1002
}
  0
VIEWPORT
  5
40B
330
23
100
AcDbEntity
 67
     1
  8
0
100
AcDbViewport
 10
142.6315770149231
 20
99.11291456222535
 30
0.0
 40
228.2105232238769
 41
158.5806632995605
 68
     2
 69
     2
1001
ACAD
1000
MVIEW
1002
{
1070
    16
1010
0.0
1020
0.0
1030
0.0
1010
0.0
1020
0.0
1030
1.0
1040
0.0
1040
437.7797658097811
1040
303.2144175903108
1040
233.3590858733038
1040
50.0
1040
0.0
1040
0.0
1070
     0
1070
   100
1070
     1
1070
     3
1070
     0
1070
     0
1070
     0
1070
     0
1040
0.0
1040
0.0
1040
0.0
1040
10.0
1040
10.0
1040
10.0
1040
10.0
1070
     0
1002
{
1002
}
1002
}
  0
ENDSEC
  0
SECTION
  2
OBJECTS
  0
DICTIONARY
  5
C
330
0
100
AcDbDictionary
  3
ACAD_GROUP
350
D
  3
ACAD_LAYOUT
350
1A
  3
ACAD_MLINESTYLE
350
17
  3
ACAD_PLOTSETTINGS
350
19
  3
ACAD_PLOTSTYLENAME
350
E
  3
ACAMCATALOGSTATE
350
5BA
  3
ACASAPPOBJECT
350
53F
  3
ACASGREF_MASTER
350
587
  3
ACDBHEADERROUNDTRIPXREC
350
19AA
  3
ACDBVARIABLEDICTIONARY
350
40D
  3
ACDMSYSVARMGR
350
519
  3
ACGREF_MASTER
350
513
  3
ACGREFACAD_MASTER
350
53B
  3
ACMDICTIONARY
350
5B6
  3
ACME_BOM_MANAGER_NAME
350
50C
  3
ACME_COMMAND_HISTORY
350
507
  3
ACME_SCOPE_NAME
350
506
  3
ACMESTATEMGR
350
511
  3
ACMESYSVARMANAGER
350
508
  3
ACMSYSTEMVARIABLEMANAGER
350
5C4
  3
AD_APPL
350
59E
  3
AD_GREF_MODULE
350
588
  3
AD_MAPI_MODULE
350
5A0
  3
ADSYSVARMGR
350
590
  3
AMDTNAMEDDWGMGR
350
536
  3
AMG
350
4FD
  3
AMGSNAPSETTINGS
350
5D0
  3
AMI_MASTER
350
53E
  3
ASURF_STATIC_VARS
350
540
  3
AUTOCAD_ASSEMBLIES_PROJECT
350
5AB
  3
AUTOSURF_SYSVARS
350
541
  3
DESIGNER_ASSEMBLIES_SYSVARS
350
5A2
  3
DWGPROPS
350
5B9
  3
GREFAM_MODULE
350
58A
  3
MAPISURF_MODULE
350
589
  0
DICTIONARY
  5
41
330
2
100
AcDbDictionary
280
     1
  3
ACAD_LAYERFILTERS
360
3FF
  3
ACAD_LAYERSTATES
360
42
  0
DICTIONARY
  5
438
330
1F
100
AcDbDictionary
280
     1
  3
ACAD_INDEX
360
5D7
  3
ACAD_LAYOUTSELFREF
360
19CA
  0
DICTIONARY
  5
43A
330
23
100
AcDbDictionary
280
     1
  3
ACAD_LAYOUTSELFREF
360
19CB
  0
DICTIONARY
  5
D
102
{ACAD_REACTORS
330
C
102
}
330
C
100
AcDbDictionary
  0
DICTIONARY
  5
1A
102
{ACAD_REACTORS
330
C
102
}
330
C
100
AcDbDictionary
  0
DICTIONARY
  5
17
102
{ACAD_REACTORS
330
C
102
}
330
C
100
AcDbDictionary
  3
STANDARD
350
18
  0
DICTIONARY
  5
19
102
{ACAD_REACTORS
330
C
102
}
330
C
100
AcDbDictionary
  0
ACDBDICTIONARYWDFLT
  5
E
102
{ACAD_REACTORS
330
C
102
}
330
C
100
AcDbDictionary
281
     1
  3
Normal
350
F
100
AcDbDictionaryWithDefault
340
F
  0
ACAD_PROXY_OBJECT
  5
5BA
102
{ACAD_REACTORS
330
C
102
}
330
C
100
AcDbProxyObject
 90
      499
 91
      574
 93
      880
310
3FFFFFFFE00A0284402B0AE2E189C9917189B1C17189719182E32B733B4B732B2B934B733AE32B733B4B732B2B934B733AE26A2A2C5E34B58AE181C1898189A2FA6A2A2AF99222FC6F6483EAE39B4B5BCBAAE232916A420A62FA422A62FA1A0A22E4728C6B641B340ADC1AF400AA00
 94
        0
1001
ACAD
1000
AcadProxyRoundTripData
1071
      565
1071
   851991
1070
     0
  0
ACAD_PROXY_OBJECT
  5
53F
102
{ACAD_REACTORS
330
C
102
}
330
C
100
AcDbProxyObject
 90
      499
 91
      574
 93
       10
310
4040
 94
        0
1001
ACAD
1000
AcadProxyRoundTripData
1071
      537
1071
   851991
1070
     0
  0
ACAD_PROXY_OBJECT
  5
587
102
{ACAD_REACTORS
330
C
102
}
330
C
100
AcDbProxyObject
 90
      499
 91
      574
 93
       34
310
010000406A
 94
        0
1001
ACAD
1000
AcadProxyRoundTripData
1071
      543
1071
   851991
1070
     0
  0
DICTIONARY
  5
19AA
102
{ACAD_REACTORS
330
C
102
}
330
C
100
AcDbDictionary
  3
CEPSNTYPE
350
19B4
  3
FINGERPRINTGUID
350
19B5
  3
HYPERLINKBASE
350
19AD
  3
INSUNITS
350
19B3
  3
LAYOUTDICT
350
19AF
  3
LWETCUNION
350
19B2
  3
PLOTSETDICT
350
19B0
  3
PLOTSTYLNAMDICT
350
19B1
  3
PSVPSCALE
350
19B7
  3
PUCSBASE
350
19BA
  3
PUCSORGBACK
350
19C0
  3
PUCSORGBOTTOM
350
19BC
  3
PUCSORGFRONT
350
19BF
  3
PUCSORGLEFT
350
19BD
  3
PUCSORGRIGHT
350
19BE
  3
PUCSORGTOP
350
19BB
  3
PUCSORTHOREF
350
19B8
  3
PUCSORTHOVIEW
350
19B9
  3
STYLESHEET
350
19AE
  3
TSTACKALIGN
350
19AB
  3
TSTACKSIZE
350
19AC
  3
UCSBASE
350
19C3
  3
UCSORGBACK
350
19C9
  3
UCSORGBOTTOM
350
19C5
  3
UCSORGFRONT
350
19C8
  3
UCSORGLEFT
350
19C6
  3
UCSORGRIGHT
350
19C7
  3
UCSORGTOP
350
19C4
  3
UCSORTHOREF
350
19C1
  3
UCSORTHOVIEW
350
19C2
  3
VERSIONGUID
350
19B6
  0
DICTIONARY
  5
40D
102
{ACAD_REACTORS
330
C
102
}
330
C
100
AcDbDictionary
  3
DIMASSOC
350
40F
  3
HIDETEXT
350
40E
  3
INDEXCTL
350
5DF
  0
ACAD_PROXY_OBJECT
  5
519
102
{ACAD_REACTORS
330
C
102
}
330
C
100
AcDbProxyObject
 90
      499
 91
      574
 93
      240
310
4C51A48200000000000000000000000000000000000000000000000000000D
330
51A
330
51B
330
51C
330
51D
330
51E
330
51F
330
520
330
523
330
524
330
525
330
526
330
527
330
528
330
529
330
52A
330
52B
330
52C
330
52D
330
52E
330
52F
330
530
330
531
330
532
330
533
330
534
330
535
 94
        0
1001
ACAD
1000
AcadProxyRoundTripData
1071
      516
1071
   851991
1070
     0
  0
ACAD_PROXY_OBJECT
  5
513
102
{ACAD_REACTORS
330
C
102
}
330
C
100
AcDbProxyObject
 90
      499
 91
      574
 93
       34
310
04000042AA
 94
        0
1001
ACAD
1000
AcadProxyRoundTripData
1071
      525
1071
   851991
1070
     0
  0
ACAD_PROXY_OBJECT
  5
53B
102
{ACAD_REACTORS
330
C
102
}
330
C
100
AcDbProxyObject
 90
      499
 91
      574
 93
      114
310
04000041C000000000000000000000
 94
        0
1001
ACAD
1000
AcadProxyRoundTripData
1071
      533
1071
   851991
1070
     0
  0
DICTIONARY
  5
5B6
102
{ACAD_REACTORS
330
C
102
}
330
C
100
AcDbDictionary
  3
ACMBOMDATA
350
5B7
  0
ACAD_PROXY_OBJECT
  5
50C
102
{ACAD_REACTORS
330
C
102
}
330
C
100
AcDbProxyObject
 90
      499
 91
      574
 93
       50
310
00000040400000
330
0
330
0
330
50D
 94
        0
1001
ACAD
1000
AcadProxyRoundTripData
1071
      519
1071
   851991
1070
     0
  0
ACAD_PROXY_OBJECT
  5
507
102
{ACAD_REACTORS
330
C
102
}
330
C
100
AcDbProxyObject
 90
      499
 91
      574
 93
      778
310
424050E414D4454524553455444424D4F4440805084E202D20554E444F014213880B4815539113C0507544F4F4C42415280504554E444F80504554E444F80504554E444F80504554E444F80504554E444F8050545524153458050653415645415389
 94
        0
1001
ACAD
1000
AcadProxyRoundTripData
1071
      515
1071
   851991
1070
     0
  0
ACAD_PROXY_OBJECT
  5
506
102
{ACAD_REACTORS
330
C
102
}
330
C
100
AcDbProxyObject
 90
      499
 91
      574
 93
     1242
310
06000044400000000000000000001840000400020000000000000000000000000000000000000000000000000000000000000000000000000000000000000000000000000000000000000000000000000000000000000000000000000000000000000000000000000000000000000000000000000000000000000000000000
310
00000000000000000000000000000000000000000000000000AAAAAAB0
360
509
360
50A
360
50B
360
50D
360
514
360
515
360
516
360
517
360
51A
360
51B
360
51C
360
51D
360
51E
360
51F
360
520
360
523
360
524
360
525
360
526
360
527
360
528
360
529
360
52A
360
52B
360
52C
360
52D
360
52E
360
52F
360
530
360
531
360
532
360
533
360
534
360
535
360
542
360
543
360
544
360
545
360
546
360
547
360
548
360
549
360
54A
360
54B
360
54C
360
54D
360
54E
360
54F
360
550
360
551
360
552
360
553
360
554
360
555
360
556
360
557
360
558
360
559
360
55A
360
55B
360
55C
360
55D
360
55E
360
55F
360
560
360
561
360
562
360
563
360
564
360
565
360
566
360
567
360
568
360
569
360
56A
360
56B
360
56C
360
56D
360
56E
360
56F
360
570
360
571
360
572
360
573
360
574
360
575
360
576
360
577
360
578
360
579
360
57A
360
57B
360
57C
360
57D
360
57E
360
57F
360
580
360
581
360
582
360
583
360
58C
360
58D
360
58E
360
58F
360
591
360
592
360
593
360
594
360
595
360
596
360
597
360
598
360
599
360
59A
360
59B
360
59C
360
59D
360
5A3
360
5A4
360
5A5
360
5A6
360
5A7
360
5A8
360
5A9
360
5AA
360
5AF
360
5B0
360
5B1
360
5B2
360
5B3
360
5B4
360
5C5
 94
        0
1001
ACAD
1000
AcadProxyRoundTripData
1071
      514
1071
   851991
1070
     0
  0
ACAD_PROXY_OBJECT
  5
511
102
{ACAD_REACTORS
330
C
102
}
330
C
100
AcDbProxyObject
 90
      499
 91
      574
 93
       50
310
06000041641280
 94
        0
1001
ACAD
1000
AcadProxyRoundTripData
1071
      524
1071
   851991
1070
     0
  0
ACAD_PROXY_OBJECT
  5
508
102
{ACAD_REACTORS
330
C
102
}
330
C
100
AcDbProxyObject
 90
      499
 91
      574
 93
       48
310
90342200000011
330
509
330
50A
330
50B
 94
        0
1001
ACAD
1000
AcadProxyRoundTripData
1071
      516
1071
   851991
1070
     0
  0
ACAD_PROXY_OBJECT
  5
5C4
102
{ACAD_REACTORS
330
C
102
}
330
C
100
AcDbProxyObject
 90
      499
 91
      574
 93
       32
310
9014220000
330
5C5
 94
        0
1001
ACAD
1000
AcadProxyRoundTripData
1071
      516
1071
   851991
1070
     0
  0
ACAD_PROXY_OBJECT
  5
59E
102
{ACAD_REACTORS
330
C
102
}
330
C
100
AcDbProxyObject
 90
      499
 91
      574
 93
       42
310
0006000043C9
330
58C
 94
        0
1001
ACAD
1000
AcadProxyRoundTripData
1071
      552
1071
   851991
1070
     0
  0
ACAD_PROXY_OBJECT
  5
588
102
{ACAD_REACTORS
330
C
102
}
330
C
100
AcDbProxyObject
 90
      499
 91
      574
 93
      114
310
000000438000000000000000000000
 94
        0
1001
ACAD
1000
AcadProxyRoundTripData
1071
      544
1071
   851991
1070
     0
  0
ACAD_PROXY_OBJECT
  5
5A0
102
{ACAD_REACTORS
330
C
102
}
330
C
100
AcDbProxyObject
 90
      499
 91
      574
 93
       34
310
05000044EA
 94
        0
1001
ACAD
1000
AcadProxyRoundTripData
1071
      554
1071
   851991
1070
     0
  0
ACAD_PROXY_OBJECT
  5
590
102
{ACAD_REACTORS
330
C
102
}
330
C
100
AcDbProxyObject
 90
      499
 91
      574
 93
      128
310
90D4420000000000000000000000000091
330
591
330
592
330
593
330
594
330
595
330
596
330
597
330
598
330
599
330
59A
330
59B
330
59C
330
59D
 94
        0
1001
ACAD
1000
AcadProxyRoundTripData
1071
      516
1071
   851991
1070
     0
  0
ACAD_PROXY_OBJECT
  5
536
102
{ACAD_REACTORS
330
C
102
}
330
C
100
AcDbProxyObject
 90
      499
 91
      574
 93
       42
310
000100005AC9
330
514
 94
        0
1001
ACAD
1000
AcadProxyRoundTripData
1071
      530
1071
   851991
1070
     0
  0
DICTIONARY
  5
4FD
102
{ACAD_REACTORS
330
C
102
}
330
C
100
AcDbDictionary
  3
ACMGSETTINGS
350
4FE
  3
AMGLAYCFG
350
5C3
  0
DICTIONARY
  5
5D0
102
{ACAD_REACTORS
330
C
102
}
330
C
100
AcDbDictionary
  3
DIMENSION
350
5D5
  3
FEA
350
5D4
  3
HATCH__1_
350
5D1
  3
HATCH__2_
350
5D2
  3
SIMPLE_WELD
350
5D6
  3
SYMBOLS
350
5D3
  0
ACAD_PROXY_OBJECT
  5
53E
102
{ACAD_REACTORS
330
C
102
}
330
C
100
AcDbProxyObject
 90
      499
 91
      574
 93
       34
310
05000042AA
 94
        0
1001
ACAD
1000
AcadProxyRoundTripData
1071
      536
1071
   851991
1070
     0
  0
ACAD_PROXY_OBJECT
  5
540
102
{ACAD_REACTORS
330
C
102
}
330
C
100
AcDbProxyObject
 90
      499
 91
      574
 93
      424
310
585315020000000000000000000000000000000000000000000000000000000000000000000000000000000000000000000000000000
330
553
330
554
330
555
330
556
330
557
330
558
330
559
330
55A
330
55B
330
55C
330
55D
330
55E
330
55F
330
560
330
561
330
562
330
563
330
564
330
565
330
566
330
567
330
568
330
569
330
56A
330
56B
330
56C
330
56D
330
56E
330
56F
330
570
330
571
330
572
330
573
330
574
330
575
330
576
330
577
330
578
330
579
330
57A
330
57B
330
57C
330
57D
330
57E
330
57F
330
580
330
581
330
582
330
583
 94
        0
1001
ACAD
1000
AcadProxyRoundTripData
1071
      538
1071
   851991
1070
     0
  0
ACAD_PROXY_OBJECT
  5
5AB
102
{ACAD_REACTORS
330
C
102
}
330
C
100
AcDbProxyObject
 90
      499
 91
      574
 93
       74
310
0600004A400000000000
330
5B2
330
0
330
5B3
330
0
330
0
 94
        0
1001
ACAD
1000
AcadProxyRoundTripData
1071
      556
1071
   851991
1070
     0
  0
ACAD_PROXY_OBJECT
  5
541
102
{ACAD_REACTORS
330
C
102
}
330
C
100
AcDbProxyObject
 90
      499
 91
      574
 93
      168
310
4C511482000000000000000000000000000000000000
330
542
330
543
330
544
330
545
330
546
330
547
330
548
330
549
330
54A
330
54B
330
54C
330
54D
330
54E
330
54F
330
550
330
551
330
552
 94
        0
1001
ACAD
1000
AcadProxyRoundTripData
1071
      516
1071
   851991
1070
     0
  0
ACAD_PROXY_OBJECT
  5
5A2
102
{ACAD_REACTORS
330
C
102
}
330
C
100
AcDbProxyObject
 90
      499
 91
      574
 93
       88
310
908422000000000000000000
330
5A3
330
5A4
330
5A5
330
5A6
330
5A7
330
5A8
330
5A9
330
5AA
 94
        0
1001
ACAD
1000
AcadProxyRoundTripData
1071
      516
1071
   851991
1070
     0
  0
XRECORD
  5
5B9
102
{ACAD_REACTORS
330
C
102
}
330
C
100
AcDbXrecord
  1
DWGPROPS COOKIE
  2

  3

  4

  6

  7

  8

  9

300
AmdtFileType=84
301
=
302
=
303
=
304
=
305
=
306
=
307
=
308
=
309
=
 40
0.005163125
 41
2454596.550355717
 42
2454596.675773645
  1

 90
        1
  0
ACAD_PROXY_OBJECT
  5
58A
102
{ACAD_REACTORS
330
C
102
}
330
C
100
AcDbProxyObject
 90
      499
 91
      574
 93
        8
310
0500
 94
        0
1001
ACAD
1000
AcadProxyRoundTripData
1071
      546
1071
   851991
1070
     0
  0
ACAD_PROXY_OBJECT
  5
589
102
{ACAD_REACTORS
330
C
102
}
330
C
100
AcDbProxyObject
 90
      499
 91
      574
 93
        8
310
0409
 94
        0
1001
ACAD
1000
AcadProxyRoundTripData
1071
      545
1071
   851991
1070
     0
  0
DICTIONARY
  5
3FF
102
{ACAD_REACTORS
330
41
102
}
330
41
100
AcDbDictionary
280
     1
  0
DICTIONARY
  5
42
102
{ACAD_REACTORS
330
41
102
}
330
41
100
AcDbDictionary
  0
DICTIONARY
  5
5D7
102
{ACAD_REACTORS
330
438
102
}
330
438
100
AcDbDictionary
  3
*A1
350
5D8
  0
XRECORD
  5
19CA
102
{ACAD_REACTORS
330
438
102
}
330
438
100
AcDbXrecord
340
1F
  0
XRECORD
  5
19CB
102
{ACAD_REACTORS
330
43A
102
}
330
43A
100
AcDbXrecord
340
23
  0
MLINESTYLE
  5
18
102
{ACAD_REACTORS
330
17
102
}
330
17
100
AcDbMlineStyle
  2
STANDARD
 70
     0
  3

 62
   256
 51
90.0
 52
90.0
 71
     2
 49
0.5
 62
   256
  6
BYLAYER
 49
-0.5
 62
   256
  6
BYLAYER
  0
ACDBPLACEHOLDER
  5
F
102
{ACAD_REACTORS
330
E
102
}
330
E
100
AcDbPlaceHolder
280
     0
  0
XRECORD
  5
19B4
102
{ACAD_REACTORS
330
19AA
102
}
330
19AA
100
AcDbXrecord
 90
        0
  0
XRECORD
  5
19B5
102
{ACAD_REACTORS
330
19AA
102
}
330
19AA
100
AcDbXrecord
  1
{025C7157-5529-449E-A239-D8CA396FD83B}
  0
XRECORD
  5
19AD
102
{ACAD_REACTORS
330
19AA
102
}
330
19AA
100
AcDbXrecord
  1

  0
XRECORD
  5
19B3
102
{ACAD_REACTORS
330
19AA
102
}
330
19AA
100
AcDbXrecord
 90
        4
  0
XRECORD
  5
19AF
102
{ACAD_REACTORS
330
19AA
102
}
330
19AA
100
AcDbXrecord
340
1A
  0
XRECORD
  5
19B2
102
{ACAD_REACTORS
330
19AA
102
}
330
19AA
100
AcDbXrecord
 90
    10781
  0
XRECORD
  5
19B0
102
{ACAD_REACTORS
330
19AA
102
}
330
19AA
100
AcDbXrecord
340
19
  0
XRECORD
  5
19B1
102
{ACAD_REACTORS
330
19AA
102
}
330
19AA
100
AcDbXrecord
340
E
  0
XRECORD
  5
19B7
102
{ACAD_REACTORS
330
19AA
102
}
330
19AA
100
AcDbXrecord
 40
0.0
  0
XRECORD
  5
19BA
102
{ACAD_REACTORS
330
19AA
102
}
330
19AA
100
AcDbXrecord
340
0
  0
XRECORD
  5
19C0
102
{ACAD_REACTORS
330
19AA
102
}
330
19AA
100
AcDbXrecord
 10
0.0
 20
0.0
 30
0.0
  0
XRECORD
  5
19BC
102
{ACAD_REACTORS
330
19AA
102
}
330
19AA
100
AcDbXrecord
 10
0.0
 20
0.0
 30
0.0
  0
XRECORD
  5
19BF
102
{ACAD_REACTORS
330
19AA
102
}
330
19AA
100
AcDbXrecord
 10
0.0
 20
0.0
 30
0.0
  0
XRECORD
  5
19BD
102
{ACAD_REACTORS
330
19AA
102
}
330
19AA
100
AcDbXrecord
 10
0.0
 20
0.0
 30
0.0
  0
XRECORD
  5
19BE
102
{ACAD_REACTORS
330
19AA
102
}
330
19AA
100
AcDbXrecord
 10
0.0
 20
0.0
 30
0.0
  0
XRECORD
  5
19BB
102
{ACAD_REACTORS
330
19AA
102
}
330
19AA
100
AcDbXrecord
 10
0.0
 20
0.0
 30
0.0
  0
XRECORD
  5
19B8
102
{ACAD_REACTORS
330
19AA
102
}
330
19AA
100
AcDbXrecord
340
0
  0
XRECORD
  5
19B9
102
{ACAD_REACTORS
330
19AA
102
}
330
19AA
100
AcDbXrecord
 70
     0
  0
XRECORD
  5
19AE
102
{ACAD_REACTORS
330
19AA
102
}
330
19AA
100
AcDbXrecord
  1
monochrome.ctb
  0
XRECORD
  5
19AB
102
{ACAD_REACTORS
330
19AA
102
}
330
19AA
100
AcDbXrecord
 90
        1
  0
XRECORD
  5
19AC
102
{ACAD_REACTORS
330
19AA
102
}
330
19AA
100
AcDbXrecord
 90
       70
  0
XRECORD
  5
19C3
102
{ACAD_REACTORS
330
19AA
102
}
330
19AA
100
AcDbXrecord
340
0
  0
XRECORD
  5
19C9
102
{ACAD_REACTORS
330
19AA
102
}
330
19AA
100
AcDbXrecord
 10
0.0
 20
0.0
 30
0.0
  0
XRECORD
  5
19C5
102
{ACAD_REACTORS
330
19AA
102
}
330
19AA
100
AcDbXrecord
 10
0.0
 20
0.0
 30
0.0
  0
XRECORD
  5
19C8
102
{ACAD_REACTORS
330
19AA
102
}
330
19AA
100
AcDbXrecord
 10
0.0
 20
0.0
 30
0.0
  0
XRECORD
  5
19C6
102
{ACAD_REACTORS
330
19AA
102
}
330
19AA
100
AcDbXrecord
 10
0.0
 20
0.0
 30
0.0
  0
XRECORD
  5
19C7
102
{ACAD_REACTORS
330
19AA
102
}
330
19AA
100
AcDbXrecord
 10
0.0
 20
0.0
 30
0.0
  0
XRECORD
  5
19C4
102
{ACAD_REACTORS
330
19AA
102
}
330
19AA
100
AcDbXrecord
 10
0.0
 20
0.0
 30
0.0
  0
XRECORD
  5
19C1
102
{ACAD_REACTORS
330
19AA
102
}
330
19AA
100
AcDbXrecord
340
0
  0
XRECORD
  5
19C2
102
{ACAD_REACTORS
330
19AA
102
}
330
19AA
100
AcDbXrecord
 70
     0
  0
XRECORD
  5
19B6
102
{ACAD_REACTORS
330
19AA
102
}
330
19AA
100
AcDbXrecord
  1
{7D333F57-91FA-4C02-B1B6-D295AC41CCC8}
  0
DICTIONARYVAR
  5
40F
102
{ACAD_REACTORS
330
40D
102
}
330
40D
100
DictionaryVariables
280
     0
  1
2
  0
DICTIONARYVAR
  5
40E
102
{ACAD_REACTORS
330
40D
102
}
330
40D
100
DictionaryVariables
280
     0
  1
1
  0
DICTIONARYVAR
  5
5DF
102
{ACAD_REACTORS
330
40D
102
}
330
40D
100
DictionaryVariables
280
     0
  1
1
  0
ACAD_PROXY_OBJECT
  5
5B7
102
{ACAD_REACTORS
330
5B6
102
}
330
5B6
100
AcDbProxyObject
 90
      499
 91
      574
 93
      118
310
405010040CA904C415CD5B07571028
350
5B8
 94
        0
1001
ACAD
1000
AcadProxyRoundTripData
1071
      563
1071
   851991
1070
     0
  0
ACAD_PROXY_OBJECT
  5
509
330
0
100
AcDbProxyObject
 90
      499
 91
      574
 93
      156
310
00010143D050D351505391D5531054925390D490
330
506
 94
        0
1001
ACAD
1000
AcadProxyRoundTripData
1071
      517
1071
   851991
1070
     0
  0
ACAD_PROXY_OBJECT
  5
50A
330
0
100
AcDbProxyObject
 90
      499
 91
      574
 93
      148
310
000101439050D351531253915054925390D494
330
506
 94
        0
1001
ACAD
1000
AcadProxyRoundTripData
1071
      517
1071
   851991
1070
     0
  0
ACAD_PROXY_OBJECT
  5
50B
330
0
100
AcDbProxyObject
 90
      499
 91
      574
 93
      156
310
000101439050D35154D6535093D314D256915080
330
506
 94
        0
1001
ACAD
1000
AcadProxyRoundTripData
1071
      518
1071
   851991
1070
     0
  0
ACAD_PROXY_OBJECT
  5
50D
330
0
100
AcDbProxyObject
 90
      499
 91
      574
 93
      120
310
000101422565255A6557080C402B009A
330
506
330
0
330
0
 94
        0
1001
ACAD
1000
AcadProxyRoundTripData
1071
      520
1071
   851991
1070
     0
  0
ACAD_PROXY_OBJECT
  5
514
330
0
100
AcDbProxyObject
 90
      499
 91
      574
 93
      358
310
0001014124FEA55D00507362E332E302E31014124FEA55D00507362E332E302E3140501000041505391D311658
330
506
330
515
330
519
 94
        0
1001
ACAD
1000
AcadProxyRoundTripData
1071
      526
1071
   851991
1070
     0
  0
ACAD_PROXY_OBJECT
  5
515
330
0
100
AcDbProxyObject
 90
      499
 91
      574
 93
       48
310
00019014220011
330
506
330
516
 94
        0
1001
ACAD
1000
AcadProxyRoundTripData
1071
      527
1071
   851991
1070
     0
  0
ACAD_PROXY_OBJECT
  5
516
330
0
100
AcDbProxyObject
 90
      499
 91
      574
 93
       48
310
0001AA00000011
330
506
330
4F8
330
517
330
0
 94
        0
1001
ACAD
1000
AcadProxyRoundTripData
1071
      528
1071
   851991
1070
     0
  0
ACAD_PROXY_OBJECT
  5
517
330
0
100
AcDbProxyObject
 90
      499
 91
      574
 93
       28
310
0001AAA0
330
506
 94
        0
1001
ACAD
1000
AcadProxyRoundTripData
1071
      529
1071
   851991
1070
     0
  0
ACAD_PROXY_OBJECT
  5
51A
330
0
100
AcDbProxyObject
 90
      499
 91
      574
 93
      108
310
000101421053521310D05310D01D
330
506
 94
        0
1001
ACAD
1000
AcadProxyRoundTripData
1071
      518
1071
   851991
1070
     0
  0
ACAD_PROXY_OBJECT
  5
51B
330
0
100
AcDbProxyObject
 90
      499
 91
      574
 93
      124
310
00010142905354915554D15112535010
330
506
 94
        0
1001
ACAD
1000
AcadProxyRoundTripData
1071
      518
1071
   851991
1070
     0
  0
ACAD_PROXY_OBJECT
  5
51C
330
0
100
AcDbProxyObject
 90
      499
 91
      574
 93
      132
310
00010143105354D150D51253D391125360
330
506
 94
        0
1001
ACAD
1000
AcadProxyRoundTripData
1071
      518
1071
   851991
1070
     0
  0
ACAD_PROXY_OBJECT
  5
51D
330
0
100
AcDbProxyObject
 90
      499
 91
      574
 93
      124
310
00010142905355941093D49111549013
330
506
 94
        0
1001
ACAD
1000
AcadProxyRoundTripData
1071
      518
1071
   851991
1070
     0
  0
ACAD_PROXY_OBJECT
  5
51E
330
0
100
AcDbProxyObject
 90
      499
 91
      574
 93
      116
310
0001014290535115D1D0D3D313D4A0
330
506
 94
        0
1001
ACAD
1000
AcadProxyRoundTripData
1071
      518
1071
   851991
1070
     0
  0
ACAD_PROXY_OBJECT
  5
51F
330
0
100
AcDbProxyObject
 90
      499
 91
      574
 93
      148
310
00010143505355925155D49151949154D21010
330
506
 94
        0
1001
ACAD
1000
AcadProxyRoundTripData
1071
      518
1071
   851991
1070
     0
  0
ACAD_PROXY_OBJECT
  5
520
330
0
100
AcDbProxyObject
 90
      499
 91
      574
 93
      172
310
00010144105350539393D51154149154D1549591501A
330
506
 94
        0
1001
ACAD
1000
AcadProxyRoundTripData
1071
      518
1071
   851991
1070
     0
  0
ACAD_PROXY_OBJECT
  5
523
330
0
100
AcDbProxyObject
 90
      499
 91
      574
 93
      172
310
00010144105350555513D11253505494905391D1501A
330
506
 94
        0
1001
ACAD
1000
AcadProxyRoundTripData
1071
      518
1071
   851991
1070
     0
  0
ACAD_PROXY_OBJECT
  5
524
330
0
100
AcDbProxyObject
 90
      499
 91
      574
 93
      124
310
00010142D05351561514915191125364
330
506
 94
        0
1001
ACAD
1000
AcadProxyRoundTripData
1071
      518
1071
   851991
1070
     0
  0
ACAD_PROXY_OBJECT
  5
525
330
0
100
AcDbProxyObject
 90
      499
 91
      574
 93
      132
310
00010142D05355105410539393D5115010
330
506
 94
        0
1001
ACAD
1000
AcadProxyRoundTripData
1071
      518
1071
   851991
1070
     0
  0
ACAD_PROXY_OBJECT
  5
526
330
0
100
AcDbProxyObject
 90
      499
 91
      574
 93
      108
310
00010142105350555513D0D31015
330
506
 94
        0
1001
ACAD
1000
AcadProxyRoundTripData
1071
      518
1071
   851991
1070
     0
  0
ACAD_PROXY_OBJECT
  5
527
330
0
100
AcDbProxyObject
 90
      499
 91
      574
 93
      108
310
00010142105350D3119150551055
330
506
 94
        0
1001
ACAD
1000
AcadProxyRoundTripData
1071
      518
1071
   851991
1070
     0
  0
ACAD_PROXY_OBJECT
  5
528
330
0
100
AcDbProxyObject
 90
      499
 91
      574
 93
      108
310
00010142105350D315925155D3F5
330
506
 94
        0
1001
ACAD
1000
AcadProxyRoundTripData
1071
      518
1071
   851991
1070
     0
  0
ACAD_PROXY_OBJECT
  5
529
330
0
100
AcDbProxyObject
 90
      499
 91
      574
 93
      148
310
0001014350535212511156915493D112535011
330
506
 94
        0
1001
ACAD
1000
AcadProxyRoundTripData
1071
      518
1071
   851991
1070
     0
  0
ACAD_PROXY_OBJECT
  5
52A
330
0
100
AcDbProxyObject
 90
      499
 91
      574
 93
      124
310
00010142905352105510D21254D3D012
330
506
 94
        0
1001
ACAD
1000
AcadProxyRoundTripData
1071
      518
1071
   851991
1070
     0
  0
ACAD_PROXY_OBJECT
  5
52B
330
0
100
AcDbProxyObject
 90
      499
 91
      574
 93
      148
310
00010143905354D25391D31152105513105661
330
506
 94
        0
1001
ACAD
1000
AcadProxyRoundTripData
1071
      518
1071
   851991
1070
     0
  0
ACAD_PROXY_OBJECT
  5
52C
330
0
100
AcDbProxyObject
 90
      499
 91
      574
 93
      124
310
00010142D0535115D1D193111254D420
330
506
 94
        0
1001
ACAD
1000
AcadProxyRoundTripData
1071
      518
1071
   851991
1070
     0
  0
ACAD_PROXY_OBJECT
  5
52D
330
0
100
AcDbProxyObject
 90
      499
 91
      574
 93
      100
310
00010142105350555513D213A2
330
506
 94
        0
1001
ACAD
1000
AcadProxyRoundTripData
1071
      518
1071
   851991
1070
     0
  0
ACAD_PROXY_OBJECT
  5
52E
330
0
100
AcDbProxyObject
 90
      499
 91
      574
 93
      116
310
000101425053521390D3D553951014
330
506
 94
        0
1001
ACAD
1000
AcadProxyRoundTripData
1071
      518
1071
   851991
1070
     0
  0
ACAD_PROXY_OBJECT
  5
52F
330
0
100
AcDbProxyObject
 90
      499
 91
      574
 93
      108
310
0001014210535213941493D29010
330
506
 94
        0
1001
ACAD
1000
AcadProxyRoundTripData
1071
      518
1071
   851991
1070
     0
  0
ACAD_PROXY_OBJECT
  5
530
330
0
100
AcDbProxyObject
 90
      499
 91
      574
 93
      108
310
0001014210535213951654115070
330
506
 94
        0
1001
ACAD
1000
AcadProxyRoundTripData
1071
      518
1071
   851991
1070
     0
  0
ACAD_PROXY_OBJECT
  5
531
330
0
100
AcDbProxyObject
 90
      499
 91
      574
 93
      108
310
000101421053521395925155D0F0
330
506
 94
        0
1001
ACAD
1000
AcadProxyRoundTripData
1071
      518
1071
   851991
1070
     0
  0
ACAD_PROXY_OBJECT
  5
532
330
0
100
AcDbProxyObject
 90
      499
 91
      574
 93
      140
310
00010143505354D150D51253D390D3D41660
330
506
 94
        0
1001
ACAD
1000
AcadProxyRoundTripData
1071
      518
1071
   851991
1070
     0
  0
ACAD_PROXY_OBJECT
  5
533
330
0
100
AcDbProxyObject
 90
      499
 91
      574
 93
      108
310
00010142105350D3141493D29030
330
506
 94
        0
1001
ACAD
1000
AcadProxyRoundTripData
1071
      518
1071
   851991
1070
     0
  0
ACAD_PROXY_OBJECT
  5
534
330
0
100
AcDbProxyObject
 90
      499
 91
      574
 93
      212
310
00010143905350555513D2105510D21493D500000000000002E400
330
506
 94
        0
1001
ACAD
1000
AcadProxyRoundTripData
1071
      517
1071
   851991
1070
     0
  0
ACAD_PROXY_OBJECT
  5
535
330
0
100
AcDbProxyObject
 90
      499
 91
      574
 93
      156
310
00010143905350555513D2105510D21111551010
330
506
 94
        0
1001
ACAD
1000
AcadProxyRoundTripData
1071
      518
1071
   851991
1070
     0
  0
ACAD_PROXY_OBJECT
  5
542
330
0
100
AcDbProxyObject
 90
      499
 91
      574
 93
      116
310
000101425053541051D15311539192
330
506
 94
        0
1001
ACAD
1000
AcadProxyRoundTripData
1071
      518
1071
   851991
1070
     0
  0
ACAD_PROXY_OBJECT
  5
543
330
0
100
AcDbProxyObject
 90
      499
 91
      574
 93
      108
310
000101421053555312539154D051
330
506
 94
        0
1001
ACAD
1000
AcadProxyRoundTripData
1071
      518
1071
   851991
1070
     0
  0
ACAD_PROXY_OBJECT
  5
544
330
0
100
AcDbProxyObject
 90
      499
 91
      574
 93
      108
310
000101421053559312539154D031
330
506
 94
        0
1001
ACAD
1000
AcadProxyRoundTripData
1071
      518
1071
   851991
1070
     0
  0
ACAD_PROXY_OBJECT
  5
545
330
0
100
AcDbProxyObject
 90
      499
 91
      574
 93
      140
310
00010143105354D1911254D41353D1115015
330
506
 94
        0
1001
ACAD
1000
AcadProxyRoundTripData
1071
      518
1071
   851991
1070
     0
  0
ACAD_PROXY_OBJECT
  5
546
330
0
100
AcDbProxyObject
 90
      499
 91
      574
 93
      172
310
00010142505354119255105391C1C052DC9A6F104400
330
506
 94
        0
1001
ACAD
1000
AcadProxyRoundTripData
1071
      517
1071
   851991
1070
     0
  0
ACAD_PROXY_OBJECT
  5
547
330
0
100
AcDbProxyObject
 90
      499
 91
      574
 93
      164
310
000101421053559150D05551C000000000000E03F4
330
506
 94
        0
1001
ACAD
1000
AcadProxyRoundTripData
1071
      517
1071
   851991
1070
     0
  0
ACAD_PROXY_OBJECT
  5
548
330
0
100
AcDbProxyObject
 90
      499
 91
      574
 93
      180
310
00010142905350931153911513D307B14AE47E17A843F0
330
506
 94
        0
1001
ACAD
1000
AcadProxyRoundTripData
1071
      517
1071
   851991
1070
     0
  0
ACAD_PROXY_OBJECT
  5
549
330
0
100
AcDbProxyObject
 90
      499
 91
      574
 93
      172
310
0001014250535293D25391D05407B14AE47E17A843F3
330
506
 94
        0
1001
ACAD
1000
AcadProxyRoundTripData
1071
      517
1071
   851991
1070
     0
  0
ACAD_PROXY_OBJECT
  5
54A
330
0
100
AcDbProxyObject
 90
      499
 91
      574
 93
      172
310
000101425053541192551311538000000FC83D797413
330
506
 94
        0
1001
ACAD
1000
AcadProxyRoundTripData
1071
      517
1071
   851991
1070
     0
  0
ACAD_PROXY_OBJECT
  5
54B
330
0
100
AcDbProxyObject
 90
      499
 91
      574
 93
      156
310
00010141D053559150D4D18000000000000E03F9
330
506
 94
        0
1001
ACAD
1000
AcadProxyRoundTripData
1071
      517
1071
   851991
1070
     0
  0
ACAD_PROXY_OBJECT
  5
54C
330
0
100
AcDbProxyObject
 90
      499
 91
      574
 93
      156
310
00010141D05354D19513D309A9999999999993F9
330
506
 94
        0
1001
ACAD
1000
AcadProxyRoundTripData
1071
      517
1071
   851991
1070
     0
  0
ACAD_PROXY_OBJECT
  5
54D
330
0
100
AcDbProxyObject
 90
      499
 91
      574
 93
      172
310
000101425053541192551513D307B14AE47E17A843F3
330
506
 94
        0
1001
ACAD
1000
AcadProxyRoundTripData
1071
      517
1071
   851991
1070
     0
  0
ACAD_PROXY_OBJECT
  5
54E
330
0
100
AcDbProxyObject
 90
      499
 91
      574
 93
      188
310
00010142D05354D151D192551513D307B14AE47E17A843F0
330
506
 94
        0
1001
ACAD
1000
AcadProxyRoundTripData
1071
      517
1071
   851991
1070
     0
  0
ACAD_PROXY_OBJECT
  5
54F
330
0
100
AcDbProxyObject
 90
      499
 91
      574
 93
      148
310
000101419053541311538000000FC83D797414
330
506
 94
        0
1001
ACAD
1000
AcadProxyRoundTripData
1071
      517
1071
   851991
1070
     0
  0
ACAD_PROXY_OBJECT
  5
550
330
0
100
AcDbProxyObject
 90
      499
 91
      574
 93
      172
310
00010142505354105391D513D301C052DC9A6F104408
330
506
 94
        0
1001
ACAD
1000
AcadProxyRoundTripData
1071
      517
1071
   851991
1070
     0
  0
ACAD_PROXY_OBJECT
  5
551
330
0
100
AcDbProxyObject
 90
      499
 91
      574
 93
      132
310
0001014114D2569140000000000002440C
330
506
 94
        0
1001
ACAD
1000
AcadProxyRoundTripData
1071
      517
1071
   851991
1070
     0
  0
ACAD_PROXY_OBJECT
  5
552
330
0
100
AcDbProxyObject
 90
      499
 91
      574
 93
      156
310
00010142905351D4941491519256005034153470
330
506
 94
        0
1001
ACAD
1000
AcadProxyRoundTripData
1071
      539
1071
   851991
1070
     0
  0
ACAD_PROXY_OBJECT
  5
553
330
0
100
AcDbProxyObject
 90
      499
 91
      574
 93
      314
310
00014080509646973745363616C650000000000003C2FC000000000000F0BF0000003F20F5E5D040
330
506
 94
        0
1001
ACAD
1000
AcadProxyRoundTripData
1071
      540
1071
   851991
1070
     0
  0
ACAD_PROXY_OBJECT
  5
554
330
0
100
AcDbProxyObject
 90
      499
 91
      574
 93
      322
310
0001408050A65646175526F74617465060B51153EC87E4FC182D4454FB2119C0060B51153EC8465000
330
506
 94
        0
1001
ACAD
1000
AcadProxyRoundTripData
1071
      540
1071
   851991
1070
     0
  0
ACAD_PROXY_OBJECT
  5
555
330
0
100
AcDbProxyObject
 90
      499
 91
      574
 93
      314
310
00014080509656461755477697374060B51153EC846500000000FC83D797C10000003F20F5E5D050
330
506
 94
        0
1001
ACAD
1000
AcadProxyRoundTripData
1071
      540
1071
   851991
1070
     0
  0
ACAD_PROXY_OBJECT
  5
556
330
0
100
AcDbProxyObject
 90
      499
 91
      574
 93
      294
310
000140C050A656467654F75747075740144F3B7F635ECB74A140A4817D41BDB1E5B1A5B995
330
506
 94
        0
1001
ACAD
1000
AcadProxyRoundTripData
1071
      541
1071
   851991
1070
     0
  0
ACAD_PROXY_OBJECT
  5
557
330
0
100
AcDbProxyObject
 90
      499
 91
      574
 93
      154
310
0001404050B6564697450726576696577406407F
330
506
 94
        0
1001
ACAD
1000
AcadProxyRoundTripData
1071
      542
1071
   851991
1070
     0
  0
ACAD_PROXY_OBJECT
  5
558
330
0
100
AcDbProxyObject
 90
      499
 91
      574
 93
      170
310
0001404050A666C6F77556C696E657342A3A00C0001E
330
506
 94
        0
1001
ACAD
1000
AcadProxyRoundTripData
1071
      542
1071
   851991
1070
     0
  0
ACAD_PROXY_OBJECT
  5
559
330
0
100
AcDbProxyObject
 90
      499
 91
      574
 93
      170
310
0001404050A666C6F77566C696E657342A3A00C0001E
330
506
 94
        0
1001
ACAD
1000
AcadProxyRoundTripData
1071
      542
1071
   851991
1070
     0
  0
ACAD_PROXY_OBJECT
  5
55A
330
0
100
AcDbProxyObject
 90
      499
 91
      574
 93
      322
310
0001408050A666C7366456E645261640000000000003C2FC000000000000F0BF0000003F20F5E5D040
330
506
 94
        0
1001
ACAD
1000
AcadProxyRoundTripData
1071
      540
1071
   851991
1070
     0
  0
ACAD_PROXY_OBJECT
  5
55B
330
0
100
AcDbProxyObject
 90
      499
 91
      574
 93
      246
310
000140C05086A6E33644D6F64650143E3BA24EB8A134A4817D3585B9D585B0
330
506
 94
        0
1001
ACAD
1000
AcadProxyRoundTripData
1071
      541
1071
   851991
1070
     0
  0
ACAD_PROXY_OBJECT
  5
55C
330
0
100
AcDbProxyObject
 90
      499
 91
      574
 93
      294
310
000140C050A6A6E33644F75747075740144F3B7F635ECB74A140A4817D41BDB1E5B1A5B994
330
506
 94
        0
1001
ACAD
1000
AcadProxyRoundTripData
1071
      541
1071
   851991
1070
     0
  0
ACAD_PROXY_OBJECT
  5
55D
330
0
100
AcDbProxyObject
 90
      499
 91
      574
 93
      306
310
000140805086C656E675065726300000000002016D002D431CEBE2361A3F0000003F20F5E5D065
330
506
 94
        0
1001
ACAD
1000
AcadProxyRoundTripData
1071
      540
1071
   851991
1070
     0
  0
ACAD_PROXY_OBJECT
  5
55E
330
0
100
AcDbProxyObject
 90
      499
 91
      574
 93
      266
310
0001408050B6D61737344656E7369747942D431CEBE2361A3F0000003F20F5E5D07F
330
506
 94
        0
1001
ACAD
1000
AcadProxyRoundTripData
1071
      540
1071
   851991
1070
     0
  0
ACAD_PROXY_OBJECT
  5
55F
330
0
100
AcDbProxyObject
 90
      499
 91
      574
 93
      186
310
000140805096D617373546869636BA0000003F20F5E5D05A
330
506
 94
        0
1001
ACAD
1000
AcadProxyRoundTripData
1071
      540
1071
   851991
1070
     0
  0
ACAD_PROXY_OBJECT
  5
560
330
0
100
AcDbProxyObject
 90
      499
 91
      574
 93
      230
310
000140C05086D6173735479706501436F2AB64A14CA4817D4DA195B1B3
330
506
 94
        0
1001
ACAD
1000
AcadProxyRoundTripData
1071
      541
1071
   851991
1070
     0
  0
ACAD_PROXY_OBJECT
  5
561
330
0
100
AcDbProxyObject
 90
      499
 91
      574
 93
      242
310
000140805086F667366446973744000000FC83D797C10000003F20F5E5D075
330
506
 94
        0
1001
ACAD
1000
AcadProxyRoundTripData
1071
      540
1071
   851991
1070
     0
  0
ACAD_PROXY_OBJECT
  5
562
330
0
100
AcDbProxyObject
 90
      499
 91
      574
 93
      258
310
0001408050A7072696D52616469757342D431CEBE2361A3F0000003F20F5E5D050
330
506
 94
        0
1001
ACAD
1000
AcadProxyRoundTripData
1071
      540
1071
   851991
1070
     0
  0
ACAD_PROXY_OBJECT
  5
563
330
0
100
AcDbProxyObject
 90
      499
 91
      574
 93
      194
310
0001408050A7072696D546F70526164A0000003F20F5E5D040
330
506
 94
        0
1001
ACAD
1000
AcadProxyRoundTripData
1071
      540
1071
   851991
1070
     0
  0
ACAD_PROXY_OBJECT
  5
564
330
0
100
AcDbProxyObject
 90
      499
 91
      574
 93
      266
310
0001408050B7072696D5475626552616442D431CEBE2361A3F0000003F20F5E5D07F
330
506
 94
        0
1001
ACAD
1000
AcadProxyRoundTripData
1071
      540
1071
   851991
1070
     0
  0
ACAD_PROXY_OBJECT
  5
565
330
0
100
AcDbProxyObject
 90
      499
 91
      574
 93
      258
310
0001408050A7072696D4865696768744000000FC83D797C10000003F20F5E5D050
330
506
 94
        0
1001
ACAD
1000
AcadProxyRoundTripData
1071
      540
1071
   851991
1070
     0
  0
ACAD_PROXY_OBJECT
  5
566
330
0
100
AcDbProxyObject
 90
      499
 91
      574
 93
      250
310
000140805097072696D5374416E678182D4454FB2119C0060B51153EC8465010
330
506
 94
        0
1001
ACAD
1000
AcadProxyRoundTripData
1071
      540
1071
   851991
1070
     0
  0
ACAD_PROXY_OBJECT
  5
567
330
0
100
AcDbProxyObject
 90
      499
 91
      574
 93
      322
310
0001408050A7072696D456E64416E67060B51153EC846500182D4454FB2119C0060B51153EC8465000
330
506
 94
        0
1001
ACAD
1000
AcadProxyRoundTripData
1071
      540
1071
   851991
1070
     0
  0
ACAD_PROXY_OBJECT
  5
568
330
0
100
AcDbProxyObject
 90
      499
 91
      574
 93
      242
310
000140805087265765374416E678182D4454FB2119C0060B51153EC8465019
330
506
 94
        0
1001
ACAD
1000
AcadProxyRoundTripData
1071
      540
1071
   851991
1070
     0
  0
ACAD_PROXY_OBJECT
  5
569
330
0
100
AcDbProxyObject
 90
      499
 91
      574
 93
      314
310
00014080509726576456E64416E67060B51153EC846500182D4454FB2119C0060B51153EC8465010
330
506
 94
        0
1001
ACAD
1000
AcadProxyRoundTripData
1071
      540
1071
   851991
1070
     0
  0
ACAD_PROXY_OBJECT
  5
56A
330
0
100
AcDbProxyObject
 90
      499
 91
      574
 93
      194
310
0001404050C7266736655706174636865734290139C0C0002D
330
506
 94
        0
1001
ACAD
1000
AcadProxyRoundTripData
1071
      542
1071
   851991
1070
     0
  0
ACAD_PROXY_OBJECT
  5
56B
330
0
100
AcDbProxyObject
 90
      499
 91
      574
 93
      194
310
0001404050C7266736656706174636865734290139C0C0002D
330
506
 94
        0
1001
ACAD
1000
AcadProxyRoundTripData
1071
      542
1071
   851991
1070
     0
  0
ACAD_PROXY_OBJECT
  5
56C
330
0
100
AcDbProxyObject
 90
      499
 91
      574
 93
      246
310
000140C0508747562654D6F64650143E3BA24EB8A134A4817D3585B9D585B0
330
506
 94
        0
1001
ACAD
1000
AcadProxyRoundTripData
1071
      541
1071
   851991
1070
     0
  0
ACAD_PROXY_OBJECT
  5
56D
330
0
100
AcDbProxyObject
 90
      499
 91
      574
 93
      274
310
0001408050C747562654469616D6574657242D431CEBE2361A3F0000003F20F5E5D055
330
506
 94
        0
1001
ACAD
1000
AcadProxyRoundTripData
1071
      540
1071
   851991
1070
     0
  0
ACAD_PROXY_OBJECT
  5
56E
330
0
100
AcDbProxyObject
 90
      499
 91
      574
 93
      130
310
00014040509696E746572506F6C79A4057
330
506
 94
        0
1001
ACAD
1000
AcadProxyRoundTripData
1071
      542
1071
   851991
1070
     0
  0
ACAD_PROXY_OBJECT
  5
56F
330
0
100
AcDbProxyObject
 90
      499
 91
      574
 93
      162
310
0001404050D696E746572417567506F696E74A405C
330
506
 94
        0
1001
ACAD
1000
AcadProxyRoundTripData
1071
      542
1071
   851991
1070
     0
  0
ACAD_PROXY_OBJECT
  5
570
330
0
100
AcDbProxyObject
 90
      499
 91
      574
 93
      238
310
000140C0509696E7465727472696D014365EF257ECA108A4817D09BDD1A3
330
506
 94
        0
1001
ACAD
1000
AcadProxyRoundTripData
1071
      541
1071
   851991
1070
     0
  0
ACAD_PROXY_OBJECT
  5
571
330
0
100
AcDbProxyObject
 90
      499
 91
      574
 93
      230
310
000140C0509696E7465727479706501433136344A150A4817D51C9A5B5
330
506
 94
        0
1001
ACAD
1000
AcadProxyRoundTripData
1071
      541
1071
   851991
1070
     0
  0
ACAD_PROXY_OBJECT
  5
572
330
0
100
AcDbProxyObject
 90
      499
 91
      574
 93
      146
310
0001404050A636F726E65727472696D4064063
330
506
 94
        0
1001
ACAD
1000
AcadProxyRoundTripData
1071
      542
1071
   851991
1070
     0
  0
ACAD_PROXY_OBJECT
  5
573
330
0
100
AcDbProxyObject
 90
      499
 91
      574
 93
      130
310
000140405086F6673666B6565704064046
330
506
 94
        0
1001
ACAD
1000
AcadProxyRoundTripData
1071
      542
1071
   851991
1070
     0
  0
ACAD_PROXY_OBJECT
  5
574
330
0
100
AcDbProxyObject
 90
      499
 91
      574
 93
      146
310
0001404050A70726F6A4F757470757440A40E3
330
506
 94
        0
1001
ACAD
1000
AcadProxyRoundTripData
1071
      542
1071
   851991
1070
     0
  0
ACAD_PROXY_OBJECT
  5
575
330
0
100
AcDbProxyObject
 90
      499
 91
      574
 93
      270
310
000140C050D70726F6A446972656374696F6E014372F7AB6C0A124A4817DD92595DC
330
506
 94
        0
1001
ACAD
1000
AcadProxyRoundTripData
1071
      541
1071
   851991
1070
     0
  0
ACAD_PROXY_OBJECT
  5
576
330
0
100
AcDbProxyObject
 90
      499
 91
      574
 93
      130
310
0001404050870726F6A4B6565704064056
330
506
 94
        0
1001
ACAD
1000
AcadProxyRoundTripData
1071
      542
1071
   851991
1070
     0
  0
ACAD_PROXY_OBJECT
  5
577
330
0
100
AcDbProxyObject
 90
      499
 91
      574
 93
      278
310
000140C050B70726F6A53706163696E670144237164D2CA13CA4817D3DC1D1A5B585B1
330
506
 94
        0
1001
ACAD
1000
AcadProxyRoundTripData
1071
      541
1071
   851991
1070
     0
  0
ACAD_PROXY_OBJECT
  5
578
330
0
100
AcDbProxyObject
 90
      499
 91
      574
 93
      250
310
0001408050970726F6A54617065728182D4454FB21F9BF060B51153EC87E4FE5
330
506
 94
        0
1001
ACAD
1000
AcadProxyRoundTripData
1071
      540
1071
   851991
1070
     0
  0
ACAD_PROXY_OBJECT
  5
579
330
0
100
AcDbProxyObject
 90
      499
 91
      574
 93
      130
310
00014040508647261674B656570406406D
330
506
 94
        0
1001
ACAD
1000
AcadProxyRoundTripData
1071
      542
1071
   851991
1070
     0
  0
ACAD_PROXY_OBJECT
  5
57A
330
0
100
AcDbProxyObject
 90
      499
 91
      574
 93
      302
310
000140C050F647261674F7269656E746174696F6E0143E590243F0A138A4817D39BDC9B585B2
330
506
 94
        0
1001
ACAD
1000
AcadProxyRoundTripData
1071
      541
1071
   851991
1070
     0
  0
ACAD_PROXY_OBJECT
  5
57B
330
0
100
AcDbProxyObject
 90
      499
 91
      574
 93
      286
310
000140C050E647261675472616E736974696F6E0143A3B6A4DE0A10CA4817DCD0D85B195
330
506
 94
        0
1001
ACAD
1000
AcadProxyRoundTripData
1071
      541
1071
   851991
1070
     0
  0
ACAD_PROXY_OBJECT
  5
57C
330
0
100
AcDbProxyObject
 90
      499
 91
      574
 93
      318
310
000140C051061646A757374436F6E74696E7569747901442F746C2F778A14CA4817D4DB5BDBDD1A0
330
506
 94
        0
1001
ACAD
1000
AcadProxyRoundTripData
1071
      541
1071
   851991
1070
     0
  0
ACAD_PROXY_OBJECT
  5
57D
330
0
100
AcDbProxyObject
 90
      499
 91
      574
 93
      138
310
0001404050A61646A7573744B656570A4067
330
506
 94
        0
1001
ACAD
1000
AcadProxyRoundTripData
1071
      542
1071
   851991
1070
     0
  0
ACAD_PROXY_OBJECT
  5
57E
330
0
100
AcDbProxyObject
 90
      499
 91
      574
 93
      250
310
0001408050972756C65576964746842D431CEBE2361A3F0000003F20F5E5D064
330
506
 94
        0
1001
ACAD
1000
AcadProxyRoundTripData
1071
      540
1071
   851991
1070
     0
  0
ACAD_PROXY_OBJECT
  5
57F
330
0
100
AcDbProxyObject
 90
      499
 91
      574
 93
      274
310
0001408050C616E616C797A65447261667421D139D28615ED8FE060B51153EC842500D
330
506
 94
        0
1001
ACAD
1000
AcadProxyRoundTripData
1071
      540
1071
   851991
1070
     0
  0
ACAD_PROXY_OBJECT
  5
580
330
0
100
AcDbProxyObject
 90
      499
 91
      574
 93
      210
310
0001404050F616E616C797A654E756D4C696E65734163FDFC00006
330
506
 94
        0
1001
ACAD
1000
AcadProxyRoundTripData
1071
      542
1071
   851991
1070
     0
  0
ACAD_PROXY_OBJECT
  5
581
330
0
100
AcDbProxyObject
 90
      499
 91
      574
 93
      202
310
00014040512616E616C797A65526F746174654C696E6573A4040
330
506
 94
        0
1001
ACAD
1000
AcadProxyRoundTripData
1071
      542
1071
   851991
1070
     0
  0
ACAD_PROXY_OBJECT
  5
582
330
0
100
AcDbProxyObject
 90
      499
 91
      574
 93
      210
310
00014040513616E616C797A65446973706C61794C696E6573A4046
330
506
 94
        0
1001
ACAD
1000
AcadProxyRoundTripData
1071
      542
1071
   851991
1070
     0
  0
ACAD_PROXY_OBJECT
  5
583
330
0
100
AcDbProxyObject
 90
      499
 91
      574
 93
      258
310
00014040519616E616C797A655472616E736C7563656E7453757266616365A4042
330
506
 94
        0
1001
ACAD
1000
AcadProxyRoundTripData
1071
      542
1071
   851991
1070
     0
  0
ACAD_PROXY_OBJECT
  5
58C
330
0
100
AcDbProxyObject
 90
      499
 91
      574
 93
      698
310
0001000000009AA6A9AA4051E4D6F6E204F63742031332030303A33373A353920323030382028555443290141CD8B8D0B8C0B8C405184D6F6E204F63742031332030393A34313A333120323030380141CD8B8D0B8C0B8C40
330
506
330
58D
330
58E
330
590
330
0
 94
        0
1001
ACAD
1000
AcadProxyRoundTripData
1071
      548
1071
   851991
1070
     0
  0
ACAD_PROXY_OBJECT
  5
58D
330
0
100
AcDbProxyObject
 90
      499
 91
      574
 93
       70
310
0001AAA80820000001
330
506
330
58D
330
58D
 94
        0
1001
ACAD
1000
AcadProxyRoundTripData
1071
      549
1071
   851991
1070
     0
  0
ACAD_PROXY_OBJECT
  5
58E
330
0
100
AcDbProxyObject
 90
      499
 91
      574
 93
       48
310
00010000000011
330
506
330
0
330
58F
330
0
330
0
 94
        0
1001
ACAD
1000
AcadProxyRoundTripData
1071
      550
1071
   851991
1070
     0
  0
ACAD_PROXY_OBJECT
  5
58F
330
0
100
AcDbProxyObject
 90
      499
 91
      574
 93
       40
310
000100AAAA06
330
506
330
0
 94
        0
1001
ACAD
1000
AcadProxyRoundTripData
1071
      551
1071
   851991
1070
     0
  0
ACAD_PROXY_OBJECT
  5
591
330
0
100
AcDbProxyObject
 90
      499
 91
      574
 93
      124
310
00010142905350D3D39114D414D69050
330
506
 94
        0
1001
ACAD
1000
AcadProxyRoundTripData
1071
      518
1071
   851991
1070
     0
  0
ACAD_PROXY_OBJECT
  5
592
330
0
100
AcDbProxyObject
 90
      499
 91
      574
 93
      124
310
000101429053549553115353D1115010
330
506
 94
        0
1001
ACAD
1000
AcadProxyRoundTripData
1071
      518
1071
   851991
1070
     0
  0
ACAD_PROXY_OBJECT
  5
593
330
0
100
AcDbProxyObject
 90
      499
 91
      574
 93
      108
310
00010142105354D2D353D1115011
330
506
 94
        0
1001
ACAD
1000
AcadProxyRoundTripData
1071
      518
1071
   851991
1070
     0
  0
ACAD_PROXY_OBJECT
  5
594
330
0
100
AcDbProxyObject
 90
      499
 91
      574
 93
      140
310
000101435053511253511254D41353D11160
330
506
 94
        0
1001
ACAD
1000
AcadProxyRoundTripData
1071
      518
1071
   851991
1070
     0
  0
ACAD_PROXY_OBJECT
  5
595
330
0
100
AcDbProxyObject
 90
      499
 91
      574
 93
      180
310
00010142905354D2D05391D513D3000000000000010400
330
506
 94
        0
1001
ACAD
1000
AcadProxyRoundTripData
1071
      517
1071
   851991
1070
     0
  0
ACAD_PROXY_OBJECT
  5
596
330
0
100
AcDbProxyObject
 90
      499
 91
      574
 93
      164
310
00010142505354D2D4D516531140505434F4E542A1
330
506
 94
        0
1001
ACAD
1000
AcadProxyRoundTripData
1071
      539
1071
   851991
1070
     0
  0
ACAD_PROXY_OBJECT
  5
597
330
0
100
AcDbProxyObject
 90
      499
 91
      574
 93
      108
310
00010142105350D3511112535010
330
506
 94
        0
1001
ACAD
1000
AcadProxyRoundTripData
1071
      518
1071
   851991
1070
     0
  0
ACAD_PROXY_OBJECT
  5
598
330
0
100
AcDbProxyObject
 90
      499
 91
      574
 93
      108
310
00010142105350D3D35414D59010
330
506
 94
        0
1001
ACAD
1000
AcadProxyRoundTripData
1071
      518
1071
   851991
1070
     0
  0
ACAD_PROXY_OBJECT
  5
599
330
0
100
AcDbProxyObject
 90
      499
 91
      574
 93
      164
310
0001014290535410549514D4119600504CADFB0C21
330
506
 94
        0
1001
ACAD
1000
AcadProxyRoundTripData
1071
      539
1071
   851991
1070
     0
  0
ACAD_PROXY_OBJECT
  5
59A
330
0
100
AcDbProxyObject
 90
      499
 91
      574
 93
      220
310
0001014350535513D3D31093D11654119600508C2B0D9CEDEC3DEA83
330
506
 94
        0
1001
ACAD
1000
AcadProxyRoundTripData
1071
      539
1071
   851991
1070
     0
  0
ACAD_PROXY_OBJECT
  5
59B
330
0
100
AcDbProxyObject
 90
      499
 91
      574
 93
      116
310
000101425053511254D410D3D39014
330
506
 94
        0
1001
ACAD
1000
AcadProxyRoundTripData
1071
      518
1071
   851991
1070
     0
  0
ACAD_PROXY_OBJECT
  5
59C
330
0
100
AcDbProxyObject
 90
      499
 91
      574
 93
      108
310
00010142105350D3D39114D41010
330
506
 94
        0
1001
ACAD
1000
AcadProxyRoundTripData
1071
      518
1071
   851991
1070
     0
  0
ACAD_PROXY_OBJECT
  5
59D
330
0
100
AcDbProxyObject
 90
      499
 91
      574
 93
      124
310
0001014290535490511114D414D69191
330
506
 94
        0
1001
ACAD
1000
AcadProxyRoundTripData
1071
      518
1071
   851991
1070
     0
  0
ACAD_PROXY_OBJECT
  5
5A3
330
0
100
AcDbProxyObject
 90
      499
 91
      574
 93
      132
310
00010142D05050555513D4D3D315915016
330
506
 94
        0
1001
ACAD
1000
AcadProxyRoundTripData
1071
      518
1071
   851991
1070
     0
  0
ACAD_PROXY_OBJECT
  5
5A4
330
0
100
AcDbProxyObject
 90
      499
 91
      574
 93
      156
310
00010143905050555513D054D4D153509311501C
330
506
 94
        0
1001
ACAD
1000
AcadProxyRoundTripData
1071
      518
1071
   851991
1070
     0
  0
ACAD_PROXY_OBJECT
  5
5A5
330
0
100
AcDbProxyObject
 90
      499
 91
      574
 93
      148
310
00010143505055925155D49154D513D4915010
330
506
 94
        0
1001
ACAD
1000
AcadProxyRoundTripData
1071
      518
1071
   851991
1070
     0
  0
ACAD_PROXY_OBJECT
  5
5A6
330
0
100
AcDbProxyObject
 90
      499
 91
      574
 93
      124
310
00010142D050525394D15495105094E4
330
506
 94
        0
1001
ACAD
1000
AcadProxyRoundTripData
1071
      518
1071
   851991
1070
     0
  0
ACAD_PROXY_OBJECT
  5
5A7
330
0
100
AcDbProxyObject
 90
      499
 91
      574
 93
      148
310
00010143505054D0D153915554111055115010
330
506
 94
        0
1001
ACAD
1000
AcadProxyRoundTripData
1071
      518
1071
   851991
1070
     0
  0
ACAD_PROXY_OBJECT
  5
5A8
330
0
100
AcDbProxyObject
 90
      499
 91
      574
 93
      172
310
00010143105054D5509054D4D354119600503535542D
330
506
 94
        0
1001
ACAD
1000
AcadProxyRoundTripData
1071
      539
1071
   851991
1070
     0
  0
ACAD_PROXY_OBJECT
  5
5A9
330
0
100
AcDbProxyObject
 90
      499
 91
      574
 93
      172
310
00010142905054D0D15391541196005055343454E45D
330
506
 94
        0
1001
ACAD
1000
AcadProxyRoundTripData
1071
      539
1071
   851991
1070
     0
  0
ACAD_PROXY_OBJECT
  5
5AA
330
0
100
AcDbProxyObject
 90
      499
 91
      574
 93
      148
310
00010143505350555513D313D0D2D4D0D39014
330
506
 94
        0
1001
ACAD
1000
AcadProxyRoundTripData
1071
      518
1071
   851991
1070
     0
  0
ACAD_PROXY_OBJECT
  5
5AF
330
0
100
AcDbProxyObject
 90
      499
 91
      574
 93
       32
310
0001000096
330
506
340
5AC
330
5B1
330
5AC
 94
        0
1001
ACAD
1000
AcadProxyRoundTripData
1071
      557
1071
   851991
1070
     0
  0
ACAD_PROXY_OBJECT
  5
5B0
330
0
100
AcDbProxyObject
 90
      499
 91
      574
 93
       18
310
000190
330
506
 94
        0
1001
ACAD
1000
AcadProxyRoundTripData
1071
      558
1071
   851991
1070
     0
  0
ACAD_PROXY_OBJECT
  5
5B1
330
0
100
AcDbProxyObject
 90
      499
 91
      574
 93
      111
310
0001014150D5930C0D5050055401
330
506
330
5AF
330
5B0
 94
        0
1001
ACAD
1000
AcadProxyRoundTripData
1071
      559
1071
   851991
1070
     0
  0
ACAD_PROXY_OBJECT
  5
5B2
330
0
100
AcDbProxyObject
 90
      499
 91
      574
 93
       40
310
000100AAAA06
330
506
330
5B1
 94
        0
1001
ACAD
1000
AcadProxyRoundTripData
1071
      560
1071
   851991
1070
     0
  0
ACAD_PROXY_OBJECT
  5
5B3
330
0
100
AcDbProxyObject
 90
      499
 91
      574
 93
      108
310
0001901422000000000000AAAAAD
330
506
330
5B4
330
5B4
330
5B4
330
5B4
330
5B4
330
0
 94
        0
1001
ACAD
1000
AcadProxyRoundTripData
1071
      561
1071
   851991
1070
     0
  0
ACAD_PROXY_OBJECT
  5
5B4
330
0
100
AcDbProxyObject
 90
      499
 91
      574
 93
       51
310
00010000AAAA98
330
506
330
5B3
330
5B1
 94
        0
1001
ACAD
1000
AcadProxyRoundTripData
1071
      562
1071
   851991
1070
     0
  0
ACAD_PROXY_OBJECT
  5
5C5
330
0
100
AcDbProxyObject
 90
      499
 91
      574
 93
      140
310
00010142105350D55494D5110050349534F6
330
506
 94
        0
1001
ACAD
1000
AcadProxyRoundTripData
1071
      539
1071
   851991
1070
     0
  0
DICTIONARY
  5
4FE
102
{ACAD_REACTORS
330
4FD
102
}
330
4FD
100
AcDbDictionary
  3
DWGSETTINGS
350
4FF
  0
ACAD_PROXY_OBJECT
  5
5C3
102
{ACAD_REACTORS
330
4FD
102
}
330
4FD
100
AcDbProxyObject
 90
      499
 91
      574
 93
    12938
310
41102491013041105357CC1074CA404C504414D5F31439329013241105357CC9054CA404CD04414D5F33419199013441105357CD103466404D504414D5F3540D199013641105357CD90248E404DD04414D5F37411199013841105357CE101466404E504414D5F397F641102324141505357CC4C1074CA408D10505414D5F31
310
3140D19902495041505357CC4C9074C902408C13905414D5F304E41D32902314E41505357CC5390E4CA408C93905414D5F324E41532902334E41505357CCD3906466408D13905414D5F344E40D19902354E41505357CD53903466408D93905414D5F364E40923902374E41505357CDD3904466408E13905414D5F384E40519
310
902394E41505357CE539FD90440CC9053906414D5F31304E41D3290334414E41905357CC4C5390346640D25413906414D5F31324E41D32409044B4C494E41505357D0D3101465094112539193D08414D5F50415245464111942D055241484D3541905357D093D49074C9094115925155D08414D5F56494557534051942D064
310
24548494E4441905357D253959FD90D415514905253105414D5F545240D194250348494441905357D212511074650940D59254D06414D5F56495341D324250650415244494D42505357D410549112535034650941949151911253509414D5F52454644494D4111942553411092139590139CFFFFFFFF415092139594D06424
310
548494E44CFFFFFFFF411093D48C9055241484D3540519411093D48CD055241484D3540923411093D48D5055241484D35CFFFFFFFF4110D0530C90134CFFFFFFFF4110D0530CD0134409234110D0530D5013441D324110D0530DD0134479464110D1539390137CFFFFFFFF4110D15395D0137CFFFFFFFF4110D312539044B4
310
C494ECFFFFFFFF4110D3D38C50130CFFFFFFFF4110D3D38C90131CFFFFFFFF4110D3D38CD0132CFFFFFFFF4110D3D38D10132CFFFFFFFF411111551050134CFFFFFFFF4111125051D0135CFFFFFFFF411112531250135CFFFFFFFF411112535410650415244494DCFFFFFFFF411112535490652454644494DCFFFFFFFF4111
310
91535390138CFFFFFFFF4151915354139013840CFFFFFFFF4151915354D41023441CFFFFFFFF4151915354D5102344140D1941519153559390132CFFFFFFFF4151915355951013240D194112105510D0138CFFFFFFFF411212511390133CFFFFFFFF4112125115D0133CFFFFFFFF411213125390134CFFFFFFFF411213D0D3
310
90137CFFFFFFFF411213D0D5D0137CFFFFFFFF4112539193D04494E464FCFFFFFFFF411311505110135CFFFFFFFF419397D0921395902394ECFFFFFFFF419397D0D3D38C502304ECFFFFFFFF419397D0D3D38C902314ECFFFFFFFF419397D0D3D38CD02324ECFFFFFFFF419397D0D3D38D102324ECFFFFFFFF419397D0D153
310
93902374ECFFFFFFFF419397D0D15395D02374ECFFFFFFFF419397D1125312502354ECFFFFFFFF419397D2105510D02384ECFFFFFFFF419397D2125113902334ECFFFFFFFF419397D2125115D02334ECFFFFFFFF419397D3115051102354ECFFFFFFFF419397D391D25410349504ECFFFFFFFF419397D412105390334414EC
310
FFFFFFFF419397D510D3D3902304ECFFFFFFFF419397D5121312502344ECFFFFFFFF419397D5131153902304ECFFFFFFFF419397D594131250332414ECFFFFFFFF411391D2541024950CFFFFFFFF411410530C9055241484D3540519411410530CD055241484D3540923411410530D5055241484D35CFFFFFFFF4114121053
310
9023441CFFFFFFFF411413D4D390135CFFFFFFFF411490D1D390137CFFFFFFFF411490D1D5D0137CFFFFFFFF4114D09492D0134CFFFFFFFF4114D150D510134CFFFFFFFF4114D6508CD013540923411354D6535013540923411510D3D390130CFFFFFFFF411512131250134CFFFFFFFF411512550C9055241484D354051941
310
1512550CD055241484D3540923411512550D5055241484D35CFFFFFFFF411513115390130CFFFFFFFF415514905253105545241494CCFFFFFFFF411514931250134CFFFFFFFF411516150C5013640D19411516150C9013640D19411516150CD0136CFFFFFFFF411516150D5013641D32411516150DD0136479464115925155
310
D0456494557CFFFFFFFF4115915112103484944CFFFFFFFF4115915115903564953CFFFFFFFF41159413125023241CFFFFFFFF411692569050134CFFFFFFFFAA9FD404FE4290E4C9074C906465054C904465034650248D014651E519FD80
340
16
340
16
340
16
340
5C6
340
16
340
16
340
16
340
5C7
340
16
340
16
340
5C7
340
5C8
340
16
340
16
340
16
340
16
340
5C6
340
16
340
16
340
16
340
5C7
340
16
340
16
340
5C7
340
5C8
340
16
340
5C9
340
16
340
16
340
16
340
16
340
16
340
5C6
340
16
340
16
340
16
340
15
340
15
340
15
340
15
340
15
340
15
340
15
340
15
340
15
340
5CA
340
15
340
15
340
15
340
15
340
15
340
15
340
15
340
15
340
15
340
15
340
15
340
15
340
15
340
16
340
15
340
15
340
15
340
15
340
5CB
340
15
340
15
340
5CA
340
15
340
15
340
15
340
15
340
15
340
15
340
15
340
15
340
5CA
340
15
340
15
340
15
340
5CB
340
15
340
15
340
15
340
15
340
15
340
15
340
15
340
15
340
15
340
15
340
15
340
15
340
15
340
15
340
5CA
340
15
340
15
340
15
340
15
340
15
340
15
340
15
340
15
340
15
340
15
340
15
340
15
340
15
340
15
340
15
340
15
340
15
340
15
340
15
340
15
340
15
340
15
340
5CE
 94
        0
1001
ACAD
1000
AcadProxyRoundTripData
1071
      570
1071
   851991
1070
     0
  0
ACAD_PROXY_OBJECT
  5
5D5
102
{ACAD_REACTORS
330
5D0
102
}
330
5D0
100
AcDbProxyObject
 90
      499
 91
      574
 93
      253
310
43D1444494D454E53494F4E2C414D44545F2A5F44494D404A9012A404A9012A9
 94
        0
1001
ACAD
1000
AcadProxyRoundTripData
1071
      571
1071
   851991
1070
     0
  0
ACAD_PROXY_OBJECT
  5
5D4
102
{ACAD_REACTORS
330
5D0
102
}
330
5D0
100
AcDbProxyObject
 90
      499
 91
      574
 93
      181
310
43D012A42D05357D191504B505357CA9012A404A9012AC
 94
        0
1001
ACAD
1000
AcadProxyRoundTripData
1071
      571
1071
   851991
1070
     0
  0
ACAD_PROXY_OBJECT
  5
5D1
102
{ACAD_REACTORS
330
5D0
102
}
330
5D0
100
AcDbProxyObject
 90
      499
 91
      574
 93
      133
310
43D054841544348404A9012A404A9012A9
 94
        0
1001
ACAD
1000
AcadProxyRoundTripData
1071
      571
1071
   851991
1070
     0
  0
ACAD_PROXY_OBJECT
  5
5D2
102
{ACAD_REACTORS
330
5D0
102
}
330
5D0
100
AcDbProxyObject
 90
      499
 91
      574
 93
      549
310
43D044C494E4549CE0B0E138B0A8B4E0B0A8B4E138B105357CE0B105357CE138B0A8B505357CE0B0A8B505357CE139012A404A910494E534552542C5354445041525432449
 94
        0
1001
ACAD
1000
AcadProxyRoundTripData
1071
      571
1071
   851991
1070
     0
  0
ACAD_PROXY_OBJECT
  5
5D6
102
{ACAD_REACTORS
330
5D0
102
}
330
5D0
100
AcDbProxyObject
 90
      499
 91
      574
 93
      181
310
43D0341524341105357CD5012A404C906494E534552545
 94
        0
1001
ACAD
1000
AcadProxyRoundTripData
1071
      571
1071
   851991
1070
     0
  0
ACAD_PROXY_OBJECT
  5
5D3
102
{ACAD_REACTORS
330
5D0
102
}
330
5D0
100
AcDbProxyObject
 90
      499
 91
      574
 93
     1053
310
43D7841434D46434652414D452C41434D444154554D5441524745542C41434D444154554D49442C41434D57454C4453594D2C41434D5355524653594D2C41434D4645415449442C41434D504152545245462C41434D42414C4C4F4F4E2C414D44544544474553594D2C414D47534352455743414C435441424C45404A9012A
310
404A9012AA
 94
        0
1001
ACAD
1000
AcadProxyRoundTripData
1071
      571
1071
   851991
1070
     0
  0
LAYER_INDEX
  5
5D8
102
{ACAD_REACTORS
330
5D7
102
}
330
5D7
100
AcDbIndex
 40
2454757.497361828
100
AcDbLayerIndex
  8
0
360
5D9
 90
        0
  8
10
360
5DA
 90
     1215
  8
12
360
5DB
 90
       36
  8
16
360
5DC
 90
        2
  8
19
360
5DD
 90
        1
  8
DEFPOINTS
360
191A
 90
        0
  8
17
360
191B
 90
       36
  0
ACAD_PROXY_OBJECT
  5
5B8
102
{ACAD_REACTORS
330
5B7
102
}
330
5B7
100
AcDbProxyObject
 90
      499
 91
      574
 93
      187
310
057356C1D5C406406AA8FFFFFFFF0AE50543564C30354055
330
1F
330
0
330
5B1
 94
        0
1001
ACAD
1000
AcadProxyRoundTripData
1071
      564
1071
   851991
1070
     0
  0
ACAD_PROXY_OBJECT
  5
4FF
102
{ACAD_REACTORS
330
4FE
102
}
330
4FE
100
AcDbProxyObject
 90
      499
 91
      574
 93
     2270
310
4050B44574753455454494E4753A1286829C8E82A4A482B282A106660F8686AF86C608321A2A720A723A0A849A1ABE1C983E18999AA0C868A9C889282940000000000000488083A1A2A72224A0A9A0A8418983E19183E199820E868A9C8892A6A894000000000000010808321A2A72622A7250000000000000122020C868A9
310
C9E8C8C940000000000000488084A1A624A720A92920ACA0A8418983E19183E19982108698929C8AA8B2A082A0AB098929C8A84A22BA3AAA9A1A0A622A50A0E9882A6A89E849482A02608426A0A5A2AB24A2ABA7E8120CA0A68682988A0C00800010652455649534941501304154D0D0531150540CC4E8C50954494D455354
310
414D504A03D0A805197267341441ED115D1D4D15515125391D4D153911F5
 94
        0
1001
ACAD
1000
AcadProxyRoundTripData
1071
      512
1071
   851991
1070
     0
  0
IDBUFFER
  5
5D9
330
0
100
AcDbIdBuffer
  0
IDBUFFER
  5
5DA
330
0
100
AcDbIdBuffer
330
134F
330
1350
330
1351
330
1352
330
1353
330
1354
330
1355
330
1356
330
1357
330
135A
330
135B
330
135C
330
135D
330
135E
330
135F
330
1360
330
1361
330
1362
330
1363
330
1364
330
1365
330
1366
330
1367
330
1368
330
1369
330
136A
330
136B
330
136C
330
136D
330
136E
330
136F
330
1370
330
1371
330
1372
330
1385
330
13AC
330
13AD
330
13AF
330
13B0
330
13B2
330
13B3
330
13B4
330
13B5
330
13B6
330
13B7
330
13B8
330
13B9
330
13BA
330
13BB
330
13BC
330
13BD
330
13BE
330
13BF
330
13C0
330
13C1
330
13C2
330
13C3
330
13C4
330
13C5
330
13C6
330
13C7
330
13C8
330
13C9
330
13CA
330
13CB
330
13CC
330
13CD
330
13CE
330
13CF
330
13D0
330
13D1
330
13D2
330
13D3
330
13D4
330
13D5
330
13D6
330
13D7
330
13D8
330
13D9
330
13DA
330
13DB
330
13DC
330
13DD
330
13DE
330
13DF
330
13E0
330
13E1
330
13E2
330
13E3
330
13E4
330
13E5
330
13E6
330
13E7
330
13E8
330
13E9
330
13EA
330
13EB
330
13EC
330
13ED
330
13EE
330
13EF
330
13F0
330
13F1
330
13F2
330
13F3
330
13F4
330
13F5
330
13F6
330
13F7
330
13F8
330
13F9
330
13FA
330
13FB
330
13FC
330
13FD
330
13FE
330
13FF
330
1400
330
1401
330
1402
330
1403
330
1404
330
1405
330
1406
330
1407
330
1408
330
1409
330
140A
330
140B
330
140C
330
140D
330
140E
330
140F
330
1410
330
1411
330
1412
330
1413
330
1414
330
1415
330
1416
330
1417
330
1418
330
1419
330
141A
330
141B
330
141C
330
141D
330
141E
330
141F
330
1420
330
1421
330
1422
330
1423
330
1424
330
1425
330
1426
330
1427
330
1428
330
1429
330
142A
330
142B
330
142C
330
142D
330
142E
330
142F
330
1430
330
1431
330
1432
330
1433
330
1434
330
1435
330
1436
330
1437
330
1438
330
1439
330
143A
330
143B
330
143C
330
143D
330
143E
330
143F
330
1441
330
1442
330
1444
330
1445
330
1446
330
1447
330
1448
330
1449
330
144A
330
144B
330
144C
330
144D
330
144E
330
144F
330
1450
330
145F
330
1460
330
1461
330
1462
330
1463
330
1464
330
1465
330
1466
330
1467
330
1468
330
1469
330
146A
330
146B
330
146C
330
146D
330
146E
330
146F
330
1470
330
1471
330
1472
330
1473
330
1474
330
1475
330
1476
330
1477
330
1478
330
1479
330
147A
330
147B
330
147C
330
147D
330
147E
330
147F
330
1480
330
1481
330
1482
330
1483
330
1484
330
1485
330
1486
330
1487
330
1488
330
1489
330
148A
330
148B
330
148C
330
148D
330
148E
330
148F
330
1490
330
1491
330
1492
330
1493
330
1494
330
1495
330
1496
330
1497
330
1498
330
1499
330
149A
330
149B
330
149C
330
149D
330
149E
330
149F
330
14A0
330
14A1
330
14A2
330
14A3
330
14A4
330
14A5
330
14A6
330
14A7
330
14A8
330
14A9
330
14AA
330
14AB
330
14AC
330
14AD
330
14AE
330
14AF
330
14B0
330
14B1
330
14B2
330
14B3
330
14B4
330
14B5
330
14B6
330
14B7
330
14B8
330
14B9
330
14BA
330
14BB
330
14BC
330
14BD
330
14BE
330
14BF
330
14C0
330
14C1
330
14C2
330
14C3
330
14C4
330
14C5
330
14C6
330
14C7
330
14C8
330
14C9
330
14CA
330
14D7
330
14D8
330
14D9
330
14DA
330
14DB
330
14DC
330
14DD
330
14DE
330
14DF
330
14E0
330
14E1
330
14E2
330
14E3
330
14E4
330
14E5
330
14E6
330
14E7
330
14E8
330
14E9
330
14EA
330
14EB
330
14EC
330
14ED
330
14EE
330
14EF
330
14F0
330
14F1
330
14F2
330
14F3
330
14F4
330
14F5
330
14F6
330
14F7
330
14F8
330
14F9
330
14FA
330
14FB
330
14FC
330
14FD
330
14FE
330
14FF
330
1500
330
1501
330
1502
330
1503
330
1504
330
1505
330
1506
330
1507
330
1508
330
1509
330
150A
330
150B
330
150C
330
150D
330
150E
330
150F
330
1510
330
1511
330
1512
330
1513
330
1514
330
1515
330
1516
330
1517
330
1518
330
1519
330
151A
330
151B
330
151C
330
151D
330
151E
330
151F
330
1520
330
1521
330
1522
330
1523
330
1524
330
1525
330
1526
330
1527
330
1528
330
1529
330
152A
330
152B
330
152C
330
152D
330
152E
330
152F
330
1530
330
1531
330
1532
330
1533
330
1534
330
1535
330
1536
330
1537
330
1538
330
1539
330
153A
330
153B
330
153C
330
153D
330
153E
330
153F
330
1540
330
1541
330
1542
330
1543
330
1544
330
1545
330
1546
330
1547
330
1548
330
1549
330
154A
330
154B
330
154C
330
154D
330
154E
330
154F
330
1550
330
1551
330
1552
330
1553
330
1554
330
1555
330
1556
330
1557
330
1558
330
1559
330
155A
330
155B
330
155C
330
155D
330
155E
330
155F
330
1560
330
1561
330
1562
330
1563
330
1564
330
1565
330
1566
330
1567
330
1568
330
1569
330
156A
330
156B
330
156C
330
156D
330
156E
330
156F
330
1570
330
1571
330
1572
330
1573
330
1574
330
1575
330
1576
330
1577
330
1578
330
1579
330
157A
330
157B
330
157C
330
157D
330
157E
330
157F
330
1580
330
1581
330
1582
330
1583
330
1584
330
1585
330
1586
330
1587
330
1588
330
1589
330
158A
330
158B
330
158C
330
158D
330
158E
330
158F
330
1590
330
1591
330
1592
330
1593
330
1594
330
1595
330
1596
330
1597
330
1599
330
159A
330
159B
330
159C
330
159D
330
159E
330
159F
330
15A0
330
15A1
330
15A2
330
15A3
330
15A4
330
15A5
330
15A6
330
15A7
330
15A8
330
15A9
330
15AA
330
15AB
330
15AC
330
15AD
330
15AE
330
15AF
330
15B0
330
15B1
330
15B2
330
15B3
330
15B4
330
15B5
330
15B6
330
15B7
330
15B8
330
15B9
330
15BA
330
15BB
330
15BC
330
15BD
330
15BE
330
15BF
330
15C0
330
15C1
330
15C2
330
15C3
330
15C4
330
15C5
330
15C6
330
15C7
330
15C8
330
15C9
330
15CA
330
15CB
330
15CC
330
15CD
330
15CE
330
15CF
330
15D0
330
15D1
330
15D2
330
15D3
330
15D4
330
15D5
330
15D6
330
15D7
330
15D8
330
15D9
330
15DA
330
15DB
330
15DC
330
15DD
330
15DE
330
15DF
330
15E0
330
15E1
330
15E2
330
15E3
330
15E4
330
15E5
330
15E6
330
15E7
330
15E8
330
15E9
330
15EA
330
15EB
330
15EC
330
15ED
330
15EE
330
15EF
330
15F0
330
15F1
330
15F2
330
15F3
330
15F4
330
15F5
330
15F6
330
15F7
330
15F8
330
15F9
330
15FA
330
15FB
330
15FC
330
15FD
330
15FE
330
15FF
330
1600
330
1601
330
1602
330
1603
330
1604
330
1605
330
1606
330
1607
330
1608
330
1609
330
160A
330
160B
330
160C
330
160D
330
160E
330
160F
330
1610
330
1611
330
1612
330
1613
330
1614
330
1615
330
1616
330
1617
330
1618
330
1619
330
161A
330
161B
330
161C
330
161D
330
161E
330
161F
330
1620
330
1621
330
1622
330
1623
330
1624
330
1625
330
1626
330
1627
330
1628
330
1629
330
162A
330
162B
330
162C
330
162D
330
162E
330
162F
330
1630
330
1631
330
1632
330
1633
330
1634
330
1635
330
1636
330
1637
330
1638
330
1639
330
163A
330
163B
330
163C
330
163D
330
163E
330
163F
330
1640
330
1641
330
1642
330
1643
330
1644
330
1645
330
1646
330
1647
330
1648
330
1649
330
164A
330
164B
330
164C
330
164D
330
164E
330
164F
330
1650
330
1651
330
1652
330
1653
330
1654
330
1655
330
1656
330
1657
330
1658
330
1659
330
165A
330
165B
330
165C
330
165D
330
165E
330
165F
330
1660
330
1661
330
1662
330
1663
330
1664
330
1665
330
1666
330
1667
330
1668
330
1669
330
166A
330
166B
330
166C
330
166D
330
166E
330
166F
330
1670
330
1671
330
1672
330
1673
330
1674
330
1675
330
1676
330
1677
330
1678
330
1679
330
167A
330
167B
330
167C
330
167D
330
167E
330
167F
330
1680
330
1681
330
1682
330
1683
330
1684
330
1685
330
1686
330
1687
330
1688
330
1689
330
168A
330
168B
330
168C
330
168D
330
168E
330
168F
330
1690
330
1691
330
1692
330
1693
330
1694
330
1695
330
1696
330
1697
330
1698
330
1699
330
169A
330
169B
330
169C
330
169D
330
169E
330
169F
330
16A0
330
16A1
330
16A2
330
16A3
330
16A4
330
16A5
330
16A6
330
16A7
330
16A8
330
16A9
330
16AA
330
16AB
330
16AC
330
16AD
330
16AE
330
16AF
330
16B0
330
16B1
330
16B2
330
16B3
330
16B4
330
16B5
330
16B6
330
16B7
330
16B8
330
16B9
330
16BA
330
16BB
330
16BC
330
16BD
330
16BE
330
16BF
330
16C0
330
16C1
330
16C2
330
16C3
330
16C4
330
16C5
330
16C6
330
16C7
330
16C8
330
16C9
330
16CA
330
16CB
330
16CC
330
16CD
330
16CE
330
16CF
330
16D0
330
16D1
330
16D2
330
16D3
330
16D4
330
16D5
330
16D6
330
16D7
330
16D8
330
16D9
330
16DA
330
16DB
330
16DC
330
16DD
330
16DE
330
16DF
330
16E0
330
16E1
330
16E2
330
16E3
330
16E4
330
16E5
330
16E6
330
16E7
330
16E8
330
16E9
330
16EA
330
16EB
330
16EC
330
16ED
330
16EE
330
16EF
330
16F0
330
16F1
330
16F2
330
16F3
330
16F4
330
16F5
330
16F6
330
16F7
330
16F8
330
16F9
330
16FA
330
16FB
330
16FC
330
16FD
330
16FE
330
16FF
330
1700
330
1701
330
1702
330
1703
330
1704
330
1705
330
1706
330
1707
330
1708
330
1709
330
170A
330
170B
330
170C
330
170D
330
170E
330
170F
330
1710
330
1711
330
1712
330
1713
330
1714
330
1715
330
1716
330
1717
330
1718
330
1719
330
171A
330
171B
330
171C
330
171D
330
171E
330
171F
330
1720
330
1721
330
1722
330
1723
330
1724
330
1725
330
1726
330
1727
330
1728
330
1729
330
172A
330
172B
330
172C
330
172D
330
172E
330
172F
330
1730
330
1731
330
1732
330
1733
330
1734
330
1735
330
1736
330
1737
330
1738
330
1739
330
173A
330
173B
330
173C
330
173D
330
173E
330
173F
330
1740
330
1741
330
1742
330
1743
330
1744
330
1745
330
1746
330
1747
330
1748
330
1749
330
174A
330
174B
330
174C
330
174D
330
174E
330
174F
330
1750
330
1751
330
1752
330
1753
330
1754
330
1755
330
1756
330
1757
330
1758
330
1759
330
175A
330
175B
330
175C
330
175D
330
175E
330
175F
330
1760
330
1761
330
1762
330
1763
330
1764
330
1765
330
1766
330
1767
330
1768
330
1769
330
176A
330
176B
330
176C
330
176D
330
176E
330
176F
330
1770
330
1771
330
1772
330
1773
330
1774
330
1775
330
1776
330
1777
330
1778
330
1779
330
177A
330
177B
330
177C
330
177D
330
177E
330
177F
330
1780
330
1781
330
1782
330
1783
330
1784
330
1785
330
1786
330
1787
330
1788
330
1789
330
178A
330
178B
330
178C
330
178D
330
178E
330
178F
330
1790
330
1791
330
1792
330
1793
330
1794
330
1795
330
1796
330
1797
330
1798
330
1799
330
179A
330
179B
330
179C
330
179D
330
179E
330
179F
330
17A0
330
17A1
330
17A2
330
17A3
330
17A4
330
17A5
330
17A6
330
17A7
330
17A8
330
17A9
330
17AA
330
17AB
330
17AC
330
17AD
330
17AE
330
17AF
330
17B0
330
17B1
330
17B2
330
17B3
330
17B4
330
17B5
330
17B6
330
17B7
330
17B8
330
17B9
330
17BA
330
17BB
330
17BC
330
17BD
330
17BE
330
17BF
330
17C0
330
17C1
330
17C2
330
17C3
330
17C4
330
17C5
330
17C6
330
17C7
330
17C8
330
17C9
330
17CA
330
17CB
330
17CC
330
17CD
330
17CE
330
17CF
330
17D0
330
17D1
330
17D2
330
17D3
330
17D4
330
17D6
330
17D7
330
17D9
330
17DA
330
17DC
330
17DE
330
17E0
330
17E1
330
17E3
330
17E4
330
17E6
330
17E7
330
17E8
330
17E9
330
17EA
330
17EB
330
17EC
330
17ED
330
17EE
330
17EF
330
17F6
330
17F7
330
17F8
330
17FE
330
17FF
330
1800
330
1801
330
1808
330
180D
330
180E
330
180F
330
1810
330
1815
330
1816
330
1818
330
1819
330
181C
330
181D
330
181F
330
1820
330
1822
330
1823
330
1825
330
1826
330
1827
330
1828
330
1829
330
182A
330
182B
330
182C
330
182D
330
182E
330
182F
330
1830
330
1831
330
1832
330
1833
330
1834
330
1835
330
1836
330
1837
330
1838
330
1839
330
183A
330
183B
330
183C
330
183D
330
183E
330
183F
330
1840
330
1841
330
1842
330
1843
330
1844
330
1845
330
1846
330
1847
330
1848
330
1849
330
184A
330
184B
330
184C
330
184D
330
184E
330
184F
330
1851
330
1852
330
1853
330
1854
330
1855
330
1856
330
1857
330
1858
330
1859
330
185A
330
185B
330
185C
330
185D
330
185E
330
185F
330
1860
330
1861
330
1862
330
1863
330
1864
330
1865
330
1866
330
1867
330
1868
330
1869
330
186A
330
186B
330
186C
330
186D
330
186E
330
186F
330
1870
330
1871
330
1872
330
1873
330
1874
330
1875
330
1876
330
1877
330
1878
330
1879
330
187A
330
187B
330
187C
330
187D
330
187E
330
1880
330
1881
330
1882
330
1883
330
1884
330
1885
330
1886
330
1887
330
1888
330
1889
330
188A
330
188B
330
188C
330
188D
330
188E
  0
IDBUFFER
  5
5DB
330
0
100
AcDbIdBuffer
330
1373
330
1374
330
13AE
330
13B1
330
1440
330
1443
330
1451
330
1452
330
1453
330
1454
330
1455
330
1456
330
1457
330
1458
330
1459
330
145A
330
145B
330
145C
330
145D
330
145E
330
14CB
330
14CC
330
14CD
330
14CE
330
14CF
330
14D0
330
14D1
330
14D2
330
14D3
330
14D4
330
14D5
330
14D6
330
17D5
330
17F2
330
17F3
330
17F4
  0
IDBUFFER
  5
5DC
330
0
100
AcDbIdBuffer
330
1850
330
187F
  0
IDBUFFER
  5
5DD
330
0
100
AcDbIdBuffer
330
5EB
  0
IDBUFFER
  5
191A
330
0
100
AcDbIdBuffer
  0
IDBUFFER
  5
191B
330
0
100
AcDbIdBuffer
330
1358
330
1359
330
17D8
330
17DB
330
17DD
330
17DF
330
17E2
330
17E5
330
17F0
330
17F1
330
17F5
330
17F9
330
17FA
330
17FB
330
17FC
330
17FD
330
1802
330
1803
330
1804
330
1805
330
1806
330
1807
330
1809
330
180A
330
180B
330
180C
330
1811
330
1812
330
1813
330
1814
330
1817
330
181A
330
181B
330
181E
330
1821
330
1824
  0
ENDSEC
  0
EOF
