  0
SECTION
  2
HEADER
  9
$ACADVER
  1
AC1014
  9
$ACADMAINTVER
 70
     9
  9
$DWGCODEPAGE
  3
ANSI_932
  9
$INSBASE
 10
0.0
 20
0.0
 30
0.0
  9
$EXTMIN
 10
-0.0133569836870038
 20
-5.475535081522366
 30
-0.0000000349181948
  9
$EXTMAX
 10
423.8755741106372
 20
106.3062932040867
 30
0.0000000814935747
  9
$LIMMIN
 10
0.0
 20
0.0
  9
$LIMMAX
 10
420.0
 20
297.0
  9
$ORTHOMODE
 70
     0
  9
$REGENMODE
 70
     1
  9
$FILLMODE
 70
     1
  9
$QTEXTMODE
 70
     0
  9
$MIRRTEXT
 70
     1
  9
$DRAGMODE
 70
     2
  9
$LTSCALE
 40
1.0
  9
$OSMODE
 70
  3071
  9
$ATTMODE
 70
     1
  9
$TEXTSIZE
 40
2.5
  9
$TRACEWID
 40
1.0
  9
$TEXTSTYLE
  7
STANDARD
  9
$CLAYER
  8
0
  9
$CELTYPE
  6
BYLAYER
  9
$CECOLOR
 62
   256
  9
$CELTSCALE
 40
1.0
  9
$DELOBJ
 70
     1
  9
$DISPSILH
 70
     0
  9
$DIMSCALE
 40
1.0
  9
$DIMASZ
 40
2.5
  9
$DIMEXO
 40
0.625
  9
$DIMDLI
 40
3.75
  9
$DIMRND
 40
0.0
  9
$DIMDLE
 40
0.0
  9
$DIMEXE
 40
1.25
  9
$DIMTP
 40
0.0
  9
$DIMTM
 40
0.0
  9
$DIMTXT
 40
2.5
  9
$DIMCEN
 40
2.5
  9
$DIMTSZ
 40
0.0
  9
$DIMTOL
 70
     0
  9
$DIMLIM
 70
     0
  9
$DIMTIH
 70
     0
  9
$DIMTOH
 70
     0
  9
$DIMSE1
 70
     0
  9
$DIMSE2
 70
     0
  9
$DIMTAD
 70
     1
  9
$DIMZIN
 70
     8
  9
$DIMBLK
  1

  9
$DIMASO
 70
     1
  9
$DIMSHO
 70
     1
  9
$DIMPOST
  1

  9
$DIMAPOST
  1

  9
$DIMALT
 70
     0
  9
$DIMALTD
 70
     3
  9
$DIMALTF
 40
0.03937007874016
  9
$DIMLFAC
 40
1.0
  9
$DIMTOFL
 70
     1
  9
$DIMTVP
 40
0.0
  9
$DIMTIX
 70
     0
  9
$DIMSOXD
 70
     0
  9
$DIMSAH
 70
     0
  9
$DIMBLK1
  1

  9
$DIMBLK2
  1

  9
$DIMSTYLE
  2
ISO-25
  9
$DIMCLRD
 70
     0
  9
$DIMCLRE
 70
     0
  9
$DIMCLRT
 70
     0
  9
$DIMTFAC
 40
1.0
  9
$DIMGAP
 40
0.625
  9
$DIMJUST
 70
     0
  9
$DIMSD1
 70
     0
  9
$DIMSD2
 70
     0
  9
$DIMTOLJ
 70
     0
  9
$DIMTZIN
 70
     8
  9
$DIMALTZ
 70
     0
  9
$DIMALTTZ
 70
     0
  9
$DIMFIT
 70
     3
  9
$DIMUPT
 70
     0
  9
$DIMUNIT
 70
     2
  9
$DIMDEC
 70
     2
  9
$DIMTDEC
 70
     2
  9
$DIMALTU
 70
     2
  9
$DIMALTTD
 70
     3
  9
$DIMTXSTY
  7
STANDARD
  9
$DIMAUNIT
 70
     0
  9
$LUNITS
 70
     2
  9
$LUPREC
 70
     2
  9
$SKETCHINC
 40
1.0
  9
$FILLETRAD
 40
10.0
  9
$AUNITS
 70
     0
  9
$AUPREC
 70
     0
  9
$MENU
  1
.
  9
$ELEVATION
 40
0.0
  9
$PELEVATION
 40
0.0
  9
$THICKNESS
 40
0.0
  9
$LIMCHECK
 70
     0
  9
$BLIPMODE
 70
     0
  9
$CHAMFERA
 40
10.0
  9
$CHAMFERB
 40
10.0
  9
$CHAMFERC
 40
20.0
  9
$CHAMFERD
 40
0.0
  9
$SKPOLY
 70
     0
  9
$TDCREATE
 40
2454596.550355717
  9
$TDUPDATE
 40
2454757.553938796
  9
$TDINDWG
 40
0.0277284144
  9
$TDUSRTIMER
 40
0.0277282292
  9
$USRTIMER
 70
     1
  9
$ANGBASE
 50
0.0
  9
$ANGDIR
 70
     0
  9
$PDMODE
 70
     0
  9
$PDSIZE
 40
0.0
  9
$PLINEWID
 40
0.0
  9
$COORDS
 70
     0
  9
$SPLFRAME
 70
     0
  9
$SPLINETYPE
 70
     6
  9
$SPLINESEGS
 70
     8
  9
$ATTDIA
 70
     0
  9
$ATTREQ
 70
     1
  9
$HANDLING
 70
 22529
  9
$HANDSEED
  5
99F
  9
$SURFTAB1
 70
     6
  9
$SURFTAB2
 70
     6
  9
$SURFTYPE
 70
     6
  9
$SURFU
 70
     6
  9
$SURFV
 70
     6
  9
$UCSNAME
  2

  9
$UCSORG
 10
0.0
 20
0.0
 30
0.0
  9
$UCSXDIR
 10
1.0
 20
0.0
 30
0.0
  9
$UCSYDIR
 10
0.0
 20
1.0
 30
0.0
  9
$PUCSNAME
  2

  9
$PUCSORG
 10
0.0
 20
0.0
 30
0.0
  9
$PUCSXDIR
 10
1.0
 20
0.0
 30
0.0
  9
$PUCSYDIR
 10
0.0
 20
1.0
 30
0.0
  9
$USERI1
 70
     0
  9
$USERI2
 70
     0
  9
$USERI3
 70
     0
  9
$USERI4
 70
     0
  9
$USERI5
 70
     0
  9
$USERR1
 40
0.0
  9
$USERR2
 40
0.0
  9
$USERR3
 40
0.0
  9
$USERR4
 40
0.0
  9
$USERR5
 40
0.0
  9
$WORLDVIEW
 70
     1
  9
$SHADEDGE
 70
     3
  9
$SHADEDIF
 70
    70
  9
$TILEMODE
 70
     1
  9
$MAXACTVP
 70
    48
  9
$PINSBASE
 10
0.0
 20
0.0
 30
0.0
  9
$PLIMCHECK
 70
     0
  9
$PEXTMIN
 10
28.5263154029846
 20
19.82258291244505
 30
0.0
  9
$PEXTMAX
 10
256.7368386268614
 20
178.4032462120055
 30
0.0
  9
$PLIMMIN
 10
-5.873748779296875
 20
-5.873749732971191
  9
$PLIMMAX
 10
291.1369018554686
 20
204.0995779037474
  9
$UNITMODE
 70
     0
  9
$VISRETAIN
 70
     1
  9
$PLINEGEN
 70
     0
  9
$PSLTSCALE
 70
     1
  9
$TREEDEPTH
 70
  3020
  9
$PICKSTYLE
 70
     1
  9
$CMLSTYLE
  2
STANDARD
  9
$CMLJUST
 70
     0
  9
$CMLSCALE
 40
20.0
  9
$PROXYGRAPHICS
 70
     1
  9
$MEASUREMENT
 70
     1
  0
ENDSEC
  0
SECTION
  2
CLASSES
  0
CLASS
  1
ACDBDICTIONARYWDFLT
  2
AcDbDictionaryWithDefault
  3
AutoCAD 2000
 90
        0
280
     0
281
     0
  0
CLASS
  1
ACDBPLACEHOLDER
  2
AcDbPlaceHolder
  3
AutoCAD 2000
 90
        0
280
     0
281
     0
  0
CLASS
  1
LAYOUT
  2
AcDbLayout
  3
AutoCAD 2000
 90
        0
280
     0
281
     0
  0
CLASS
  1
DICTIONARYVAR
  2
AcDbDictionaryVar
  3
AutoCAD 2000
 90
        0
280
     0
281
     0
  0
CLASS
  1
LONG_TRANSACTION
  2
AcDbLongTransaction
  3
AutoCAD 2000
 90
        0
280
     0
281
     0
  0
CLASS
  1
LWPOLYLINE
  2
AcDbPolyline
  3
AutoCAD 2000
 90
        0
280
     0
281
     1
  0
CLASS
  1
HATCH
  2
AcDbHatch
  3
AutoCAD 2000
 90
        0
280
     0
281
     1
  0
CLASS
  1
XRECORD
  2
AcDbXrecord
  3
AutoCAD 2000
 90
        0
280
     0
281
     0
  0
CLASS
  1
LONG_TRANSACTION
  2
AcDbLongTransaction
  3
AutoCAD 2000
 90
        0
280
     0
281
     0
  0
CLASS
  1
LWPOLYLINE
  2
AcDbPolyline
  3
AutoCAD 2000
 90
        0
280
     0
281
     1
  0
CLASS
  1
HATCH
  2
AcDbHatch
  3
AutoCAD 2000
 90
        0
280
     0
281
     1
  0
CLASS
  1
XRECORD
  2
AcDbXrecord
  3
AutoCAD 2000
 90
        0
280
     0
281
     0
  0
CLASS
  1
AMGSETTINGSOBJ
  2
AmgSettingsObj
  3
"AcadM|Product Description: AutoCAD Mechanical 2000|Company: Autodesk"
 90
        0
280
     0
281
     0
  0
CLASS
  1
ACME_DOCUMENT
  2
AcMeDbDoc
  3
AcMeServices
 90
        0
280
     0
281
     0
  0
CLASS
  1
ACMESCOPE
  2
AcMeScope
  3
AcMeServices
 90
        0
280
     0
281
     0
  0
CLASS
  1
ACMECOMMANDHISTORY
  2
AcMeCommandHistory
  3
AcMeServices
 90
        0
280
     0
281
     0
  0
CLASS
  1
ACIMSYSVARMAN
  2
AcImSysVarManager
  3
AcMeServices
 90
        0
280
     0
281
     0
  0
CLASS
  1
ACIMREALSYSVAR
  2
AcImRealSysVar
  3
AcMeServices
 90
        0
280
     0
281
     0
  0
CLASS
  1
ACIMINTSYSVAR
  2
AcImIntSysVar
  3
AcMeServices
 90
        0
280
     0
281
     0
  0
CLASS
  1
ACMEDRAWINGMAN
  2
AcMeDrawingMan
  3
AcMeServices
 90
        0
280
     0
281
     0
  0
CLASS
  1
ACMEVIEW
  2
AcMeView
  3
AcMeServices
 90
        0
280
     0
281
     0
  0
CLASS
  1
ACDBENTITYCACHE
  2
AcMeEntityCache
  3
AcMeServices
 90
        0
280
     0
281
     0
  0
CLASS
  1
GSMANAGER
  2
AcMeGSManager
  3
AcMeServices
 90
        0
280
     0
281
     0
  0
CLASS
  1
AMDTINTERNALREACTOR
  2
AmdtInternalReactor
  3
AcMeServices
 90
        0
280
     0
281
     0
  0
CLASS
  1
ACMESTATEMGR
  2
AcMeStateMgr
  3
AcMeServices
 90
        0
280
     0
281
     0
  0
CLASS
  1
ACGREFMASTER
  2
AcGrefMaster
  3
AcAttribServices
 90
        0
280
     0
281
     0
  0
CLASS
  1
AM_DRAWING_MGR
  2
AcDmDwgMgr
  3
AcMechDwgViewMgmt
 90
        0
280
     0
281
     0
  0
CLASS
  1
AM_DWG_DOCUMENT
  2
AcDmDwgDocument
  3
AcMechDwgViewMgmt
 90
        0
280
     0
281
     0
  0
CLASS
  1
AM_DWG_SHEET
  2
AcDmSheet
  3
AcMechDwgViewMgmt
 90
        0
280
     0
281
     0
  0
CLASS
  1
AM_VIEWDIMPARMAP
  2
AcDmViewDimParMap
  3
AcMechDwgViewMgmt
 90
        0
280
     0
281
     0
  0
CLASS
  1
AM_DWGMGR_NAME
  2
AcDmDwgMgrName
  3
AcMechDwgViewMgmt
 90
        0
280
     0
281
     0
  0
CLASS
  1
ACME_DATABASE
  2
AcMeDbDatabase
  3
AcMeServices
 90
        0
280
     0
281
     0
  0
CLASS
  1
ACRFINSADJUSTERMGR
  2
AcRfInsAdjusterMgr
  3
AcMeServices
 90
        0
280
     0
281
     0
  0
CLASS
  1
ACGREFACADMASTER
  2
AcGrefacadMaster
  3
AcGrefServices
 90
        0
280
     0
281
     0
  0
CLASS
  1
AMDTMENUSTATEMGR
  2
AmdtMenuStateMgr
  3
McadcomServices
 90
        0
280
     0
281
     0
  0
CLASS
  1
AMDTMCOMMENUSTATE
  2
AmdtMcomMenuState
  3
McadcomServices
 90
        0
280
     0
281
     0
  0
CLASS
  1
AMIMASTER
  2
AmiMaster
  3
AmiServices
 90
        0
280
     0
281
     0
  0
CLASS
  1
ASAPP
  2
AcAsAppObject
  3
AutoSurfServices
 90
        0
280
     0
281
     0
  0
CLASS
  1
IM_STATIC_MAN
  2
AcImStaticVarManager
  3
AcMeServices
 90
        0
280
     0
281
     0
  0
CLASS
  1
ACIMSTRSYSVAR
  2
AcImStrSysVar
  3
AcMeServices
 90
        0
280
     0
281
     0
  0
CLASS
  1
ACIMDBLSTATICVAR
  2
AcImDblStaticVar
  3
AcMeServices
 90
        0
280
     0
281
     0
  0
CLASS
  1
ACIMSTRSTATICVAR
  2
AcImStrStaticVar
  3
AcMeServices
 90
        0
280
     0
281
     0
  0
CLASS
  1
ACIMINTSTATICVAR
  2
AcImIntStaticVar
  3
AcMeServices
 90
        0
280
     0
281
     0
  0
CLASS
  1
ACASGREFMASTER
  2
AcAsGrefMaster
  3
AutoSurfResolverServices
 90
        0
280
     0
281
     0
  0
CLASS
  1
ACADGREFMODULE
  2
AcAdGrefModule
  3
AdGrefServices
 90
        0
280
     0
281
     0
  0
CLASS
  1
AMDTMAPISURFMOUDULE
  2
AmdtMApiSurfModule
  3
MApiSurfServices
 90
        0
280
     0
281
     0
  0
CLASS
  1
MAPIAMMOUDLE
  2
MApiAmModule
  3
MApiAmServices
 90
        0
280
     0
281
     0
  0
CLASS
  1
AMDTADMENUSTATE
  2
AmdtAdMenuState
  3
DesignerServices
 90
        0
280
     0
281
     0
  0
CLASS
  1
ADAPPL
  2
AcAdAppl
  3
DesignerServices
 90
        0
280
     0
281
     0
  0
CLASS
  1
DEPMGR
  2
AcAdDepMgr
  3
DesignerServices
 90
        0
280
     0
281
     0
  0
CLASS
  1
PARAMMGR
  2
AcAdParamMgr
  3
DesignerServices
 90
        0
280
     0
281
     0
  0
CLASS
  1
PARAMSCOPE
  2
AcAdParamScope
  3
DesignerServices
 90
        0
280
     0
281
     0
  0
CLASS
  1
NAMEDAPPL
  2
AcAdNamedAppl
  3
DesignerServices
 90
        0
280
     0
281
     0
  0
CLASS
  1
AMDTDMMENUSTATE
  2
AmdtDmMenuState
  3
AcMechDwgViewMgmt
 90
        0
280
     0
281
     0
  0
CLASS
  1
MAPIADMODULE
  2
MApiAdModule
  3
MApiAdServices
 90
        0
280
     0
281
     0
  0
CLASS
  1
AMDTAMMENUSTATE
  2
AmdtAmMenuState
  3
DesignerAssemblies
 90
        0
280
     0
281
     0
  0
CLASS
  1
ACAMPROJECT
  2
AcAmProject
  3
DesignerAssemblies
 90
        0
280
     0
281
     0
  0
CLASS
  1
ACAMGRCOMPDEF
  2
AcAmGrCompDef
  3
DesignerAssemblies
 90
        0
280
     0
281
     0
  0
CLASS
  1
ACCMCONTEXT
  2
AcCmContext
  3
DesignerAssemblies
 90
        0
280
     0
281
     0
  0
CLASS
  1
ACAMCOMPDEF
  2
AcAmCompDef
  3
DesignerAssemblies
 90
        0
280
     0
281
     0
  0
CLASS
  1
ACAMCOMPDEFMGR
  2
AcAmCompDefMgr
  3
DesignerAssemblies
 90
        0
280
     0
281
     0
  0
CLASS
  1
AMCONTEXTMGR
  2
AcAmContextMgr
  3
DesignerAssemblies
 90
        0
280
     0
281
     0
  0
CLASS
  1
ACAMCONTEXTMODELER
  2
AcAmContextModeler
  3
DesignerAssemblies
 90
        0
280
     0
281
     0
  0
CLASS
  1
ACMDATADICTIONARY
  2
AcmDataDictionary
  3
"AcmSymBB|Product Description: AutoCAD Mechanical 2000|Company: Autodesk"
 90
        0
280
     0
281
     0
  0
CLASS
  1
ACMDATAENTRYBLOCK
  2
AcmDataEntryBlock
  3
"AcmSymBB|Product Description: AutoCAD Mechanical 2000|Company: Autodesk"
 90
        0
280
     0
281
     0
  0
CLASS
  1
CATALOGSTATE
  2
AcAmCatalogState
  3
DesignerAssemblies
 90
        0
280
     0
281
     0
  0
CLASS
  1
ACAMGRCOMPDEFSET
  2
AcAmGrCompDefSet
  3
DesignerAssemblies
 90
        0
280
     0
281
     0
  0
CLASS
  1
AMDTBROWSERDBTAB
  2
AmdtBrowserDbTab
  3
McadcomServices
 90
        0
280
     0
281
     0
  0
CLASS
  1
CBROWSERAPPOBJECT
  2
CBrowserAppObject
  3
McadcomServices
 90
        0
280
     0
281
     0
  0
CLASS
  1
DM_PLACEHOLDER
  2
AcDmSelsetPlaceholder
  3
AcMechDwgViewMgmt
 90
        0
280
     0
281
     0
  0
CLASS
  1
AMGOBJPROPCFG
  2
AmgObjPropCfg
  3
"AmgLay|Product Description: AutoCAD Mechanical 2000|Company: Autodesk"
 90
        1
280
     0
281
     0
  0
CLASS
  1
ACAMGFILTERDAT
  2
AcAmgFilterDat
  3
"AcadM|Product Description: AutoCAD Mechanical 2000|Company: Autodesk"
 90
        0
280
     0
281
     0
  0
CLASS
  1
LAYER_INDEX
  2
AcDbLayerIndex
  3
AutoCAD 2000
 90
        0
280
     0
281
     0
  0
CLASS
  1
IDBUFFER
  2
AcDbIdBuffer
  3
AutoCAD 2000
 90
        0
280
     0
281
     0
  0
CLASS
  1
ACAD_PROXY_OBJECT_WRAPPER
  2
AcDbProxyObjectWrapper
  3
AutoCAD 2000
 90
        0
280
     0
281
     0
  0
CLASS
  1
LONG_TRANSACTION
  2
AcDbLongTransaction
  3
AutoCAD 2000
 90
        0
280
     0
281
     0
  0
CLASS
  1
LWPOLYLINE
  2
AcDbPolyline
  3
AutoCAD 2000
 90
        0
280
     0
281
     1
  0
CLASS
  1
HATCH
  2
AcDbHatch
  3
AutoCAD 2000
 90
        0
280
     0
281
     1
  0
CLASS
  1
XRECORD
  2
AcDbXrecord
  3
AutoCAD 2000
 90
        0
280
     0
281
     0
  0
CLASS
  1
LONG_TRANSACTION
  2
AcDbLongTransaction
  3
AutoCAD 2000
 90
        0
280
     0
281
     0
  0
CLASS
  1
LWPOLYLINE
  2
AcDbPolyline
  3
AutoCAD 2000
 90
        0
280
     0
281
     1
  0
CLASS
  1
HATCH
  2
AcDbHatch
  3
AutoCAD 2000
 90
        0
280
     0
281
     1
  0
CLASS
  1
XRECORD
  2
AcDbXrecord
  3
AutoCAD 2000
 90
        0
280
     0
281
     0
  0
CLASS
  1
LONG_TRANSACTION
  2
AcDbLongTransaction
  3
AutoCAD 2000
 90
        0
280
     0
281
     0
  0
CLASS
  1
LWPOLYLINE
  2
AcDbPolyline
  3
AutoCAD 2000
 90
        0
280
     0
281
     1
  0
CLASS
  1
HATCH
  2
AcDbHatch
  3
AutoCAD 2000
 90
        0
280
     0
281
     1
  0
CLASS
  1
XRECORD
  2
AcDbXrecord
  3
AutoCAD 2000
 90
        0
280
     0
281
     0
  0
ENDSEC
  0
SECTION
  2
TABLES
  0
TABLE
  2
VPORT
  5
8
330
0
100
AcDbSymbolTable
 70
     2
  0
VPORT
  5
97C
330
8
100
AcDbSymbolTableRecord
100
AcDbViewportTableRecord
  2
*ACTIVE
 70
     0
 10
0.0
 20
0.0
 11
1.0
 21
1.0
 12
-929.0180580177139
 22
-502.160795381164
 13
0.0
 23
0.0
 14
10.0
 24
10.0
 15
10.0
 25
10.0
 16
0.0
 26
0.0
 36
1.0
 17
1140.949166581189
 27
552.5761744424462
 37
0.0
 40
262.7952347396309
 41
1.621212121212121
 42
50.0
 43
0.0
 44
0.0
 50
0.0
 51
0.0
 71
     0
 72
   100
 73
     1
 74
     3
 75
     0
 76
     0
 77
     0
 78
     0
  0
ENDTAB
  0
TABLE
  2
LTYPE
  5
5
330
0
100
AcDbSymbolTable
 70
     9
  0
LTYPE
  5
14
330
5
100
AcDbSymbolTableRecord
100
AcDbLinetypeTableRecord
  2
BYBLOCK
 70
     0
  3

 72
    65
 73
     0
 40
0.0
  0
LTYPE
  5
15
330
5
100
AcDbSymbolTableRecord
100
AcDbLinetypeTableRecord
  2
BYLAYER
 70
     0
  3

 72
    65
 73
     0
 40
0.0
  0
LTYPE
  5
16
330
5
100
AcDbSymbolTableRecord
100
AcDbLinetypeTableRecord
  2
CONTINUOUS
 70
     0
  3
Solid line
 72
    65
 73
     0
 40
0.0
  0
LTYPE
  5
5C6
330
5
100
AcDbSymbolTableRecord
100
AcDbLinetypeTableRecord
  2
AM_ISO02W050
 70
     0
  3
__ __ __ __ __ __ __ __ __ __ __ __ __ __ __
 72
    65
 73
     2
 40
7.5
 49
6.0
 74
     0
 49
-1.5
 74
     0
  0
LTYPE
  5
5C7
330
5
100
AcDbSymbolTableRecord
100
AcDbLinetypeTableRecord
  2
AM_ISO08W050
 70
     0
  3
____ . ____ . ____ . ____ . ____ . ____ . ____
 72
    65
 73
     4
 40
18.0
 49
12.0
 74
     0
 49
-1.5
 74
     0
 49
3.0
 74
     0
 49
-1.5
 74
     0
  0
LTYPE
  5
5C8
330
5
100
AcDbSymbolTableRecord
100
AcDbLinetypeTableRecord
  2
AM_ISO09W050
 70
     0
  3
_____ . . _____ . . _____ . . ____ .. ____
 72
    65
 73
     6
 40
22.5
 49
12.0
 74
     0
 49
-1.5
 74
     0
 49
3.0
 74
     0
 49
-1.5
 74
     0
 49
3.0
 74
     0
 49
-1.5
 74
     0
  0
LTYPE
  5
5C9
330
5
100
AcDbSymbolTableRecord
100
AcDbLinetypeTableRecord
  2
AMCONSTR
 70
     0
  3
_______________________
 72
    65
 73
     2
 40
9999.0
 49
9999.0
 74
     0
 49
0.0
 74
     0
  0
LTYPE
  5
5CA
330
5
100
AcDbSymbolTableRecord
100
AcDbLinetypeTableRecord
  2
AM_ISO08W050X2
 70
     0
  3
__ . __ . __ . __ . __ . __
 72
    65
 73
     4
 40
9.0
 49
6.0
 74
     0
 49
-0.75
 74
     0
 49
1.5
 74
     0
 49
-0.75
 74
     0
  0
LTYPE
  5
5CB
330
5
100
AcDbSymbolTableRecord
100
AcDbLinetypeTableRecord
  2
AM_ISO02W050X2
 70
     0
  3
 _ _ _ _ _ _ _ _ _ _ _ _
 72
    65
 73
     2
 40
3.75
 49
3.0
 74
     0
 49
-0.75
 74
     0
  0
LTYPE
  5
5CE
330
5
100
AcDbSymbolTableRecord
100
AcDbLinetypeTableRecord
  2
AMZIGZAG
 70
     0
  3
/\/-/\/-/\/-/\/-/\/-/\/
 72
    65
 73
     2
 40
11.00009999999999
 49
0.0001
 74
     4
 75
   135
340
5CD
 46
0.04
 50
0.0
 44
0.0
 45
0.0
 49
-11.0
 74
     0
  0
ENDTAB
  0
TABLE
  2
LAYER
  5
2
102
{ACAD_XDICTIONARY
360
41
102
}
330
0
100
AcDbSymbolTable
 70
     7
  0
LAYER
  5
10
330
2
100
AcDbSymbolTableRecord
100
AcDbLayerTableRecord
  2
0
 70
     0
 62
     7
  6
CONTINUOUS
  0
LAYER
  5
35
330
2
100
AcDbSymbolTableRecord
100
AcDbLayerTableRecord
  2
10
 70
     0
 62
     4
  6
CONTINUOUS
  0
LAYER
  5
36
330
2
100
AcDbSymbolTableRecord
100
AcDbLayerTableRecord
  2
12
 70
     0
 62
     3
  6
CONTINUOUS
  0
LAYER
  5
37
330
2
100
AcDbSymbolTableRecord
100
AcDbLayerTableRecord
  2
16
 70
     0
 62
     4
  6
CONTINUOUS
  0
LAYER
  5
38
330
2
100
AcDbSymbolTableRecord
100
AcDbLayerTableRecord
  2
19
 70
     0
 62
     7
  6
CONTINUOUS
  0
LAYER
  5
685
330
2
100
AcDbSymbolTableRecord
100
AcDbLayerTableRecord
  2
DEFPOINTS
 70
     0
 62
     7
  6
CONTINUOUS
  0
LAYER
  5
94A
330
2
100
AcDbSymbolTableRecord
100
AcDbLayerTableRecord
  2
17
 70
     0
 62
     2
  6
CONTINUOUS
  0
ENDTAB
  0
TABLE
  2
STYLE
  5
3
330
0
100
AcDbSymbolTable
 70
     3
  0
STYLE
  5
11
330
3
100
AcDbSymbolTableRecord
100
AcDbTextStyleTableRecord
  2
STANDARD
 70
     0
 40
0.0
 41
1.0
 50
0.0
 71
     0
 42
2.5
  3
txt
  4

  0
STYLE
  5
3A
330
3
100
AcDbSymbolTableRecord
100
AcDbTextStyleTableRecord
  2
STANDARD1X3
 70
     0
 40
9.599999999999999
 41
0.7
 50
0.0
 71
     0
 42
9.599999999999999
  3
romans.shx
  4
extfont.shx
  0
STYLE
  5
5CD
330
3
100
AcDbSymbolTableRecord
100
AcDbTextStyleTableRecord
  2

 70
     1
 40
0.0
 41
1.0
 50
0.0
 71
     0
 42
2.5
  3
ltypeshp.shx
  4

  0
ENDTAB
  0
TABLE
  2
VIEW
  5
6
330
0
100
AcDbSymbolTable
 70
     0
  0
ENDTAB
  0
TABLE
  2
UCS
  5
7
330
0
100
AcDbSymbolTable
 70
     0
  0
ENDTAB
  0
TABLE
  2
APPID
  5
9
330
0
100
AcDbSymbolTable
 70
    18
  0
APPID
  5
12
330
9
100
AcDbSymbolTableRecord
100
AcDbRegAppTableRecord
  2
ACAD
 70
     0
  0
APPID
  5
3C
330
9
100
AcDbSymbolTableRecord
100
AcDbRegAppTableRecord
  2
ACAD_PSEXT
 70
     0
  0
APPID
  5
3D
330
9
100
AcDbSymbolTableRecord
100
AcDbRegAppTableRecord
  2
ACAD_DSTYLE_DIMEXT_LENGTH
 70
     0
  0
APPID
  5
3E
330
9
100
AcDbSymbolTableRecord
100
AcDbRegAppTableRecord
  2
ACAD_DSTYLE_DIMEXT_ENABLED
 70
     0
  0
APPID
  5
3F
330
9
100
AcDbSymbolTableRecord
100
AcDbRegAppTableRecord
  2
ACAD_DSTYLE_DIMJOGGED_JOGA
 70
     0
  0
APPID
  5
40
330
9
100
AcDbSymbolTableRecord
100
AcDbRegAppTableRecord
  2
ACAD_DSTYLE_DIMARC_LENGTH_
 70
     0
  0
APPID
  5
500
330
9
100
AcDbSymbolTableRecord
100
AcDbRegAppTableRecord
  2
GENIUS_GENDIM_13
 70
     0
  0
APPID
  5
501
330
9
100
AcDbSymbolTableRecord
100
AcDbRegAppTableRecord
  2
GENIUS_GENDTOL_13
 70
     0
  0
APPID
  5
502
330
9
100
AcDbSymbolTableRecord
100
AcDbRegAppTableRecord
  2
GENIUS_GE3DTOL_13
 70
     0
  0
APPID
  5
504
330
9
100
AcDbSymbolTableRecord
100
AcDbRegAppTableRecord
  2
MCAD_NO_VIS
 70
     0
  0
APPID
  5
505
330
9
100
AcDbSymbolTableRecord
100
AcDbRegAppTableRecord
  2
ACAD_TEMP_GRAPHIC
 70
     0
  0
APPID
  5
537
330
9
100
AcDbSymbolTableRecord
100
AcDbRegAppTableRecord
  2
AD_DRAW
 70
     0
  0
APPID
  5
53A
330
9
100
AcDbSymbolTableRecord
100
AcDbRegAppTableRecord
  2
ACATTRIBSERVICES
 70
     0
  0
APPID
  5
586
330
9
100
AcDbSymbolTableRecord
100
AcDbRegAppTableRecord
  2
ASURF_PCURVE_APPNAME
 70
     0
  0
APPID
  5
5B5
330
9
100
AcDbSymbolTableRecord
100
AcDbRegAppTableRecord
  2
DESIGNERASSEMBLIES
 70
     0
  0
APPID
  5
5BD
330
9
100
AcDbSymbolTableRecord
100
AcDbRegAppTableRecord
  2
ACADM_DIM_EDIT
 70
     0
  0
APPID
  5
5BE
330
9
100
AcDbSymbolTableRecord
100
AcDbRegAppTableRecord
  2
AMDT_DM_ADJ
 70
     0
  0
APPID
  5
68E
330
9
100
AcDbSymbolTableRecord
100
AcDbRegAppTableRecord
  2
ACAECLAYERSTANDARD
 70
     0
  0
ENDTAB
  0
TABLE
  2
DIMSTYLE
  5
A
330
0
100
AcDbSymbolTable
 70
     1
  0
DIMSTYLE
105
27
330
A
100
AcDbSymbolTableRecord
100
AcDbDimStyleTableRecord
  2
ISO-25
 70
     0
  3

  4

  5

  6

  7

 40
1.0
 41
2.5
 42
0.625
 43
3.75
 44
1.25
 45
0.0
 46
0.0
 47
0.0
 48
0.0
140
2.5
141
2.5
142
0.0
143
0.03937007874016
144
1.0
145
0.0
146
1.0
147
0.625
 71
     0
 72
     0
 73
     0
 74
     0
 75
     0
 76
     0
 77
     1
 78
     8
170
     0
171
     3
172
     1
173
     0
174
     0
175
     0
176
     0
177
     0
178
     0
270
     2
271
     2
272
     2
273
     2
274
     3
340
11
275
     0
280
     0
281
     0
282
     0
283
     0
284
     8
285
     0
286
     0
287
     3
288
     0
  0
ENDTAB
  0
TABLE
  2
BLOCK_RECORD
  5
1
330
0
100
AcDbSymbolTable
 70
     1
  0
BLOCK_RECORD
  5
1F
102
{ACAD_XDICTIONARY
360
438
102
}
330
1
100
AcDbSymbolTableRecord
100
AcDbBlockTableRecord
  2
*MODEL_SPACE
  0
BLOCK_RECORD
  5
23
102
{ACAD_XDICTIONARY
360
43A
102
}
330
1
100
AcDbSymbolTableRecord
100
AcDbBlockTableRecord
  2
*PAPER_SPACE
  0
BLOCK_RECORD
  5
5AC
330
1
100
AcDbSymbolTableRecord
100
AcDbBlockTableRecord
  2
*U0
  0
ENDTAB
  0
ENDSEC
  0
SECTION
  2
BLOCKS
  0
BLOCK
  5
20
330
1F
100
AcDbEntity
  8
0
100
AcDbBlockBegin
  2
*MODEL_SPACE
 70
     0
 10
0.0
 20
0.0
 30
0.0
  3
*MODEL_SPACE
  1

  0
ENDBLK
  5
21
330
1F
100
AcDbEntity
  8
0
100
AcDbBlockEnd
  0
BLOCK
  5
24
330
23
100
AcDbEntity
 67
     1
  8
0
100
AcDbBlockBegin
  2
*PAPER_SPACE
 70
     0
 10
0.0
 20
0.0
 30
0.0
  3
*PAPER_SPACE
  1

  0
ENDBLK
  5
25
330
23
100
AcDbEntity
 67
     1
  8
0
100
AcDbBlockEnd
  0
BLOCK
  5
5AD
330
5AC
100
AcDbEntity
  8
0
100
AcDbBlockBegin
  2
*U0
 70
     1
 10
0.0
 20
0.0
 30
0.0
  3
*U0
  1

  0
ENDBLK
  5
5AE
330
5AC
100
AcDbEntity
  8
0
100
AcDbBlockEnd
  0
ENDSEC
  0
SECTION
  2
ENTITIES
  0
MTEXT
  5
5EB
330
1F
100
AcDbEntity
  8
19
100
AcDbMText
 10
390.0226118341453
 20
13.38102403187633
 30
0.0
 40
5.0
 41
70.16
 71
     1
 72
     5
  1
HEL12\PFR-HEL-30K
  7
STANDARD1X3
1001
ACAD
1000
MTEXTBEGIN
1070
    73
1070
     1
1070
    44
1040
1.0
1070
    74
1070
     0
1000
MTEXTEND
1000
MTEXTBEGIN
1070
    73
1070
     1
1070
    44
1040
1.0
1070
    74
1070
     0
1000
MTEXTEND
  0
LINE
  5
7A5
330
1F
100
AcDbEntity
  8
10
100
AcDbLine
 10
249.5330721797119
 20
24.8999999999989
 30
0.0
 11
249.5330721797131
 21
75.0999999999999
 31
0.0
  0
LINE
  5
7A6
330
1F
100
AcDbEntity
  8
10
100
AcDbLine
 10
379.533072179712
 20
75.0999999999999
 30
0.0
 11
379.533072179712
 21
24.8999999999989
 31
0.0
  0
LINE
  5
7A7
330
1F
100
AcDbEntity
  8
16
 48
12.0
100
AcDbLine
 10
314.533072179712
 20
102.0380087881129
 30
0.0
 11
314.533072179712
 21
-1.961991211887037
 31
0.0
  0
LINE
  5
7A8
330
1F
100
AcDbEntity
  8
10
100
AcDbLine
 10
280.3330721797129
 20
1.999999999999943
 30
0.0
 11
280.3330721797129
 21
97.6999999999988
 31
0.0
  0
LINE
  5
7A9
330
1F
100
AcDbEntity
  8
10
100
AcDbLine
 10
351.0330721797098
 20
3.899999999998896
 30
0.0
 11
351.0330721797098
 21
96.09999999999979
 31
0.0
  0
LINE
  5
7AA
330
1F
100
AcDbEntity
  8
16
 48
7.0
100
AcDbLine
 10
57.0
 20
-5.453054298642996
 30
0.0
 11
57.0
 21
106.2999999999997
 31
0.0
  0
LINE
  5
7AB
330
1F
100
AcDbEntity
  8
10
100
AcDbLine
 10
114.0
 20
99.99999999999978
 30
0.0
 11
114.0
 21
0.0
 31
0.0
  0
LINE
  5
7AC
330
1F
100
AcDbEntity
  8
10
100
AcDbLine
 10
0.0
 20
0.0
 30
0.0
 11
0.0
 21
99.99999999999978
 31
0.0
  0
LINE
  5
7AD
330
1F
100
AcDbEntity
  8
10
100
AcDbLine
 10
89.50000000000001
 20
76.99999999999987
 30
0.0
 11
89.50000000000001
 21
34.26873180567935
 31
0.0
  0
LINE
  5
7AE
330
1F
100
AcDbEntity
  8
10
100
AcDbLine
 10
89.50000000000001
 20
27.79077017661052
 30
0.0
 11
89.50000000000001
 21
22.99999999999994
 31
0.0
  0
LINE
  5
7AF
330
1F
100
AcDbEntity
  8
10
100
AcDbLine
 10
24.5
 20
22.99999999999994
 30
0.0
 11
24.49999999999909
 21
76.99999999999987
 31
0.0
  0
LINE
  5
7B0
330
1F
100
AcDbEntity
  8
10
100
AcDbLine
 10
86.5
 20
72.9999999999999
 30
0.0
 11
86.5
 21
37.91398407994006
 31
0.0
  0
LINE
  5
7B1
330
1F
100
AcDbEntity
  8
10
100
AcDbLine
 10
27.5
 20
26.99999999999994
 30
0.0
 11
27.5
 21
72.9999999999999
 31
0.0
  0
LINE
  5
7B2
330
1F
100
AcDbEntity
  8
10
100
AcDbLine
 10
25.70000000000003
 20
75.0999999999999
 30
0.0
 11
25.70000000000003
 21
24.8999999999989
 31
0.0
  0
LINE
  5
7B3
330
1F
100
AcDbEntity
  8
10
100
AcDbLine
 10
88.29999999999996
 20
75.0999999999999
 30
0.0
 11
88.29999999999996
 21
36.26536596156631
 31
0.0
  0
LINE
  5
7B4
330
1F
100
AcDbEntity
  8
10
100
AcDbLine
 10
88.29999999999996
 20
25.79413602072428
 30
0.0
 11
88.29999999999996
 21
24.8999999999989
 31
0.0
  0
LINE
  5
7B5
330
1F
100
AcDbEntity
  8
10
100
AcDbLine
 10
348.73307217971
 20
97.93485426609379
 30
0.0
 11
348.73307217971
 21
2.299999999999954
 31
0.0
  0
LINE
  5
7B6
330
1F
100
AcDbEntity
  8
10
100
AcDbLine
 10
114.0
 20
1.599999999999909
 30
0.0
 11
0.0
 21
1.599999999999909
 31
0.0
  0
LINE
  5
7B7
330
1F
100
AcDbEntity
  8
10
100
AcDbLine
 10
114.0
 20
0.0
 30
0.0
 11
0.0
 21
0.0
 31
0.0
  0
LINE
  5
7B8
330
1F
100
AcDbEntity
  8
10
100
AcDbLine
 10
87.5
 20
21.0
 30
0.0
 11
26.5
 21
21.0
 31
0.0
  0
LINE
  5
7B9
330
1F
100
AcDbEntity
  8
10
100
AcDbLine
 10
25.70000000000003
 20
24.8999999999989
 30
0.0
 11
55.5999999999999
 21
24.8999999999989
 31
0.0
  0
LINE
  5
7BA
330
1F
100
AcDbEntity
  8
10
100
AcDbLine
 10
27.5
 20
26.99999999999994
 30
0.0
 11
79.84972191601105
 21
26.99999999999994
 31
0.0
  0
LINE
  5
7BB
330
1F
100
AcDbEntity
  8
12
 48
5.0
100
AcDbLine
 10
39.38985678940389
 20
-4.0
 30
0.0
 11
39.38985678940389
 21
5.999999999999943
 31
0.0
  0
LINE
  5
7BC
330
1F
100
AcDbEntity
  8
10
100
AcDbLine
 10
35.38985678940389
 20
0.0
 30
0.0
 11
35.38985678940389
 21
1.599999999999909
 31
0.0
  0
LINE
  5
7BD
330
1F
100
AcDbEntity
  8
10
100
AcDbLine
 10
43.38985678940388
 20
0.0
 30
0.0
 11
43.38985678940388
 21
1.599999999999909
 31
0.0
  0
LINE
  5
7BE
330
1F
100
AcDbEntity
  8
12
 48
5.0
100
AcDbLine
 10
13.5
 20
7.499999999999943
 30
0.0
 11
13.5
 21
23.49999999999994
 31
0.0
  0
LINE
  5
7BF
330
1F
100
AcDbEntity
  8
12
 48
5.0
100
AcDbLine
 10
21.49999999999999
 20
15.49999999999994
 30
0.0
 11
5.5
 21
15.49999999999994
 31
0.0
  0
ARC
  5
7C0
330
1F
100
AcDbEntity
  8
10
100
AcDbCircle
 10
26.5
 20
22.99999999999994
 30
0.0
 40
2.0
100
AcDbArc
 50
180.0
 51
270.0
  0
LINE
  5
7C1
330
1F
100
AcDbEntity
  8
10
100
AcDbLine
 10
280.3330721797129
 20
2.299999999999954
 30
0.0
 11
349.0610180741009
 21
2.299999999999954
 31
0.0
  0
LINE
  5
7C2
330
1F
100
AcDbEntity
  8
12
 48
7.0
100
AcDbLine
 10
269.9126047132609
 20
15.49999999999994
 30
0.0
 11
366.1794146174269
 21
15.49999999999994
 31
0.0
  0
LINE
  5
7C3
330
1F
100
AcDbEntity
  8
12
 48
5.0
100
AcDbLine
 10
268.0330721797119
 20
-4.000000000001023
 30
0.0
 11
268.0330721797119
 21
5.999999999999943
 31
0.0
  0
LINE
  5
7C4
330
1F
100
AcDbEntity
  8
12
 48
5.0
100
AcDbLine
 10
79.84972191601105
 20
-4.0
 30
0.0
 11
79.84972191601105
 21
5.999999999999943
 31
0.0
  0
LINE
  5
7C5
330
1F
100
AcDbEntity
  8
10
100
AcDbLine
 10
75.84972191601105
 20
0.0
 30
0.0
 11
75.84972191601105
 21
1.599999999999909
 31
0.0
  0
LINE
  5
7C6
330
1F
100
AcDbEntity
  8
10
100
AcDbLine
 10
83.84972191601196
 20
0.0
 30
0.0
 11
83.84972191601196
 21
1.599999999999909
 31
0.0
  0
LINE
  5
7C7
330
1F
100
AcDbEntity
  8
10
100
AcDbLine
 10
276.4330721797118
 20
2.299999999999954
 30
0.0
 11
252.0330721797119
 21
2.299999999999954
 31
0.0
  0
LINE
  5
7C8
330
1F
100
AcDbEntity
  8
10
100
AcDbLine
 10
252.0330721797119
 20
0.0
 30
0.0
 11
278.0330721797131
 21
0.0
 31
0.0
  0
LINE
  5
7C9
330
1F
100
AcDbEntity
  8
10
100
AcDbLine
 10
252.0330721797119
 20
2.299999999999954
 30
0.0
 11
252.0330721797119
 21
0.0
 31
0.0
  0
ARC
  5
7CA
330
1F
100
AcDbEntity
  8
10
100
AcDbCircle
 10
278.0330721797131
 20
2.299999999999954
 30
0.0
 40
2.299999999999998
100
AcDbArc
 50
270.0
 51
0.0
  0
ARC
  5
7CB
330
1F
100
AcDbEntity
  8
10
100
AcDbCircle
 10
276.4330721797118
 20
3.899999999998896
 30
0.0
 40
1.6
100
AcDbArc
 50
270.0
 51
0.0
  0
LINE
  5
7CC
330
1F
100
AcDbEntity
  8
10
100
AcDbLine
 10
58.4000000000001
 20
24.8999999999989
 30
0.0
 11
79.84972191601105
 21
24.8999999999989
 31
0.0
  0
LINE
  5
7CD
330
1F
100
AcDbEntity
  8
10
100
AcDbLine
 10
87.45720836412898
 20
24.8999999999989
 30
0.0
 11
88.29999999999996
 21
24.8999999999989
 31
0.0
  0
LINE
  5
7CE
330
1F
100
AcDbEntity
  8
10
100
AcDbLine
 10
55.5999999999999
 20
24.8999999999989
 30
0.0
 11
55.5999999999999
 21
26.99999999999994
 31
0.0
  0
LINE
  5
7CF
330
1F
100
AcDbEntity
  8
10
100
AcDbLine
 10
58.4000000000001
 20
26.99999999999994
 30
0.0
 11
58.4000000000001
 21
24.8999999999989
 31
0.0
  0
LINE
  5
7D0
330
1F
100
AcDbEntity
  8
12
 48
5.0
100
AcDbLine
 10
100.5
 20
7.499999999999943
 30
0.0
 11
100.5
 21
23.49999999999994
 31
0.0
  0
LINE
  5
7D1
330
1F
100
AcDbEntity
  8
12
 48
5.0
100
AcDbLine
 10
108.4999999999999
 20
15.49999999999994
 30
0.0
 11
92.5
 21
15.49999999999994
 31
0.0
  0
ARC
  5
7D2
330
1F
100
AcDbEntity
  8
10
100
AcDbCircle
 10
87.5
 20
22.99999999999994
 30
0.0
 40
2.0
100
AcDbArc
 50
270.0
 51
0.0
  0
LINE
  5
7D3
330
1F
100
AcDbEntity
  8
10
100
AcDbLine
 10
249.5330721797131
 20
24.8999999999989
 30
0.0
 11
278.0330721797131
 21
24.8999999999989
 31
0.0
  0
LINE
  5
7D4
330
1F
100
AcDbEntity
  8
12
 48
5.0
100
AcDbLine
 10
361.0330721797111
 20
-4.000000000001023
 30
0.0
 11
361.0330721797111
 21
5.999999999999943
 31
0.0
  0
LINE
  5
7D5
330
1F
100
AcDbEntity
  8
10
100
AcDbLine
 10
351.0330721797098
 20
0.0
 30
0.0
 11
377.033072179712
 21
0.0
 31
0.0
  0
LINE
  5
7D6
330
1F
100
AcDbEntity
  8
10
100
AcDbLine
 10
377.033072179712
 20
2.299999999999954
 30
0.0
 11
352.63307217971
 21
2.299999999999954
 31
0.0
  0
ARC
  5
7D7
330
1F
100
AcDbEntity
  8
10
100
AcDbCircle
 10
351.0330721797098
 20
2.299999999999954
 30
0.0
 40
2.299999999999998
100
AcDbArc
 50
179.9999999999966
 51
270.0
  0
ARC
  5
7D8
330
1F
100
AcDbEntity
  8
10
100
AcDbCircle
 10
352.63307217971
 20
3.899999999998896
 30
0.0
 40
1.6
100
AcDbArc
 50
180.0
 51
270.0
  0
LINE
  5
7D9
330
1F
100
AcDbEntity
  8
10
100
AcDbLine
 10
377.033072179712
 20
0.0
 30
0.0
 11
377.033072179712
 21
2.299999999999954
 31
0.0
  0
LINE
  5
7DA
330
1F
100
AcDbEntity
  8
10
100
AcDbLine
 10
351.0330721797098
 20
24.8999999999989
 30
0.0
 11
379.533072179712
 21
24.8999999999989
 31
0.0
  0
LINE
  5
7DB
330
1F
100
AcDbEntity
  8
10
100
AcDbLine
 10
0.0
 20
97.6999999999988
 30
0.0
 11
114.0
 21
97.6999999999988
 31
0.0
  0
LINE
  5
7DC
330
1F
100
AcDbEntity
  8
10
100
AcDbLine
 10
26.5
 20
78.99999999999976
 30
0.0
 11
87.5
 21
78.99999999999976
 31
0.0
  0
LINE
  5
7DD
330
1F
100
AcDbEntity
  8
10
100
AcDbLine
 10
0.0
 20
99.99999999999978
 30
0.0
 11
114.0
 21
99.99999999999978
 31
0.0
  0
LINE
  5
7DE
330
1F
100
AcDbEntity
  8
12
 48
5.0
100
AcDbLine
 10
13.5
 20
76.49999999999976
 30
0.0
 11
13.5
 21
92.49999999999976
 31
0.0
  0
ARC
  5
7DF
330
1F
100
AcDbEntity
  8
10
100
AcDbCircle
 10
26.5
 20
76.99999999999987
 30
0.0
 40
2.0
100
AcDbArc
 50
90.0
 51
180.0
  0
LINE
  5
7E0
330
1F
100
AcDbEntity
  8
12
 48
5.0
100
AcDbLine
 10
21.49999999999999
 20
84.49999999999976
 30
0.0
 11
5.5
 21
84.49999999999976
 31
0.0
  0
LINE
  5
7E1
330
1F
100
AcDbEntity
  8
12
 48
12.0
100
AcDbLine
 10
269.8014101176738
 20
84.49999999999976
 30
0.0
 11
365.980101608731
 21
84.49999999999976
 31
0.0
  0
LINE
  5
7E2
330
1F
100
AcDbEntity
  8
10
100
AcDbLine
 10
280.3330721797129
 20
96.99999999999889
 30
0.0
 11
348.73307217971
 21
96.99999999999977
 31
0.0
  0
LINE
  5
7E3
330
1F
100
AcDbEntity
  8
10
100
AcDbLine
 10
27.5
 20
72.9999999999999
 30
0.0
 11
33.28707204089392
 21
72.9999999999999
 31
0.0
  0
LINE
  5
7E4
330
1F
100
AcDbEntity
  8
10
100
AcDbLine
 10
39.38985678940389
 20
72.9999999999999
 30
0.0
 11
86.5
 21
72.9999999999999
 31
0.0
  0
LINE
  5
7E5
330
1F
100
AcDbEntity
  8
10
100
AcDbLine
 10
58.4000000000001
 20
75.0999999999999
 30
0.0
 11
88.29999999999996
 21
75.0999999999999
 31
0.0
  0
LINE
  5
7E6
330
1F
100
AcDbEntity
  8
10
100
AcDbLine
 10
25.70000000000003
 20
75.0999999999999
 30
0.0
 11
37.38985678940479
 21
75.0999999999999
 31
0.0
  0
LINE
  5
7E7
330
1F
100
AcDbEntity
  8
10
100
AcDbLine
 10
39.38985678940389
 20
75.0999999999999
 30
0.0
 11
55.5999999999999
 21
75.0999999999999
 31
0.0
  0
LINE
  5
7E8
330
1F
100
AcDbEntity
  8
10
100
AcDbLine
 10
55.5999999999999
 20
75.0999999999999
 30
0.0
 11
55.5999999999999
 21
72.9999999999999
 31
0.0
  0
LINE
  5
7E9
330
1F
100
AcDbEntity
  8
10
100
AcDbLine
 10
58.4000000000001
 20
75.0999999999999
 30
0.0
 11
58.4000000000001
 21
72.9999999999999
 31
0.0
  0
LINE
  5
7EA
330
1F
100
AcDbEntity
  8
12
 48
5.0
100
AcDbLine
 10
100.5
 20
92.85779564106224
 30
0.0
 11
100.5
 21
76.14220435893741
 31
0.0
  0
ARC
  5
7EB
330
1F
100
AcDbEntity
  8
10
100
AcDbCircle
 10
87.5
 20
76.99999999999987
 30
0.0
 40
2.0
100
AcDbArc
 50
0.0
 51
90.0
  0
LINE
  5
7EC
330
1F
100
AcDbEntity
  8
12
 48
5.0
100
AcDbLine
 10
92.5
 20
84.49999999999976
 30
0.0
 11
108.4999999999999
 21
84.49999999999976
 31
0.0
  0
LINE
  5
7ED
330
1F
100
AcDbEntity
  8
10
100
AcDbLine
 10
278.0330721797131
 20
96.09999999999979
 30
0.0
 11
278.0330721797099
 21
3.899999999998896
 31
0.0
  0
LINE
  5
7EE
330
1F
100
AcDbEntity
  8
10
100
AcDbLine
 10
249.5330721797131
 20
75.0999999999999
 30
0.0
 11
278.0330721797131
 21
75.0999999999999
 31
0.0
  0
LINE
  5
7EF
330
1F
100
AcDbEntity
  8
10
100
AcDbLine
 10
260.3330721797119
 20
97.6999999999988
 30
0.0
 11
276.4330721797118
 21
97.6999999999988
 31
0.0
  0
LINE
  5
7F0
330
1F
100
AcDbEntity
  8
10
100
AcDbLine
 10
260.3330721797119
 20
99.99999999999978
 30
0.0
 11
278.0330721797131
 21
99.99999999999978
 31
0.0
  0
LINE
  5
7F1
330
1F
100
AcDbEntity
  8
10
100
AcDbLine
 10
260.3330721797119
 20
99.99999999999978
 30
0.0
 11
260.3330721797119
 21
97.6999999999988
 31
0.0
  0
ARC
  5
7F2
330
1F
100
AcDbEntity
  8
10
100
AcDbCircle
 10
278.0330721797131
 20
97.6999999999988
 30
0.0
 40
2.299999999999998
100
AcDbArc
 50
0.0
 51
90.0
  0
ARC
  5
7F3
330
1F
100
AcDbEntity
  8
10
100
AcDbCircle
 10
276.4330721797118
 20
96.09999999999979
 30
0.0
 40
1.6
100
AcDbArc
 50
0.0
 51
90.0
  0
LINE
  5
7F7
330
1F
100
AcDbEntity
  8
10
100
AcDbLine
 10
351.0330721797098
 20
75.0999999999999
 30
0.0
 11
379.533072179712
 21
75.0999999999999
 31
0.0
  0
LINE
  5
7F8
330
1F
100
AcDbEntity
  8
10
100
AcDbLine
 10
352.63307217971
 20
97.6999999999988
 30
0.0
 11
368.7330721797108
 21
97.6999999999988
 31
0.0
  0
LINE
  5
7F9
330
1F
100
AcDbEntity
  8
10
100
AcDbLine
 10
351.0330721797098
 20
99.99999999999978
 30
0.0
 11
368.7330721797108
 21
99.99999999999978
 31
0.0
  0
ARC
  5
7FA
330
1F
100
AcDbEntity
  8
10
100
AcDbCircle
 10
351.0330721797098
 20
97.6999999999988
 30
0.0
 40
2.299999999999998
100
AcDbArc
 50
90.0
 51
180.0
  0
ARC
  5
7FB
330
1F
100
AcDbEntity
  8
10
100
AcDbCircle
 10
352.63307217971
 20
96.09999999999979
 30
0.0
 40
1.6
100
AcDbArc
 50
90.0
 51
180.0
  0
LINE
  5
7FC
330
1F
100
AcDbEntity
  8
10
100
AcDbLine
 10
368.7330721797108
 20
97.6999999999988
 30
0.0
 11
368.7330721797108
 21
99.99999999999978
 31
0.0
  0
LINE
  5
7FD
330
1F
100
AcDbEntity
  8
10
100
AcDbLine
 10
278.0330721797099
 20
20.3999999999998
 30
0.0
 11
278.0330721797099
 21
10.59999999999978
 31
0.0
  0
LINE
  5
7FE
330
1F
100
AcDbEntity
  8
10
100
AcDbLine
 10
277.5423244508989
 20
21.24999999999976
 30
0.0
 11
273.5238199085209
 21
21.24999999999976
 31
0.0
  0
LINE
  5
7FF
330
1F
100
AcDbEntity
  8
10
100
AcDbLine
 10
277.5345302223128
 20
18.34999999999979
 30
0.0
 11
273.5250893268469
 21
18.34999999999979
 31
0.0
  0
LINE
  5
800
330
1F
100
AcDbEntity
  8
10
100
AcDbLine
 10
278.0330721797099
 20
20.3999999999998
 30
0.0
 11
277.5423244508989
 21
21.24999999999976
 31
0.0
  0
ARC
  5
801
330
1F
100
AcDbEntity
  8
10
100
AcDbCircle
 10
277.1330721797101
 20
17.54449926131029
 30
0.0
 40
0.9000000000000909
100
AcDbArc
 50
359.9999999999967
 51
63.50853522464699
  0
ARC
  5
802
330
1F
100
AcDbEntity
  8
10
100
AcDbCircle
 10
277.1330721797101
 20
19.15550073868928
 30
0.0
 40
0.9
100
AcDbArc
 50
296.491464775353
 51
0.0
  0
LINE
  5
803
330
1F
100
AcDbEntity
  8
10
100
AcDbLine
 10
273.0330721797098
 20
20.3999999999998
 30
0.0
 11
273.5238199085209
 21
21.24999999999976
 31
0.0
  0
ARC
  5
804
330
1F
100
AcDbEntity
  8
10
100
AcDbCircle
 10
273.93307217971
 20
17.54778432340788
 30
0.0
 40
0.900000000000001
100
AcDbArc
 50
116.9565244512742
 51
180.0
  0
ARC
  5
805
330
1F
100
AcDbEntity
  8
10
100
AcDbCircle
 10
273.93307217971
 20
19.15221567659171
 30
0.0
 40
0.9
100
AcDbArc
 50
180.0
 51
243.0434755487257
  0
LINE
  5
806
330
1F
100
AcDbEntity
  8
10
100
AcDbLine
 10
273.5238199085209
 20
9.749999999999772
 30
0.0
 11
277.5423244508989
 21
9.749999999999772
 31
0.0
  0
LINE
  5
807
330
1F
100
AcDbEntity
  8
10
100
AcDbLine
 10
273.5250893268469
 20
12.6499999999998
 30
0.0
 11
277.5345302223128
 21
12.6499999999998
 31
0.0
  0
LINE
  5
808
330
1F
100
AcDbEntity
  8
10
100
AcDbLine
 10
278.0330721797099
 20
10.59999999999978
 30
0.0
 11
277.5423244508989
 21
9.749999999999772
 31
0.0
  0
ARC
  5
809
330
1F
100
AcDbEntity
  8
10
100
AcDbCircle
 10
277.1330721797101
 20
11.84449926131031
 30
0.0
 40
0.9
100
AcDbArc
 50
0.0
 51
63.50853522464699
  0
ARC
  5
80A
330
1F
100
AcDbEntity
  8
10
100
AcDbCircle
 10
277.1330721797101
 20
13.45550073868928
 30
0.0
 40
0.900000000000004
100
AcDbArc
 50
296.491464775353
 51
0.0
  0
LINE
  5
80B
330
1F
100
AcDbEntity
  8
10
100
AcDbLine
 10
273.0330721797098
 20
10.59999999999978
 30
0.0
 11
273.5238199085209
 21
9.749999999999772
 31
0.0
  0
ARC
  5
80C
330
1F
100
AcDbEntity
  8
10
100
AcDbCircle
 10
273.93307217971
 20
11.84778432340795
 30
0.0
 40
0.9000000000000071
100
AcDbArc
 50
116.9565244512742
 51
180.0
  0
ARC
  5
80D
330
1F
100
AcDbEntity
  8
10
100
AcDbCircle
 10
273.93307217971
 20
13.45221567659172
 30
0.0
 40
0.9
100
AcDbArc
 50
180.0
 51
243.0434755487257
  0
LINE
  5
80E
330
1F
100
AcDbEntity
  8
10
100
AcDbLine
 10
362.0330710104348
 20
12.49999999999994
 30
0.0
 11
362.0330710104348
 21
18.49999999999994
 31
0.0
  0
LINE
  5
80F
330
1F
100
AcDbEntity
  8
10
100
AcDbLine
 10
362.0330710104348
 20
12.49999999999994
 30
0.0
 11
357.5330721797111
 21
12.49999999999994
 31
0.0
  0
LINE
  5
810
330
1F
100
AcDbEntity
  8
10
100
AcDbLine
 10
352.5330721797111
 20
20.3850448571028
 30
0.0
 11
352.5330721797111
 21
10.58504485710284
 31
0.0
  0
LINE
  5
811
330
1F
100
AcDbEntity
  8
10
100
AcDbLine
 10
357.5330721797111
 20
10.58504485710284
 30
0.0
 11
357.5330721797111
 21
20.3850448571028
 31
0.0
  0
LINE
  5
812
330
1F
100
AcDbEntity
  8
10
100
AcDbLine
 10
353.023819908522
 20
9.735044857102707
 30
0.0
 11
357.0423244508999
 21
9.735044857102707
 31
0.0
  0
LINE
  5
813
330
1F
100
AcDbEntity
  8
10
100
AcDbLine
 10
353.0316141371078
 20
12.63504485710279
 30
0.0
 11
357.0410550325738
 21
12.63504485710279
 31
0.0
  0
LINE
  5
814
330
1F
100
AcDbEntity
  8
10
100
AcDbLine
 10
352.5330721797111
 20
10.58504485710284
 30
0.0
 11
353.023819908522
 21
9.735044857102707
 31
0.0
  0
ARC
  5
815
330
1F
100
AcDbEntity
  8
10
100
AcDbCircle
 10
353.4330721797108
 20
13.44054559579228
 30
0.0
 40
0.9
100
AcDbArc
 50
180.0
 51
243.508535224647
  0
ARC
  5
816
330
1F
100
AcDbEntity
  8
10
100
AcDbCircle
 10
353.4330721797108
 20
11.82954411841318
 30
0.0
 40
0.9
100
AcDbArc
 50
116.4914647753529
 51
180.0
  0
LINE
  5
817
330
1F
100
AcDbEntity
  8
10
100
AcDbLine
 10
357.5330721797111
 20
10.58504485710284
 30
0.0
 11
357.0423244508999
 21
9.735044857102707
 31
0.0
  0
ARC
  5
818
330
1F
100
AcDbEntity
  8
10
100
AcDbCircle
 10
356.633072179711
 20
13.43726053369459
 30
0.0
 40
0.900000000000001
100
AcDbArc
 50
296.9565244512741
 51
0.0
  0
ARC
  5
819
330
1F
100
AcDbEntity
  8
10
100
AcDbCircle
 10
356.633072179711
 20
11.83282918051088
 30
0.0
 40
0.9
100
AcDbArc
 50
0.0
 51
63.0434755487257
  0
LINE
  5
81A
330
1F
100
AcDbEntity
  8
10
100
AcDbLine
 10
357.0423244508999
 20
21.23504485710282
 30
0.0
 11
353.023819908522
 21
21.23504485710282
 31
0.0
  0
LINE
  5
81B
330
1F
100
AcDbEntity
  8
10
100
AcDbLine
 10
357.0410550325738
 20
18.33504485710284
 30
0.0
 11
353.0316141371078
 21
18.33504485710284
 31
0.0
  0
LINE
  5
81C
330
1F
100
AcDbEntity
  8
10
100
AcDbLine
 10
352.5330721797111
 20
20.3850448571028
 30
0.0
 11
353.023819908522
 21
21.23504485710282
 31
0.0
  0
ARC
  5
81D
330
1F
100
AcDbEntity
  8
10
100
AcDbCircle
 10
353.4330721797108
 20
19.14054559579232
 30
0.0
 40
0.9
100
AcDbArc
 50
180.0
 51
243.508535224647
  0
ARC
  5
81E
330
1F
100
AcDbEntity
  8
10
100
AcDbCircle
 10
353.4330721797108
 20
17.52954411841324
 30
0.0
 40
0.9000000000000435
100
AcDbArc
 50
116.4914647753529
 51
180.0
  0
LINE
  5
81F
330
1F
100
AcDbEntity
  8
10
100
AcDbLine
 10
357.5330721797111
 20
20.3850448571028
 30
0.0
 11
357.0423244508999
 21
21.23504485710282
 31
0.0
  0
ARC
  5
820
330
1F
100
AcDbEntity
  8
10
100
AcDbCircle
 10
356.633072179711
 20
19.1372605336947
 30
0.0
 40
0.9000000000000071
100
AcDbArc
 50
296.9565244512741
 51
0.0
  0
ARC
  5
821
330
1F
100
AcDbEntity
  8
10
100
AcDbCircle
 10
356.633072179711
 20
17.5328291805107
 30
0.0
 40
0.9000000000000909
100
AcDbArc
 50
0.0000000000130276
 51
63.04347554874028
  0
LINE
  5
822
330
1F
100
AcDbEntity
  8
10
100
AcDbLine
 10
352.5330721797111
 20
21.23504485710282
 30
0.0
 11
352.5330721797111
 21
9.735044857102707
 31
0.0
  0
LINE
  5
823
330
1F
100
AcDbEntity
  8
10
100
AcDbLine
 10
351.0330721797111
 20
9.735044857102707
 30
0.0
 11
351.0330721797111
 21
21.23504485710282
 31
0.0
  0
LINE
  5
824
330
1F
100
AcDbEntity
  8
10
100
AcDbLine
 10
352.5330721797111
 20
21.23504485710282
 30
0.0
 11
351.0330721797111
 21
21.23504485710282
 31
0.0
  0
LINE
  5
825
330
1F
100
AcDbEntity
  8
10
100
AcDbLine
 10
352.5330721797111
 20
15.64191529286927
 30
0.0
 11
351.0330721797111
 21
17.14191529286927
 31
0.0
  0
LINE
  5
826
330
1F
100
AcDbEntity
  8
10
100
AcDbLine
 10
351.0330721797111
 20
15.76058745305067
 30
0.0
 11
352.5330721797111
 21
14.26058745305066
 31
0.0
  0
LINE
  5
827
330
1F
100
AcDbEntity
  8
10
100
AcDbLine
 10
351.0330721797111
 20
9.735044857102707
 30
0.0
 11
352.5330721797111
 21
9.735044857102707
 31
0.0
  0
LINE
  5
828
330
1F
100
AcDbEntity
  8
10
100
AcDbLine
 10
357.5330721797111
 20
18.49999999999994
 30
0.0
 11
362.0330710104348
 21
18.49999999999994
 31
0.0
  0
LINE
  5
829
330
1F
100
AcDbEntity
  8
10
100
AcDbLine
 10
273.0330721797098
 20
20.3999999999998
 30
0.0
 11
273.0330721797098
 21
10.59999999999978
 31
0.0
  0
LINE
  5
82A
330
1F
100
AcDbEntity
  8
10
100
AcDbLine
 10
362.0330710104368
 20
81.49999999999989
 30
0.0
 11
357.5330721797131
 21
81.49999999999989
 31
0.0
  0
LINE
  5
82B
330
1F
100
AcDbEntity
  8
10
100
AcDbLine
 10
357.5330721797131
 20
87.49999999999989
 30
0.0
 11
362.0330710104368
 21
87.49999999999989
 31
0.0
  0
LINE
  5
82C
330
1F
100
AcDbEntity
  8
10
100
AcDbLine
 10
362.0330710104368
 20
81.49999999999989
 30
0.0
 11
362.0330710104368
 21
87.49999999999989
 31
0.0
  0
LINE
  5
82D
330
1F
100
AcDbEntity
  8
10
100
AcDbLine
 10
352.5330721797131
 20
89.3850448571028
 30
0.0
 11
352.5330721797131
 21
79.58504485710275
 31
0.0
  0
LINE
  5
82E
330
1F
100
AcDbEntity
  8
10
100
AcDbLine
 10
357.5330721797131
 20
79.58504485710275
 30
0.0
 11
357.5330721797131
 21
89.3850448571028
 31
0.0
  0
LINE
  5
82F
330
1F
100
AcDbEntity
  8
10
100
AcDbLine
 10
353.0238199085237
 20
78.73504485710281
 30
0.0
 11
357.042324450902
 21
78.73504485710281
 31
0.0
  0
LINE
  5
830
330
1F
100
AcDbEntity
  8
10
100
AcDbLine
 10
353.0316141371098
 20
81.6350448571028
 30
0.0
 11
357.0410550325759
 21
81.6350448571028
 31
0.0
  0
LINE
  5
831
330
1F
100
AcDbEntity
  8
10
100
AcDbLine
 10
352.5330721797131
 20
79.58504485710275
 30
0.0
 11
353.0238199085237
 21
78.73504485710281
 31
0.0
  0
ARC
  5
832
330
1F
100
AcDbEntity
  8
10
100
AcDbCircle
 10
353.4330721797132
 20
82.44054559579234
 30
0.0
 40
0.9
100
AcDbArc
 50
180.0
 51
243.508535224647
  0
ARC
  5
833
330
1F
100
AcDbEntity
  8
10
100
AcDbCircle
 10
353.4330721797132
 20
80.82954411841326
 30
0.0
 40
0.9
100
AcDbArc
 50
116.4914647753529
 51
180.0
  0
LINE
  5
834
330
1F
100
AcDbEntity
  8
10
100
AcDbLine
 10
357.5330721797131
 20
79.58504485710275
 30
0.0
 11
357.042324450902
 21
78.73504485710281
 31
0.0
  0
ARC
  5
835
330
1F
100
AcDbEntity
  8
10
100
AcDbCircle
 10
356.6330721797129
 20
82.43726053369465
 30
0.0
 40
0.900000000000001
100
AcDbArc
 50
296.9565244512741
 51
0.0
  0
ARC
  5
836
330
1F
100
AcDbEntity
  8
10
100
AcDbCircle
 10
356.6330721797129
 20
80.83282918051088
 30
0.0
 40
0.9
100
AcDbArc
 50
0.0
 51
63.0434755487257
  0
LINE
  5
837
330
1F
100
AcDbEntity
  8
10
100
AcDbLine
 10
357.042324450902
 20
90.23504485710279
 30
0.0
 11
353.0238199085237
 21
90.23504485710279
 31
0.0
  0
LINE
  5
838
330
1F
100
AcDbEntity
  8
10
100
AcDbLine
 10
357.0410550325759
 20
87.33504485710275
 30
0.0
 11
353.0316141371098
 21
87.33504485710275
 31
0.0
  0
LINE
  5
839
330
1F
100
AcDbEntity
  8
10
100
AcDbLine
 10
352.5330721797131
 20
89.3850448571028
 30
0.0
 11
353.0238199085237
 21
90.23504485710279
 31
0.0
  0
ARC
  5
83A
330
1F
100
AcDbEntity
  8
10
100
AcDbCircle
 10
353.4330721797132
 20
88.14054559579233
 30
0.0
 40
0.9
100
AcDbArc
 50
180.0
 51
243.508535224647
  0
ARC
  5
83B
330
1F
100
AcDbEntity
  8
10
100
AcDbCircle
 10
353.4330721797132
 20
86.52954411841324
 30
0.0
 40
0.900000000000004
100
AcDbArc
 50
116.4914647753529
 51
180.0
  0
LINE
  5
83C
330
1F
100
AcDbEntity
  8
10
100
AcDbLine
 10
357.5330721797131
 20
89.3850448571028
 30
0.0
 11
357.042324450902
 21
90.23504485710279
 31
0.0
  0
ARC
  5
83D
330
1F
100
AcDbEntity
  8
10
100
AcDbCircle
 10
356.6330721797129
 20
88.13726053369464
 30
0.0
 40
0.9000000000000071
100
AcDbArc
 50
296.9565244512741
 51
0.0
  0
ARC
  5
83E
330
1F
100
AcDbEntity
  8
10
100
AcDbCircle
 10
356.6330721797129
 20
86.53282918051095
 30
0.0
 40
0.9
100
AcDbArc
 50
0.0
 51
63.0434755487257
  0
LINE
  5
83F
330
1F
100
AcDbEntity
  8
10
100
AcDbLine
 10
352.5330721797131
 20
90.23504485710279
 30
0.0
 11
352.5330721797131
 21
78.73504485710281
 31
0.0
  0
LINE
  5
840
330
1F
100
AcDbEntity
  8
10
100
AcDbLine
 10
351.0330721797131
 20
78.73504485710281
 30
0.0
 11
351.0330721797131
 21
90.23504485710279
 31
0.0
  0
LINE
  5
841
330
1F
100
AcDbEntity
  8
10
100
AcDbLine
 10
352.5330721797131
 20
90.23504485710279
 30
0.0
 11
351.0330721797131
 21
90.23504485710279
 31
0.0
  0
LINE
  5
842
330
1F
100
AcDbEntity
  8
10
100
AcDbLine
 10
352.5330721797131
 20
84.64191529286926
 30
0.0
 11
351.0330721797131
 21
86.14191529286925
 31
0.0
  0
LINE
  5
843
330
1F
100
AcDbEntity
  8
10
100
AcDbLine
 10
351.0330721797131
 20
84.76058745305067
 30
0.0
 11
352.5330721797131
 21
83.26058745305067
 31
0.0
  0
LINE
  5
844
330
1F
100
AcDbEntity
  8
10
100
AcDbLine
 10
351.0330721797131
 20
78.73504485710281
 30
0.0
 11
352.5330721797131
 21
78.73504485710281
 31
0.0
  0
ARC
  5
845
330
1F
100
AcDbEntity
  8
10
100
AcDbCircle
 10
273.9330721797118
 20
82.45221567659164
 30
0.0
 40
0.9
100
AcDbArc
 50
180.0
 51
243.0434755487257
  0
ARC
  5
846
330
1F
100
AcDbEntity
  8
10
100
AcDbCircle
 10
273.9330721797118
 20
80.84778432340796
 30
0.0
 40
0.9000000000000071
100
AcDbArc
 50
116.9565244512742
 51
180.0
  0
LINE
  5
847
330
1F
100
AcDbEntity
  8
10
100
AcDbLine
 10
273.033072179712
 20
79.59999999999979
 30
0.0
 11
273.5238199085229
 21
78.74999999999976
 31
0.0
  0
ARC
  5
848
330
1F
100
AcDbEntity
  8
10
100
AcDbCircle
 10
277.1330721797119
 20
82.45550073868935
 30
0.0
 40
0.900000000000004
100
AcDbArc
 50
296.491464775353
 51
0.0
  0
ARC
  5
849
330
1F
100
AcDbEntity
  8
10
100
AcDbCircle
 10
277.1330721797119
 20
80.84449926131027
 30
0.0
 40
0.9
100
AcDbArc
 50
0.0
 51
63.50853522464699
  0
LINE
  5
84A
330
1F
100
AcDbEntity
  8
10
100
AcDbLine
 10
278.033072179712
 20
79.59999999999979
 30
0.0
 11
277.5423244509009
 21
78.74999999999976
 31
0.0
  0
LINE
  5
84B
330
1F
100
AcDbEntity
  8
10
100
AcDbLine
 10
273.5250893268489
 20
81.64999999999981
 30
0.0
 11
277.5345302223149
 21
81.64999999999981
 31
0.0
  0
LINE
  5
84C
330
1F
100
AcDbEntity
  8
10
100
AcDbLine
 10
273.5238199085229
 20
78.74999999999976
 30
0.0
 11
277.5423244509009
 21
78.74999999999976
 31
0.0
  0
ARC
  5
84D
330
1F
100
AcDbEntity
  8
10
100
AcDbCircle
 10
273.9330721797118
 20
88.1522156765917
 30
0.0
 40
0.9
100
AcDbArc
 50
180.0
 51
243.0434755487257
  0
ARC
  5
84E
330
1F
100
AcDbEntity
  8
10
100
AcDbCircle
 10
273.9330721797118
 20
86.54778432340794
 30
0.0
 40
0.900000000000001
100
AcDbArc
 50
116.9565244512742
 51
180.0
  0
LINE
  5
84F
330
1F
100
AcDbEntity
  8
10
100
AcDbLine
 10
273.033072179712
 20
89.39999999999981
 30
0.0
 11
273.5238199085229
 21
90.24999999999977
 31
0.0
  0
ARC
  5
850
330
1F
100
AcDbEntity
  8
10
100
AcDbCircle
 10
277.1330721797119
 20
88.15550073868934
 30
0.0
 40
0.9
100
AcDbArc
 50
296.491464775353
 51
0.0
  0
ARC
  5
851
330
1F
100
AcDbEntity
  8
10
100
AcDbCircle
 10
277.1330721797119
 20
86.54449926131025
 30
0.0
 40
0.9
100
AcDbArc
 50
0.0
 51
63.50853522464699
  0
LINE
  5
852
330
1F
100
AcDbEntity
  8
10
100
AcDbLine
 10
278.033072179712
 20
89.39999999999981
 30
0.0
 11
277.5423244509009
 21
90.24999999999977
 31
0.0
  0
LINE
  5
853
330
1F
100
AcDbEntity
  8
10
100
AcDbLine
 10
277.5345302223149
 20
87.34999999999979
 30
0.0
 11
273.5250893268489
 21
87.34999999999979
 31
0.0
  0
LINE
  5
854
330
1F
100
AcDbEntity
  8
10
100
AcDbLine
 10
277.5423244509009
 20
90.24999999999977
 30
0.0
 11
273.5238199085229
 21
90.24999999999977
 31
0.0
  0
LINE
  5
855
330
1F
100
AcDbEntity
  8
10
100
AcDbLine
 10
278.033072179712
 20
89.39999999999981
 30
0.0
 11
278.033072179712
 21
79.59999999999979
 31
0.0
  0
LINE
  5
856
330
1F
100
AcDbEntity
  8
10
100
AcDbLine
 10
273.033072179712
 20
89.39999999999981
 30
0.0
 11
273.033072179712
 21
79.59999999999979
 31
0.0
  0
CIRCLE
  5
85B
330
1F
100
AcDbEntity
  8
10
100
AcDbCircle
 10
100.5
 20
84.49999999999976
 30
0.0
 40
5.75
  0
LINE
  5
85C
330
1F
100
AcDbEntity
  8
10
100
AcDbLine
 10
105.4999999999999
 20
81.61324865405168
 30
0.0
 11
105.4999999999999
 21
87.38675134594791
 31
0.0
  0
LINE
  5
85D
330
1F
100
AcDbEntity
  8
10
100
AcDbLine
 10
100.5
 20
90.27350269189604
 30
0.0
 11
95.5
 21
87.38675134594791
 31
0.0
  0
LINE
  5
85E
330
1F
100
AcDbEntity
  8
10
100
AcDbLine
 10
95.5
 20
81.61324865405163
 30
0.0
 11
100.5
 21
78.72649730810355
 31
0.0
  0
LINE
  5
85F
330
1F
100
AcDbEntity
  8
10
100
AcDbLine
 10
95.5
 20
87.38675134594791
 30
0.0
 11
95.5
 21
81.61324865405163
 31
0.0
  0
LINE
  5
860
330
1F
100
AcDbEntity
  8
10
100
AcDbLine
 10
105.4999999999999
 20
87.38675134594791
 30
0.0
 11
100.5
 21
90.27350269189604
 31
0.0
  0
LINE
  5
861
330
1F
100
AcDbEntity
  8
10
100
AcDbLine
 10
100.5
 20
78.72649730810355
 30
0.0
 11
105.4999999999999
 21
81.61324865405168
 31
0.0
  0
CIRCLE
  5
862
330
1F
100
AcDbEntity
  8
10
100
AcDbCircle
 10
100.5
 20
84.49999999999976
 30
0.0
 40
5.0
  0
CIRCLE
  5
863
330
1F
100
AcDbEntity
  8
10
100
AcDbCircle
 10
100.5
 20
15.49999999999994
 30
0.0
 40
5.75
  0
LINE
  5
864
330
1F
100
AcDbEntity
  8
10
100
AcDbLine
 10
105.4999999999999
 20
12.6132486540518
 30
0.0
 11
105.4999999999999
 21
18.38675134594802
 31
0.0
  0
LINE
  5
865
330
1F
100
AcDbEntity
  8
10
100
AcDbLine
 10
100.5
 20
21.2735026918961
 30
0.0
 11
95.5
 21
18.38675134594802
 31
0.0
  0
LINE
  5
866
330
1F
100
AcDbEntity
  8
10
100
AcDbLine
 10
95.5
 20
12.61324865405174
 30
0.0
 11
100.5
 21
9.726497308103603
 31
0.0
  0
LINE
  5
867
330
1F
100
AcDbEntity
  8
10
100
AcDbLine
 10
95.5
 20
18.38675134594802
 30
0.0
 11
95.5
 21
12.61324865405174
 31
0.0
  0
LINE
  5
868
330
1F
100
AcDbEntity
  8
10
100
AcDbLine
 10
105.4999999999999
 20
18.38675134594802
 30
0.0
 11
100.5
 21
21.2735026918961
 31
0.0
  0
LINE
  5
869
330
1F
100
AcDbEntity
  8
10
100
AcDbLine
 10
100.5
 20
9.726497308103603
 30
0.0
 11
105.4999999999999
 21
12.6132486540518
 31
0.0
  0
CIRCLE
  5
86A
330
1F
100
AcDbEntity
  8
10
100
AcDbCircle
 10
100.5
 20
15.49999999999994
 30
0.0
 40
5.0
  0
CIRCLE
  5
86B
330
1F
100
AcDbEntity
  8
10
100
AcDbCircle
 10
13.5
 20
84.49999999999976
 30
0.0
 40
5.75
  0
LINE
  5
86C
330
1F
100
AcDbEntity
  8
10
100
AcDbLine
 10
18.5
 20
81.61324865405168
 30
0.0
 11
18.5
 21
87.38675134594791
 31
0.0
  0
LINE
  5
86D
330
1F
100
AcDbEntity
  8
10
100
AcDbLine
 10
13.5
 20
90.27350269189604
 30
0.0
 11
8.5
 21
87.38675134594791
 31
0.0
  0
LINE
  5
86E
330
1F
100
AcDbEntity
  8
10
100
AcDbLine
 10
8.5
 20
81.61324865405163
 30
0.0
 11
13.5
 21
78.72649730810355
 31
0.0
  0
LINE
  5
86F
330
1F
100
AcDbEntity
  8
10
100
AcDbLine
 10
8.5
 20
87.38675134594791
 30
0.0
 11
8.5
 21
81.61324865405163
 31
0.0
  0
LINE
  5
870
330
1F
100
AcDbEntity
  8
10
100
AcDbLine
 10
18.5
 20
87.38675134594791
 30
0.0
 11
13.5
 21
90.27350269189604
 31
0.0
  0
LINE
  5
871
330
1F
100
AcDbEntity
  8
10
100
AcDbLine
 10
13.5
 20
78.72649730810355
 30
0.0
 11
18.5
 21
81.61324865405168
 31
0.0
  0
CIRCLE
  5
872
330
1F
100
AcDbEntity
  8
10
100
AcDbCircle
 10
13.5
 20
84.49999999999976
 30
0.0
 40
5.0
  0
CIRCLE
  5
873
330
1F
100
AcDbEntity
  8
10
100
AcDbCircle
 10
13.5
 20
15.49999999999994
 30
0.0
 40
5.75
  0
LINE
  5
874
330
1F
100
AcDbEntity
  8
10
100
AcDbLine
 10
18.5
 20
12.6132486540518
 30
0.0
 11
18.5
 21
18.38675134594802
 31
0.0
  0
LINE
  5
875
330
1F
100
AcDbEntity
  8
10
100
AcDbLine
 10
13.5
 20
21.2735026918961
 30
0.0
 11
8.5
 21
18.38675134594802
 31
0.0
  0
LINE
  5
876
330
1F
100
AcDbEntity
  8
10
100
AcDbLine
 10
8.5
 20
12.61324865405174
 30
0.0
 11
13.5
 21
9.726497308103603
 31
0.0
  0
LINE
  5
877
330
1F
100
AcDbEntity
  8
10
100
AcDbLine
 10
8.5
 20
18.38675134594802
 30
0.0
 11
8.5
 21
12.61324865405174
 31
0.0
  0
LINE
  5
878
330
1F
100
AcDbEntity
  8
10
100
AcDbLine
 10
18.5
 20
18.38675134594802
 30
0.0
 11
13.5
 21
21.2735026918961
 31
0.0
  0
LINE
  5
879
330
1F
100
AcDbEntity
  8
10
100
AcDbLine
 10
13.5
 20
9.726497308103603
 30
0.0
 11
18.5
 21
12.6132486540518
 31
0.0
  0
CIRCLE
  5
87A
330
1F
100
AcDbEntity
  8
10
100
AcDbCircle
 10
13.5
 20
15.49999999999994
 30
0.0
 40
5.0
  0
LINE
  5
880
330
1F
100
AcDbEntity
  8
10
100
AcDbLine
 10
217.3969904836269
 20
61.39202863347254
 30
0.0
 11
224.6366935177741
 21
46.43683870172947
 31
0.0
  0
LINE
  5
881
330
1F
100
AcDbEntity
  8
17
 48
7.0
100
AcDbLine
 10
187.93634436413
 20
61.27608770909603
 30
0.0
 11
187.93634436413
 21
74.47608770909617
 31
0.0
  0
LINE
  5
882
330
1F
100
AcDbEntity
  8
10
100
AcDbLine
 10
218.268436219219
 20
59.59186688242988
 30
0.0
 11
249.5330721797119
 21
74.72685887235297
 31
0.0
  0
ARC
  5
883
330
1F
100
AcDbEntity
  8
10
100
AcDbCircle
 10
187.93634436413
 20
67.87608770909606
 30
0.0
 40
10.88501882732692
100
AcDbArc
 50
194.6511813896096
 51
255.0000000000055
  0
ARC
  5
884
330
1F
100
AcDbEntity
  8
10
100
AcDbCircle
 10
192.3719338134159
 20
40.12975099114533
 30
0.0
 40
10.88501882732616
100
AcDbArc
 50
130.8312999999861
 51
191.1801186103968
  0
ARC
  5
885
330
1F
100
AcDbEntity
  8
10
100
AcDbCircle
 10
192.421964955284
 20
40.07185332916117
 30
0.0
 40
10.92307692307616
100
AcDbArc
 50
190.8312999999933
 51
220.8312999999953
  0
ARC
  5
886
330
1F
100
AcDbEntity
  8
10
100
AcDbCircle
 10
192.43634436413
 20
39.99669691212925
 30
0.0
 40
10.88501882732616
100
AcDbArc
 50
220.4824813896022
 51
280.8312999999973
  0
ARC
  5
887
330
1F
100
AcDbEntity
  8
10
100
AcDbCircle
 10
192.421964955284
 20
40.07185332916117
 30
0.0
 40
10.96153846153847
100
AcDbArc
 50
280.8312999999973
 51
310.8312999999861
  0
LINE
  5
888
330
1F
100
AcDbEntity
  8
10
100
AcDbLine
 10
224.6366935177741
 20
46.43683870172947
 30
0.0
 11
210.7892954328258
 21
39.73340996640763
 31
0.0
  0
LINE
  5
889
330
1F
100
AcDbEntity
  8
10
100
AcDbLine
 10
210.7892954328258
 20
39.73340996640763
 30
0.0
 11
203.5495923986788
 21
54.68859989815086
 31
0.0
  0
LINE
  5
88A
330
1F
100
AcDbEntity
  8
17
 48
7.0
100
AcDbLine
 10
195.3121152915839
 20
34.05616313368676
 30
0.0
 11
189.560573436677
 21
45.93723069057175
 31
0.0
  0
LINE
  5
88B
330
1F
100
AcDbEntity
  8
17
 48
7.0
100
AcDbLine
 10
198.3768781425719
 20
42.87246783958216
 30
0.0
 11
186.4958105856878
 21
37.12092598467625
 31
0.0
  0
ARC
  5
88C
330
1F
100
AcDbEntity
  8
10
100
AcDbCircle
 10
228.6295237882598
 20
2.880516660875399
 30
0.0
 40
40.94397993311082
100
AcDbArc
 50
115.8312999999924
 51
134.2321009381501
  0
CIRCLE
  5
88D
330
1F
100
AcDbEntity
  8
10
100
AcDbCircle
 10
192.43634436413
 20
39.99669691212925
 30
0.0
 40
5.076923076922311
  0
ARC
  5
88E
330
1F
100
AcDbEntity
  8
10
100
AcDbCircle
 10
192.4219649552849
 20
40.07185332915952
 30
0.0
 40
10.96153846153615
100
AcDbArc
 50
310.8312999999861
 51
314.2321009381501
  0
ARC
  5
88F
330
1F
100
AcDbEntity
  8
10
100
AcDbCircle
 10
185.7093640432449
 20
91.54149320368237
 30
0.0
 40
40.94397993311003
100
AcDbArc
 50
277.4304990618621
 51
295.8313000000068
  0
ARC
  5
890
330
1F
100
AcDbEntity
  8
10
100
AcDbCircle
 10
192.4219649552828
 20
40.07185332916349
 30
0.0
 40
10.96153846153615
100
AcDbArc
 50
97.43049906184923
 51
100.8312999999972
  0
ARC
  5
891
330
1F
100
AcDbEntity
  8
10
100
AcDbCircle
 10
192.421964955284
 20
40.07185332916117
 30
0.0
 40
10.96153846153847
100
AcDbArc
 50
100.8312999999972
 51
130.8312999999861
  0
ARC
  5
892
330
1F
100
AcDbEntity
  8
10
100
AcDbCircle
 10
204.340764487405
 20
18.69832775919689
 30
0.0
 40
40.94397993311003
100
AcDbArc
 50
90.0
 51
108.4008009381367
  0
ARC
  5
893
330
1F
100
AcDbEntity
  8
10
100
AcDbCircle
 10
187.956149102788
 20
67.94999999999993
 30
0.0
 40
10.96153846153847
100
AcDbArc
 50
255.0000000000055
 51
284.9999999999943
  0
ARC
  5
894
330
1F
100
AcDbEntity
  8
10
100
AcDbCircle
 10
187.9561491027889
 20
67.94999999999681
 30
0.0
 40
10.96153846153615
100
AcDbArc
 50
284.9999999999943
 51
288.4008009381501
  0
LINE
  5
895
330
1F
100
AcDbEntity
  8
10
100
AcDbLine
 10
213.7825592176959
 20
59.64230769230765
 30
0.0
 11
204.340764487405
 21
59.64230769230765
 31
0.0
  0
LINE
  5
896
330
1F
100
AcDbEntity
  8
10
100
AcDbLine
 10
223.765247782182
 20
48.23700045277281
 30
0.0
 11
249.5330721797131
 21
60.71102434184507
 31
0.0
  0
ARC
  5
897
330
1F
100
AcDbEntity
  8
10
100
AcDbCircle
 10
187.93634436413
 20
68.02391229090296
 30
0.0
 40
10.88501882732692
100
AcDbArc
 50
104.9999999999944
 51
165.3488186103903
  0
ARC
  5
898
330
1F
100
AcDbEntity
  8
10
100
AcDbCircle
 10
187.956149102788
 20
67.94999999999993
 30
0.0
 40
10.92307692307616
100
AcDbArc
 50
164.9999999999991
 51
180.3877016220303
  0
ARC
  5
899
330
1F
100
AcDbEntity
  8
10
100
AcDbCircle
 10
187.956149102788
 20
67.94999999999993
 30
0.0
 40
10.92307692307691
100
AcDbArc
 50
180.3877016220303
 51
195.0000000000006
  0
ARC
  5
89A
330
1F
100
AcDbEntity
  8
10
100
AcDbCircle
 10
204.340764487405
 20
117.2016722408022
 30
0.0
 40
40.94397993311082
100
AcDbArc
 50
251.5991990618632
 51
270.0
  0
LINE
  5
89B
330
1F
100
AcDbEntity
  8
10
100
AcDbLine
 10
204.340764487405
 20
76.25769230769218
 30
0.0
 11
219.7253798720188
 21
76.25769230769218
 31
0.0
  0
LINE
  5
89C
330
1F
100
AcDbEntity
  8
17
 48
7.0
100
AcDbLine
 10
194.5363443641289
 20
67.87608770909606
 30
0.0
 11
181.3363443641298
 21
67.87608770909606
 31
0.0
  0
LINE
  5
89D
330
1F
100
AcDbEntity
  8
10
100
AcDbLine
 10
219.7253798720188
 20
76.25769230769218
 30
0.0
 11
219.7253798720188
 21
60.29716313288884
 31
0.0
  0
LINE
  5
89E
330
1F
100
AcDbEntity
  8
10
100
AcDbLine
 10
219.7253798720188
 20
74.25769230769218
 30
0.0
 11
248.5639060342181
 21
74.25769230769218
 31
0.0
  0
ARC
  5
89F
330
1F
100
AcDbEntity
  8
10
100
AcDbCircle
 10
187.956149102788
 20
67.94999999999993
 30
0.0
 40
10.96153846153847
100
AcDbArc
 50
75.00000000000555
 51
104.9999999999944
  0
ARC
  5
8A0
330
1F
100
AcDbEntity
  8
10
100
AcDbCircle
 10
187.9561491027889
 20
67.95000000000152
 30
0.0
 40
10.96153846153615
100
AcDbArc
 50
71.59919906186324
 51
75.00000000000555
  0
LINE
  5
8A1
330
1F
100
AcDbEntity
  8
10
100
AcDbLine
 10
217.3969904836269
 20
61.39202863347247
 30
0.0
 11
203.549592398678
 21
54.68859989815076
 31
0.0
  0
LINE
  5
8A2
330
1F
100
AcDbEntity
  8
10
100
AcDbLine
 10
79.84972191601105
 20
20.06821252960691
 30
0.0
 11
79.84972191601105
 21
41.99128945268387
 31
0.0
  0
LINE
  5
8A3
330
1F
100
AcDbEntity
  8
10
100
AcDbLine
 10
81.84972191601104
 20
41.99128945268387
 30
0.0
 11
81.84972191601104
 21
20.06821252960691
 31
0.0
  0
LINE
  5
8A4
330
1F
100
AcDbEntity
  8
10
100
AcDbLine
 10
81.84972191601104
 20
20.06821252960691
 30
0.0
 11
79.84972191601105
 21
20.06821252960691
 31
0.0
  0
ARC
  5
8A5
330
1F
100
AcDbEntity
  8
10
100
AcDbCircle
 10
81.84972191601104
 20
31.0297509911453
 30
0.0
 40
8.307692307692342
100
AcDbArc
 50
270.0
 51
90.0
  0
LINE
  5
8A6
330
1F
100
AcDbEntity
  8
10
100
AcDbLine
 10
79.84972191601105
 20
25.87891562331917
 30
0.0
 11
81.84972191601104
 21
25.87891562331917
 31
0.0
  0
LINE
  5
8A7
330
1F
100
AcDbEntity
  8
10
100
AcDbLine
 10
79.84972191601105
 20
36.03276177716543
 30
0.0
 11
81.84972191601104
 21
36.03276177716543
 31
0.0
  0
LINE
  5
8A8
330
1F
100
AcDbEntity
  8
10
100
AcDbLine
 10
79.84972191601105
 20
41.99128945268387
 30
0.0
 11
81.84972191601104
 21
41.99128945268387
 31
0.0
  0
CIRCLE
  5
8A9
330
1F
100
AcDbEntity
  8
10
100
AcDbCircle
 10
187.936344364129
 20
67.87608770909606
 30
0.0
 40
5.076923076923097
  0
LINE
  5
8AA
330
1F
100
AcDbEntity
  8
10
100
AcDbLine
 10
39.38985678940389
 20
54.81454924755759
 30
0.0
 11
39.38985678940389
 21
76.73762617063449
 31
0.0
  0
LINE
  5
8AB
330
1F
100
AcDbEntity
  8
10
100
AcDbLine
 10
37.38985678940479
 20
76.73762617063449
 30
0.0
 11
37.38985678940479
 21
54.81454924755759
 31
0.0
  0
LINE
  5
8AC
330
1F
100
AcDbEntity
  8
10
100
AcDbLine
 10
37.38985678940479
 20
54.81454924755759
 30
0.0
 11
39.38985678940389
 21
54.81454924755759
 31
0.0
  0
ARC
  5
8AD
330
1F
100
AcDbEntity
  8
10
100
AcDbCircle
 10
37.38985678940479
 20
65.7760877090959
 30
0.0
 40
8.307692307692342
100
AcDbArc
 50
90.0
 51
270.0
  0
LINE
  5
8AE
330
1F
100
AcDbEntity
  8
10
100
AcDbLine
 10
39.38985678940389
 20
60.62525234126986
 30
0.0
 11
37.38985678940479
 21
60.62525234126986
 31
0.0
  0
LINE
  5
8AF
330
1F
100
AcDbEntity
  8
10
100
AcDbLine
 10
39.38985678940389
 20
70.77909849511605
 30
0.0
 11
37.38985678940479
 21
70.77909849511605
 31
0.0
  0
LINE
  5
8B0
330
1F
100
AcDbEntity
  8
10
100
AcDbLine
 10
39.38985678940389
 20
76.73762617063449
 30
0.0
 11
37.38985678940479
 21
76.73762617063449
 31
0.0
  0
VIEWPORT
  5
409
330
23
100
AcDbEntity
 67
     1
  8
0
100
AcDbViewport
 10
142.6315765380859
 20
99.1129140853882
 30
0.0
 40
314.2372683715819
 41
259.7433703258352
 68
     1
 69
     1
1001
ACAD
1000
MVIEW
1002
{
1070
    16
1010
0.0
1020
0.0
1030
0.0
1010
0.0
1020
0.0
1030
1.0
1040
0.0
1040
259.7433703258352
1040
142.6315765380859
1040
99.1129140853882
1040
50.0
1040
0.0
1040
0.0
1070
     0
1070
   100
1070
     1
1070
     1
1070
     0
1070
     0
1070
     0
1070
     0
1040
0.0
1040
0.0
1040
0.0
1040
10.0
1040
10.0
1040
10.0
1040
10.0
1070
     0
1002
{
1002
}
1002
}
  0
VIEWPORT
  5
40B
330
23
100
AcDbEntity
 67
     1
  8
0
100
AcDbViewport
 10
142.6315770149231
 20
99.11291456222535
 30
0.0
 40
228.2105232238769
 41
158.5806632995605
 68
     2
 69
     2
1001
ACAD
1000
MVIEW
1002
{
1070
    16
1010
0.0
1020
0.0
1030
0.0
1010
0.0
1020
0.0
1030
1.0
1040
0.0
1040
437.7797658097811
1040
303.2144175903108
1040
233.3590858733038
1040
50.0
1040
0.0
1040
0.0
1070
     0
1070
   100
1070
     1
1070
     3
1070
     0
1070
     0
1070
     0
1070
     0
1040
0.0
1040
0.0
1040
0.0
1040
10.0
1040
10.0
1040
10.0
1040
10.0
1070
     0
1002
{
1002
}
1002
}
  0
ENDSEC
  0
SECTION
  2
OBJECTS
  0
DICTIONARY
  5
C
330
0
100
AcDbDictionary
  3
ACAD_GROUP
350
D
  3
ACAD_LAYOUT
350
1A
  3
ACAD_MLINESTYLE
350
17
  3
ACAD_PLOTSETTINGS
350
19
  3
ACAD_PLOTSTYLENAME
350
E
  3
ACAMCATALOGSTATE
350
5BA
  3
ACASAPPOBJECT
350
53F
  3
ACASGREF_MASTER
350
587
  3
ACDBHEADERROUNDTRIPXREC
350
97D
  3
ACDBVARIABLEDICTIONARY
350
40D
  3
ACDMSYSVARMGR
350
519
  3
ACGREF_MASTER
350
513
  3
ACGREFACAD_MASTER
350
53B
  3
ACMDICTIONARY
350
5B6
  3
ACME_BOM_MANAGER_NAME
350
50C
  3
ACME_COMMAND_HISTORY
350
507
  3
ACME_SCOPE_NAME
350
506
  3
ACMESTATEMGR
350
511
  3
ACMESYSVARMANAGER
350
508
  3
ACMSYSTEMVARIABLEMANAGER
350
5C4
  3
AD_APPL
350
59E
  3
AD_GREF_MODULE
350
588
  3
AD_MAPI_MODULE
350
5A0
  3
ADSYSVARMGR
350
590
  3
AMDTNAMEDDWGMGR
350
536
  3
AMG
350
4FD
  3
AMGSNAPSETTINGS
350
5D0
  3
AMI_MASTER
350
53E
  3
ASURF_STATIC_VARS
350
540
  3
AUTOCAD_ASSEMBLIES_PROJECT
350
5AB
  3
AUTOSURF_SYSVARS
350
541
  3
DESIGNER_ASSEMBLIES_SYSVARS
350
5A2
  3
DWGPROPS
350
5B9
  3
GREFAM_MODULE
350
58A
  3
MAPISURF_MODULE
350
589
  0
DICTIONARY
  5
41
330
2
100
AcDbDictionary
280
     1
  3
ACAD_LAYERFILTERS
360
3FF
  3
ACAD_LAYERSTATES
360
42
  0
DICTIONARY
  5
438
330
1F
100
AcDbDictionary
280
     1
  3
ACAD_INDEX
360
5D7
  3
ACAD_LAYOUTSELFREF
360
99D
  0
DICTIONARY
  5
43A
330
23
100
AcDbDictionary
280
     1
  3
ACAD_LAYOUTSELFREF
360
99E
  0
DICTIONARY
  5
D
102
{ACAD_REACTORS
330
C
102
}
330
C
100
AcDbDictionary
  0
DICTIONARY
  5
1A
102
{ACAD_REACTORS
330
C
102
}
330
C
100
AcDbDictionary
  0
DICTIONARY
  5
17
102
{ACAD_REACTORS
330
C
102
}
330
C
100
AcDbDictionary
  3
STANDARD
350
18
  0
DICTIONARY
  5
19
102
{ACAD_REACTORS
330
C
102
}
330
C
100
AcDbDictionary
  0
ACDBDICTIONARYWDFLT
  5
E
102
{ACAD_REACTORS
330
C
102
}
330
C
100
AcDbDictionary
281
     1
  3
Normal
350
F
100
AcDbDictionaryWithDefault
340
F
  0
ACAD_PROXY_OBJECT
  5
5BA
102
{ACAD_REACTORS
330
C
102
}
330
C
100
AcDbProxyObject
 90
      499
 91
      574
 93
      880
310
3FFFFFFFE00A0284402B0AE2E189C9917189B1C17189719182E32B733B4B732B2B934B733AE32B733B4B732B2B934B733AE26A2A2C5E34B58AE181C1898189A2FA6A2A2AF99222FC6F6483EAE39B4B5BCBAAE232916A420A62FA422A62FA1A0A22E4728C6B641B340ADC1AF400AA50
 94
        0
1001
ACAD
1000
AcadProxyRoundTripData
1071
      565
1071
   851991
1070
     0
  0
ACAD_PROXY_OBJECT
  5
53F
102
{ACAD_REACTORS
330
C
102
}
330
C
100
AcDbProxyObject
 90
      499
 91
      574
 93
       10
310
4040
 94
        0
1001
ACAD
1000
AcadProxyRoundTripData
1071
      537
1071
   851991
1070
     0
  0
ACAD_PROXY_OBJECT
  5
587
102
{ACAD_REACTORS
330
C
102
}
330
C
100
AcDbProxyObject
 90
      499
 91
      574
 93
       34
310
010000405E
 94
        0
1001
ACAD
1000
AcadProxyRoundTripData
1071
      543
1071
   851991
1070
     0
  0
DICTIONARY
  5
97D
102
{ACAD_REACTORS
330
C
102
}
330
C
100
AcDbDictionary
  3
CEPSNTYPE
350
987
  3
FINGERPRINTGUID
350
988
  3
HYPERLINKBASE
350
980
  3
INSUNITS
350
986
  3
LAYOUTDICT
350
982
  3
LWETCUNION
350
985
  3
PLOTSETDICT
350
983
  3
PLOTSTYLNAMDICT
350
984
  3
PSVPSCALE
350
98A
  3
PUCSBASE
350
98D
  3
PUCSORGBACK
350
993
  3
PUCSORGBOTTOM
350
98F
  3
PUCSORGFRONT
350
992
  3
PUCSORGLEFT
350
990
  3
PUCSORGRIGHT
350
991
  3
PUCSORGTOP
350
98E
  3
PUCSORTHOREF
350
98B
  3
PUCSORTHOVIEW
350
98C
  3
STYLESHEET
350
981
  3
TSTACKALIGN
350
97E
  3
TSTACKSIZE
350
97F
  3
UCSBASE
350
996
  3
UCSORGBACK
350
99C
  3
UCSORGBOTTOM
350
998
  3
UCSORGFRONT
350
99B
  3
UCSORGLEFT
350
999
  3
UCSORGRIGHT
350
99A
  3
UCSORGTOP
350
997
  3
UCSORTHOREF
350
994
  3
UCSORTHOVIEW
350
995
  3
VERSIONGUID
350
989
  0
DICTIONARY
  5
40D
102
{ACAD_REACTORS
330
C
102
}
330
C
100
AcDbDictionary
  3
DIMASSOC
350
40F
  3
HIDETEXT
350
40E
  3
INDEXCTL
350
5DF
  0
ACAD_PROXY_OBJECT
  5
519
102
{ACAD_REACTORS
330
C
102
}
330
C
100
AcDbProxyObject
 90
      499
 91
      574
 93
      240
310
4C51A4820000000000000000000000000000000000000000000000000000AC
330
51A
330
51B
330
51C
330
51D
330
51E
330
51F
330
520
330
523
330
524
330
525
330
526
330
527
330
528
330
529
330
52A
330
52B
330
52C
330
52D
330
52E
330
52F
330
530
330
531
330
532
330
533
330
534
330
535
 94
        0
1001
ACAD
1000
AcadProxyRoundTripData
1071
      516
1071
   851991
1070
     0
  0
ACAD_PROXY_OBJECT
  5
513
102
{ACAD_REACTORS
330
C
102
}
330
C
100
AcDbProxyObject
 90
      499
 91
      574
 93
       34
310
040000429E
 94
        0
1001
ACAD
1000
AcadProxyRoundTripData
1071
      525
1071
   851991
1070
     0
  0
ACAD_PROXY_OBJECT
  5
53B
102
{ACAD_REACTORS
330
C
102
}
330
C
100
AcDbProxyObject
 90
      499
 91
      574
 93
      114
310
04000041C000000000000000000000
 94
        0
1001
ACAD
1000
AcadProxyRoundTripData
1071
      533
1071
   851991
1070
     0
  0
DICTIONARY
  5
5B6
102
{ACAD_REACTORS
330
C
102
}
330
C
100
AcDbDictionary
  3
ACMBOMDATA
350
5B7
  0
ACAD_PROXY_OBJECT
  5
50C
102
{ACAD_REACTORS
330
C
102
}
330
C
100
AcDbProxyObject
 90
      499
 91
      574
 93
       50
310
00000040400000
330
0
330
0
330
50D
 94
        0
1001
ACAD
1000
AcadProxyRoundTripData
1071
      519
1071
   851991
1070
     0
  0
ACAD_PROXY_OBJECT
  5
507
102
{ACAD_REACTORS
330
C
102
}
330
C
100
AcDbProxyObject
 90
      499
 91
      574
 93
      778
310
424050E414D4454524553455444424D4F4440805084E202D20554E444F014213880B4815539113C0507544F4F4C42415280504554E444F80504554E444F80504554E444F80504554E444F80504554E444F80505455241534580506534156454153B5
 94
        0
1001
ACAD
1000
AcadProxyRoundTripData
1071
      515
1071
   851991
1070
     0
  0
ACAD_PROXY_OBJECT
  5
506
102
{ACAD_REACTORS
330
C
102
}
330
C
100
AcDbProxyObject
 90
      499
 91
      574
 93
     1242
310
06000044400000000000000000001840000400020000000000000000000000000000000000000000000000000000000000000000000000000000000000000000000000000000000000000000000000000000000000000000000000000000000000000000000000000000000000000000000000000000000000000000000000
310
00000000000000000000000000000000000000000000000000AAAAAAB0
360
509
360
50A
360
50B
360
50D
360
514
360
515
360
516
360
517
360
51A
360
51B
360
51C
360
51D
360
51E
360
51F
360
520
360
523
360
524
360
525
360
526
360
527
360
528
360
529
360
52A
360
52B
360
52C
360
52D
360
52E
360
52F
360
530
360
531
360
532
360
533
360
534
360
535
360
542
360
543
360
544
360
545
360
546
360
547
360
548
360
549
360
54A
360
54B
360
54C
360
54D
360
54E
360
54F
360
550
360
551
360
552
360
553
360
554
360
555
360
556
360
557
360
558
360
559
360
55A
360
55B
360
55C
360
55D
360
55E
360
55F
360
560
360
561
360
562
360
563
360
564
360
565
360
566
360
567
360
568
360
569
360
56A
360
56B
360
56C
360
56D
360
56E
360
56F
360
570
360
571
360
572
360
573
360
574
360
575
360
576
360
577
360
578
360
579
360
57A
360
57B
360
57C
360
57D
360
57E
360
57F
360
580
360
581
360
582
360
583
360
58C
360
58D
360
58E
360
58F
360
591
360
592
360
593
360
594
360
595
360
596
360
597
360
598
360
599
360
59A
360
59B
360
59C
360
59D
360
5A3
360
5A4
360
5A5
360
5A6
360
5A7
360
5A8
360
5A9
360
5AA
360
5AF
360
5B0
360
5B1
360
5B2
360
5B3
360
5B4
360
5C5
 94
        0
1001
ACAD
1000
AcadProxyRoundTripData
1071
      514
1071
   851991
1070
     0
  0
ACAD_PROXY_OBJECT
  5
511
102
{ACAD_REACTORS
330
C
102
}
330
C
100
AcDbProxyObject
 90
      499
 91
      574
 93
       50
310
06000041641280
 94
        0
1001
ACAD
1000
AcadProxyRoundTripData
1071
      524
1071
   851991
1070
     0
  0
ACAD_PROXY_OBJECT
  5
508
102
{ACAD_REACTORS
330
C
102
}
330
C
100
AcDbProxyObject
 90
      499
 91
      574
 93
       48
310
90342200000011
330
509
330
50A
330
50B
 94
        0
1001
ACAD
1000
AcadProxyRoundTripData
1071
      516
1071
   851991
1070
     0
  0
ACAD_PROXY_OBJECT
  5
5C4
102
{ACAD_REACTORS
330
C
102
}
330
C
100
AcDbProxyObject
 90
      499
 91
      574
 93
       32
310
9014220030
330
5C5
 94
        0
1001
ACAD
1000
AcadProxyRoundTripData
1071
      516
1071
   851991
1070
     0
  0
ACAD_PROXY_OBJECT
  5
59E
102
{ACAD_REACTORS
330
C
102
}
330
C
100
AcDbProxyObject
 90
      499
 91
      574
 93
       42
310
0006000043C4
330
58C
 94
        0
1001
ACAD
1000
AcadProxyRoundTripData
1071
      552
1071
   851991
1070
     0
  0
ACAD_PROXY_OBJECT
  5
588
102
{ACAD_REACTORS
330
C
102
}
330
C
100
AcDbProxyObject
 90
      499
 91
      574
 93
      114
310
000000438000000000000000000004
 94
        0
1001
ACAD
1000
AcadProxyRoundTripData
1071
      544
1071
   851991
1070
     0
  0
ACAD_PROXY_OBJECT
  5
5A0
102
{ACAD_REACTORS
330
C
102
}
330
C
100
AcDbProxyObject
 90
      499
 91
      574
 93
       34
310
05000044DE
 94
        0
1001
ACAD
1000
AcadProxyRoundTripData
1071
      554
1071
   851991
1070
     0
  0
ACAD_PROXY_OBJECT
  5
590
102
{ACAD_REACTORS
330
C
102
}
330
C
100
AcDbProxyObject
 90
      499
 91
      574
 93
      128
310
90D44200000000000000000000000000BA
330
591
330
592
330
593
330
594
330
595
330
596
330
597
330
598
330
599
330
59A
330
59B
330
59C
330
59D
 94
        0
1001
ACAD
1000
AcadProxyRoundTripData
1071
      516
1071
   851991
1070
     0
  0
ACAD_PROXY_OBJECT
  5
536
102
{ACAD_REACTORS
330
C
102
}
330
C
100
AcDbProxyObject
 90
      499
 91
      574
 93
       42
310
000100005AC4
330
514
 94
        0
1001
ACAD
1000
AcadProxyRoundTripData
1071
      530
1071
   851991
1070
     0
  0
DICTIONARY
  5
4FD
102
{ACAD_REACTORS
330
C
102
}
330
C
100
AcDbDictionary
  3
ACMGSETTINGS
350
4FE
  3
AMGLAYCFG
350
5C3
  0
DICTIONARY
  5
5D0
102
{ACAD_REACTORS
330
C
102
}
330
C
100
AcDbDictionary
  3
DIMENSION
350
5D5
  3
FEA
350
5D4
  3
HATCH__1_
350
5D1
  3
HATCH__2_
350
5D2
  3
SIMPLE_WELD
350
5D6
  3
SYMBOLS
350
5D3
  0
ACAD_PROXY_OBJECT
  5
53E
102
{ACAD_REACTORS
330
C
102
}
330
C
100
AcDbProxyObject
 90
      499
 91
      574
 93
       34
310
050000429E
 94
        0
1001
ACAD
1000
AcadProxyRoundTripData
1071
      536
1071
   851991
1070
     0
  0
ACAD_PROXY_OBJECT
  5
540
102
{ACAD_REACTORS
330
C
102
}
330
C
100
AcDbProxyObject
 90
      499
 91
      574
 93
      424
310
58531502000000000000000000000000000000000000000000000000000000000000000000000000000000000000000000000000007C
330
553
330
554
330
555
330
556
330
557
330
558
330
559
330
55A
330
55B
330
55C
330
55D
330
55E
330
55F
330
560
330
561
330
562
330
563
330
564
330
565
330
566
330
567
330
568
330
569
330
56A
330
56B
330
56C
330
56D
330
56E
330
56F
330
570
330
571
330
572
330
573
330
574
330
575
330
576
330
577
330
578
330
579
330
57A
330
57B
330
57C
330
57D
330
57E
330
57F
330
580
330
581
330
582
330
583
 94
        0
1001
ACAD
1000
AcadProxyRoundTripData
1071
      538
1071
   851991
1070
     0
  0
ACAD_PROXY_OBJECT
  5
5AB
102
{ACAD_REACTORS
330
C
102
}
330
C
100
AcDbProxyObject
 90
      499
 91
      574
 93
       74
310
0600004A400000000000
330
5B2
330
0
330
5B3
330
0
330
0
 94
        0
1001
ACAD
1000
AcadProxyRoundTripData
1071
      556
1071
   851991
1070
     0
  0
ACAD_PROXY_OBJECT
  5
541
102
{ACAD_REACTORS
330
C
102
}
330
C
100
AcDbProxyObject
 90
      499
 91
      574
 93
      168
310
4C511482000000000000000000000000000000000000
330
542
330
543
330
544
330
545
330
546
330
547
330
548
330
549
330
54A
330
54B
330
54C
330
54D
330
54E
330
54F
330
550
330
551
330
552
 94
        0
1001
ACAD
1000
AcadProxyRoundTripData
1071
      516
1071
   851991
1070
     0
  0
ACAD_PROXY_OBJECT
  5
5A2
102
{ACAD_REACTORS
330
C
102
}
330
C
100
AcDbProxyObject
 90
      499
 91
      574
 93
       88
310
90842200000000000000006C
330
5A3
330
5A4
330
5A5
330
5A6
330
5A7
330
5A8
330
5A9
330
5AA
 94
        0
1001
ACAD
1000
AcadProxyRoundTripData
1071
      516
1071
   851991
1070
     0
  0
XRECORD
  5
5B9
102
{ACAD_REACTORS
330
C
102
}
330
C
100
AcDbXrecord
  1
DWGPROPS COOKIE
  2

  3

  4

  6

  7

  8

  9

300
AmdtFileType=84
301
=
302
=
303
=
304
=
305
=
306
=
307
=
308
=
309
=
 40
0.005163125
 41
2454596.550355717
 42
2454596.675773645
  1

 90
        1
  0
ACAD_PROXY_OBJECT
  5
58A
102
{ACAD_REACTORS
330
C
102
}
330
C
100
AcDbProxyObject
 90
      499
 91
      574
 93
        8
310
0507
 94
        0
1001
ACAD
1000
AcadProxyRoundTripData
1071
      546
1071
   851991
1070
     0
  0
ACAD_PROXY_OBJECT
  5
589
102
{ACAD_REACTORS
330
C
102
}
330
C
100
AcDbProxyObject
 90
      499
 91
      574
 93
        8
310
0406
 94
        0
1001
ACAD
1000
AcadProxyRoundTripData
1071
      545
1071
   851991
1070
     0
  0
DICTIONARY
  5
3FF
102
{ACAD_REACTORS
330
41
102
}
330
41
100
AcDbDictionary
280
     1
  0
DICTIONARY
  5
42
102
{ACAD_REACTORS
330
41
102
}
330
41
100
AcDbDictionary
  0
DICTIONARY
  5
5D7
102
{ACAD_REACTORS
330
438
102
}
330
438
100
AcDbDictionary
  3
*A1
350
5D8
  0
XRECORD
  5
99D
102
{ACAD_REACTORS
330
438
102
}
330
438
100
AcDbXrecord
340
1F
  0
XRECORD
  5
99E
102
{ACAD_REACTORS
330
43A
102
}
330
43A
100
AcDbXrecord
340
23
  0
MLINESTYLE
  5
18
102
{ACAD_REACTORS
330
17
102
}
330
17
100
AcDbMlineStyle
  2
STANDARD
 70
     0
  3

 62
   256
 51
90.0
 52
90.0
 71
     2
 49
0.5
 62
   256
  6
BYLAYER
 49
-0.5
 62
   256
  6
BYLAYER
  0
ACDBPLACEHOLDER
  5
F
102
{ACAD_REACTORS
330
E
102
}
330
E
100
AcDbPlaceHolder
280
     0
  0
XRECORD
  5
987
102
{ACAD_REACTORS
330
97D
102
}
330
97D
100
AcDbXrecord
 90
        0
  0
XRECORD
  5
988
102
{ACAD_REACTORS
330
97D
102
}
330
97D
100
AcDbXrecord
  1
{025C7157-5529-449E-A239-D8CA396FD83B}
  0
XRECORD
  5
980
102
{ACAD_REACTORS
330
97D
102
}
330
97D
100
AcDbXrecord
  1

  0
XRECORD
  5
986
102
{ACAD_REACTORS
330
97D
102
}
330
97D
100
AcDbXrecord
 90
        4
  0
XRECORD
  5
982
102
{ACAD_REACTORS
330
97D
102
}
330
97D
100
AcDbXrecord
340
1A
  0
XRECORD
  5
985
102
{ACAD_REACTORS
330
97D
102
}
330
97D
100
AcDbXrecord
 90
    10781
  0
XRECORD
  5
983
102
{ACAD_REACTORS
330
97D
102
}
330
97D
100
AcDbXrecord
340
19
  0
XRECORD
  5
984
102
{ACAD_REACTORS
330
97D
102
}
330
97D
100
AcDbXrecord
340
E
  0
XRECORD
  5
98A
102
{ACAD_REACTORS
330
97D
102
}
330
97D
100
AcDbXrecord
 40
0.0
  0
XRECORD
  5
98D
102
{ACAD_REACTORS
330
97D
102
}
330
97D
100
AcDbXrecord
340
0
  0
XRECORD
  5
993
102
{ACAD_REACTORS
330
97D
102
}
330
97D
100
AcDbXrecord
 10
0.0
 20
0.0
 30
0.0
  0
XRECORD
  5
98F
102
{ACAD_REACTORS
330
97D
102
}
330
97D
100
AcDbXrecord
 10
0.0
 20
0.0
 30
0.0
  0
XRECORD
  5
992
102
{ACAD_REACTORS
330
97D
102
}
330
97D
100
AcDbXrecord
 10
0.0
 20
0.0
 30
0.0
  0
XRECORD
  5
990
102
{ACAD_REACTORS
330
97D
102
}
330
97D
100
AcDbXrecord
 10
0.0
 20
0.0
 30
0.0
  0
XRECORD
  5
991
102
{ACAD_REACTORS
330
97D
102
}
330
97D
100
AcDbXrecord
 10
0.0
 20
0.0
 30
0.0
  0
XRECORD
  5
98E
102
{ACAD_REACTORS
330
97D
102
}
330
97D
100
AcDbXrecord
 10
0.0
 20
0.0
 30
0.0
  0
XRECORD
  5
98B
102
{ACAD_REACTORS
330
97D
102
}
330
97D
100
AcDbXrecord
340
0
  0
XRECORD
  5
98C
102
{ACAD_REACTORS
330
97D
102
}
330
97D
100
AcDbXrecord
 70
     0
  0
XRECORD
  5
981
102
{ACAD_REACTORS
330
97D
102
}
330
97D
100
AcDbXrecord
  1

  0
XRECORD
  5
97E
102
{ACAD_REACTORS
330
97D
102
}
330
97D
100
AcDbXrecord
 90
        1
  0
XRECORD
  5
97F
102
{ACAD_REACTORS
330
97D
102
}
330
97D
100
AcDbXrecord
 90
       70
  0
XRECORD
  5
996
102
{ACAD_REACTORS
330
97D
102
}
330
97D
100
AcDbXrecord
340
0
  0
XRECORD
  5
99C
102
{ACAD_REACTORS
330
97D
102
}
330
97D
100
AcDbXrecord
 10
0.0
 20
0.0
 30
0.0
  0
XRECORD
  5
998
102
{ACAD_REACTORS
330
97D
102
}
330
97D
100
AcDbXrecord
 10
0.0
 20
0.0
 30
0.0
  0
XRECORD
  5
99B
102
{ACAD_REACTORS
330
97D
102
}
330
97D
100
AcDbXrecord
 10
0.0
 20
0.0
 30
0.0
  0
XRECORD
  5
999
102
{ACAD_REACTORS
330
97D
102
}
330
97D
100
AcDbXrecord
 10
0.0
 20
0.0
 30
0.0
  0
XRECORD
  5
99A
102
{ACAD_REACTORS
330
97D
102
}
330
97D
100
AcDbXrecord
 10
0.0
 20
0.0
 30
0.0
  0
XRECORD
  5
997
102
{ACAD_REACTORS
330
97D
102
}
330
97D
100
AcDbXrecord
 10
0.0
 20
0.0
 30
0.0
  0
XRECORD
  5
994
102
{ACAD_REACTORS
330
97D
102
}
330
97D
100
AcDbXrecord
340
0
  0
XRECORD
  5
995
102
{ACAD_REACTORS
330
97D
102
}
330
97D
100
AcDbXrecord
 70
     0
  0
XRECORD
  5
989
102
{ACAD_REACTORS
330
97D
102
}
330
97D
100
AcDbXrecord
  1
{03F269BA-16B9-4F51-BB39-E2C4A5A6C34D}
  0
DICTIONARYVAR
  5
40F
102
{ACAD_REACTORS
330
40D
102
}
330
40D
100
DictionaryVariables
280
     0
  1
2
  0
DICTIONARYVAR
  5
40E
102
{ACAD_REACTORS
330
40D
102
}
330
40D
100
DictionaryVariables
280
     0
  1
1
  0
DICTIONARYVAR
  5
5DF
102
{ACAD_REACTORS
330
40D
102
}
330
40D
100
DictionaryVariables
280
     0
  1
1
  0
ACAD_PROXY_OBJECT
  5
5B7
102
{ACAD_REACTORS
330
5B6
102
}
330
5B6
100
AcDbProxyObject
 90
      499
 91
      574
 93
      118
310
405010040CA904C415CD5B07571028
350
5B8
 94
        0
1001
ACAD
1000
AcadProxyRoundTripData
1071
      563
1071
   851991
1070
     0
  0
ACAD_PROXY_OBJECT
  5
509
330
0
100
AcDbProxyObject
 90
      499
 91
      574
 93
      156
310
00010143D050D351505391D5531054925390D494
330
506
 94
        0
1001
ACAD
1000
AcadProxyRoundTripData
1071
      517
1071
   851991
1070
     0
  0
ACAD_PROXY_OBJECT
  5
50A
330
0
100
AcDbProxyObject
 90
      499
 91
      574
 93
      148
310
000101439050D351531253915054925390D494
330
506
 94
        0
1001
ACAD
1000
AcadProxyRoundTripData
1071
      517
1071
   851991
1070
     0
  0
ACAD_PROXY_OBJECT
  5
50B
330
0
100
AcDbProxyObject
 90
      499
 91
      574
 93
      156
310
000101439050D35154D6535093D314D256915084
330
506
 94
        0
1001
ACAD
1000
AcadProxyRoundTripData
1071
      518
1071
   851991
1070
     0
  0
ACAD_PROXY_OBJECT
  5
50D
330
0
100
AcDbProxyObject
 90
      499
 91
      574
 93
      120
310
000101422565255A6557080C402B00E0
330
506
330
0
330
0
 94
        0
1001
ACAD
1000
AcadProxyRoundTripData
1071
      520
1071
   851991
1070
     0
  0
ACAD_PROXY_OBJECT
  5
514
330
0
100
AcDbProxyObject
 90
      499
 91
      574
 93
      358
310
0001014124FEA55D00507362E332E302E31014124FEA55D00507362E332E302E3140501000041505391D311658
330
506
330
515
330
519
 94
        0
1001
ACAD
1000
AcadProxyRoundTripData
1071
      526
1071
   851991
1070
     0
  0
ACAD_PROXY_OBJECT
  5
515
330
0
100
AcDbProxyObject
 90
      499
 91
      574
 93
       48
310
00019014220011
330
506
330
516
 94
        0
1001
ACAD
1000
AcadProxyRoundTripData
1071
      527
1071
   851991
1070
     0
  0
ACAD_PROXY_OBJECT
  5
516
330
0
100
AcDbProxyObject
 90
      499
 91
      574
 93
       48
310
0001AA00000011
330
506
330
4F8
330
517
330
0
 94
        0
1001
ACAD
1000
AcadProxyRoundTripData
1071
      528
1071
   851991
1070
     0
  0
ACAD_PROXY_OBJECT
  5
517
330
0
100
AcDbProxyObject
 90
      499
 91
      574
 93
       28
310
0001AAA4
330
506
 94
        0
1001
ACAD
1000
AcadProxyRoundTripData
1071
      529
1071
   851991
1070
     0
  0
ACAD_PROXY_OBJECT
  5
51A
330
0
100
AcDbProxyObject
 90
      499
 91
      574
 93
      108
310
000101421053521310D05310D016
330
506
 94
        0
1001
ACAD
1000
AcadProxyRoundTripData
1071
      518
1071
   851991
1070
     0
  0
ACAD_PROXY_OBJECT
  5
51B
330
0
100
AcDbProxyObject
 90
      499
 91
      574
 93
      124
310
00010142905354915554D15112535010
330
506
 94
        0
1001
ACAD
1000
AcadProxyRoundTripData
1071
      518
1071
   851991
1070
     0
  0
ACAD_PROXY_OBJECT
  5
51C
330
0
100
AcDbProxyObject
 90
      499
 91
      574
 93
      132
310
00010143105354D150D51253D391125360
330
506
 94
        0
1001
ACAD
1000
AcadProxyRoundTripData
1071
      518
1071
   851991
1070
     0
  0
ACAD_PROXY_OBJECT
  5
51D
330
0
100
AcDbProxyObject
 90
      499
 91
      574
 93
      124
310
00010142905355941093D49111549013
330
506
 94
        0
1001
ACAD
1000
AcadProxyRoundTripData
1071
      518
1071
   851991
1070
     0
  0
ACAD_PROXY_OBJECT
  5
51E
330
0
100
AcDbProxyObject
 90
      499
 91
      574
 93
      116
310
0001014290535115D1D0D3D313D4A0
330
506
 94
        0
1001
ACAD
1000
AcadProxyRoundTripData
1071
      518
1071
   851991
1070
     0
  0
ACAD_PROXY_OBJECT
  5
51F
330
0
100
AcDbProxyObject
 90
      499
 91
      574
 93
      148
310
00010143505355925155D49151949154D21010
330
506
 94
        0
1001
ACAD
1000
AcadProxyRoundTripData
1071
      518
1071
   851991
1070
     0
  0
ACAD_PROXY_OBJECT
  5
520
330
0
100
AcDbProxyObject
 90
      499
 91
      574
 93
      172
310
00010144105350539393D51154149154D1549591501A
330
506
 94
        0
1001
ACAD
1000
AcadProxyRoundTripData
1071
      518
1071
   851991
1070
     0
  0
ACAD_PROXY_OBJECT
  5
523
330
0
100
AcDbProxyObject
 90
      499
 91
      574
 93
      172
310
00010144105350555513D11253505494905391D1501A
330
506
 94
        0
1001
ACAD
1000
AcadProxyRoundTripData
1071
      518
1071
   851991
1070
     0
  0
ACAD_PROXY_OBJECT
  5
524
330
0
100
AcDbProxyObject
 90
      499
 91
      574
 93
      124
310
00010142D05351561514915191125364
330
506
 94
        0
1001
ACAD
1000
AcadProxyRoundTripData
1071
      518
1071
   851991
1070
     0
  0
ACAD_PROXY_OBJECT
  5
525
330
0
100
AcDbProxyObject
 90
      499
 91
      574
 93
      132
310
00010142D05355105410539393D5115010
330
506
 94
        0
1001
ACAD
1000
AcadProxyRoundTripData
1071
      518
1071
   851991
1070
     0
  0
ACAD_PROXY_OBJECT
  5
526
330
0
100
AcDbProxyObject
 90
      499
 91
      574
 93
      108
310
00010142105350555513D0D31015
330
506
 94
        0
1001
ACAD
1000
AcadProxyRoundTripData
1071
      518
1071
   851991
1070
     0
  0
ACAD_PROXY_OBJECT
  5
527
330
0
100
AcDbProxyObject
 90
      499
 91
      574
 93
      108
310
00010142105350D3119150551055
330
506
 94
        0
1001
ACAD
1000
AcadProxyRoundTripData
1071
      518
1071
   851991
1070
     0
  0
ACAD_PROXY_OBJECT
  5
528
330
0
100
AcDbProxyObject
 90
      499
 91
      574
 93
      108
310
00010142105350D315925155D3F5
330
506
 94
        0
1001
ACAD
1000
AcadProxyRoundTripData
1071
      518
1071
   851991
1070
     0
  0
ACAD_PROXY_OBJECT
  5
529
330
0
100
AcDbProxyObject
 90
      499
 91
      574
 93
      148
310
0001014350535212511156915493D112535011
330
506
 94
        0
1001
ACAD
1000
AcadProxyRoundTripData
1071
      518
1071
   851991
1070
     0
  0
ACAD_PROXY_OBJECT
  5
52A
330
0
100
AcDbProxyObject
 90
      499
 91
      574
 93
      124
310
00010142905352105510D21254D3D012
330
506
 94
        0
1001
ACAD
1000
AcadProxyRoundTripData
1071
      518
1071
   851991
1070
     0
  0
ACAD_PROXY_OBJECT
  5
52B
330
0
100
AcDbProxyObject
 90
      499
 91
      574
 93
      148
310
00010143905354D25391D31152105513105661
330
506
 94
        0
1001
ACAD
1000
AcadProxyRoundTripData
1071
      518
1071
   851991
1070
     0
  0
ACAD_PROXY_OBJECT
  5
52C
330
0
100
AcDbProxyObject
 90
      499
 91
      574
 93
      124
310
00010142D0535115D1D193111254D423
330
506
 94
        0
1001
ACAD
1000
AcadProxyRoundTripData
1071
      518
1071
   851991
1070
     0
  0
ACAD_PROXY_OBJECT
  5
52D
330
0
100
AcDbProxyObject
 90
      499
 91
      574
 93
      100
310
00010142105350555513D213A2
330
506
 94
        0
1001
ACAD
1000
AcadProxyRoundTripData
1071
      518
1071
   851991
1070
     0
  0
ACAD_PROXY_OBJECT
  5
52E
330
0
100
AcDbProxyObject
 90
      499
 91
      574
 93
      116
310
000101425053521390D3D553951014
330
506
 94
        0
1001
ACAD
1000
AcadProxyRoundTripData
1071
      518
1071
   851991
1070
     0
  0
ACAD_PROXY_OBJECT
  5
52F
330
0
100
AcDbProxyObject
 90
      499
 91
      574
 93
      108
310
0001014210535213941493D29010
330
506
 94
        0
1001
ACAD
1000
AcadProxyRoundTripData
1071
      518
1071
   851991
1070
     0
  0
ACAD_PROXY_OBJECT
  5
530
330
0
100
AcDbProxyObject
 90
      499
 91
      574
 93
      108
310
0001014210535213951654115070
330
506
 94
        0
1001
ACAD
1000
AcadProxyRoundTripData
1071
      518
1071
   851991
1070
     0
  0
ACAD_PROXY_OBJECT
  5
531
330
0
100
AcDbProxyObject
 90
      499
 91
      574
 93
      108
310
000101421053521395925155D0F0
330
506
 94
        0
1001
ACAD
1000
AcadProxyRoundTripData
1071
      518
1071
   851991
1070
     0
  0
ACAD_PROXY_OBJECT
  5
532
330
0
100
AcDbProxyObject
 90
      499
 91
      574
 93
      140
310
00010143505354D150D51253D390D3D41666
330
506
 94
        0
1001
ACAD
1000
AcadProxyRoundTripData
1071
      518
1071
   851991
1070
     0
  0
ACAD_PROXY_OBJECT
  5
533
330
0
100
AcDbProxyObject
 90
      499
 91
      574
 93
      108
310
00010142105350D3141493D29030
330
506
 94
        0
1001
ACAD
1000
AcadProxyRoundTripData
1071
      518
1071
   851991
1070
     0
  0
ACAD_PROXY_OBJECT
  5
534
330
0
100
AcDbProxyObject
 90
      499
 91
      574
 93
      212
310
00010143905350555513D2105510D21493D500000000000002E406
330
506
 94
        0
1001
ACAD
1000
AcadProxyRoundTripData
1071
      517
1071
   851991
1070
     0
  0
ACAD_PROXY_OBJECT
  5
535
330
0
100
AcDbProxyObject
 90
      499
 91
      574
 93
      156
310
00010143905350555513D2105510D21111551010
330
506
 94
        0
1001
ACAD
1000
AcadProxyRoundTripData
1071
      518
1071
   851991
1070
     0
  0
ACAD_PROXY_OBJECT
  5
542
330
0
100
AcDbProxyObject
 90
      499
 91
      574
 93
      116
310
000101425053541051D15311539192
330
506
 94
        0
1001
ACAD
1000
AcadProxyRoundTripData
1071
      518
1071
   851991
1070
     0
  0
ACAD_PROXY_OBJECT
  5
543
330
0
100
AcDbProxyObject
 90
      499
 91
      574
 93
      108
310
000101421053555312539154D051
330
506
 94
        0
1001
ACAD
1000
AcadProxyRoundTripData
1071
      518
1071
   851991
1070
     0
  0
ACAD_PROXY_OBJECT
  5
544
330
0
100
AcDbProxyObject
 90
      499
 91
      574
 93
      108
310
000101421053559312539154D031
330
506
 94
        0
1001
ACAD
1000
AcadProxyRoundTripData
1071
      518
1071
   851991
1070
     0
  0
ACAD_PROXY_OBJECT
  5
545
330
0
100
AcDbProxyObject
 90
      499
 91
      574
 93
      140
310
00010143105354D1911254D41353D1115015
330
506
 94
        0
1001
ACAD
1000
AcadProxyRoundTripData
1071
      518
1071
   851991
1070
     0
  0
ACAD_PROXY_OBJECT
  5
546
330
0
100
AcDbProxyObject
 90
      499
 91
      574
 93
      172
310
00010142505354119255105391C1C052DC9A6F104400
330
506
 94
        0
1001
ACAD
1000
AcadProxyRoundTripData
1071
      517
1071
   851991
1070
     0
  0
ACAD_PROXY_OBJECT
  5
547
330
0
100
AcDbProxyObject
 90
      499
 91
      574
 93
      164
310
000101421053559150D05551C000000000000E03F4
330
506
 94
        0
1001
ACAD
1000
AcadProxyRoundTripData
1071
      517
1071
   851991
1070
     0
  0
ACAD_PROXY_OBJECT
  5
548
330
0
100
AcDbProxyObject
 90
      499
 91
      574
 93
      180
310
00010142905350931153911513D307B14AE47E17A843F0
330
506
 94
        0
1001
ACAD
1000
AcadProxyRoundTripData
1071
      517
1071
   851991
1070
     0
  0
ACAD_PROXY_OBJECT
  5
549
330
0
100
AcDbProxyObject
 90
      499
 91
      574
 93
      172
310
0001014250535293D25391D05407B14AE47E17A843F3
330
506
 94
        0
1001
ACAD
1000
AcadProxyRoundTripData
1071
      517
1071
   851991
1070
     0
  0
ACAD_PROXY_OBJECT
  5
54A
330
0
100
AcDbProxyObject
 90
      499
 91
      574
 93
      172
310
000101425053541192551311538000000FC83D797413
330
506
 94
        0
1001
ACAD
1000
AcadProxyRoundTripData
1071
      517
1071
   851991
1070
     0
  0
ACAD_PROXY_OBJECT
  5
54B
330
0
100
AcDbProxyObject
 90
      499
 91
      574
 93
      156
310
00010141D053559150D4D18000000000000E03F9
330
506
 94
        0
1001
ACAD
1000
AcadProxyRoundTripData
1071
      517
1071
   851991
1070
     0
  0
ACAD_PROXY_OBJECT
  5
54C
330
0
100
AcDbProxyObject
 90
      499
 91
      574
 93
      156
310
00010141D05354D19513D309A9999999999993F9
330
506
 94
        0
1001
ACAD
1000
AcadProxyRoundTripData
1071
      517
1071
   851991
1070
     0
  0
ACAD_PROXY_OBJECT
  5
54D
330
0
100
AcDbProxyObject
 90
      499
 91
      574
 93
      172
310
000101425053541192551513D307B14AE47E17A843F3
330
506
 94
        0
1001
ACAD
1000
AcadProxyRoundTripData
1071
      517
1071
   851991
1070
     0
  0
ACAD_PROXY_OBJECT
  5
54E
330
0
100
AcDbProxyObject
 90
      499
 91
      574
 93
      188
310
00010142D05354D151D192551513D307B14AE47E17A843F0
330
506
 94
        0
1001
ACAD
1000
AcadProxyRoundTripData
1071
      517
1071
   851991
1070
     0
  0
ACAD_PROXY_OBJECT
  5
54F
330
0
100
AcDbProxyObject
 90
      499
 91
      574
 93
      148
310
000101419053541311538000000FC83D797414
330
506
 94
        0
1001
ACAD
1000
AcadProxyRoundTripData
1071
      517
1071
   851991
1070
     0
  0
ACAD_PROXY_OBJECT
  5
550
330
0
100
AcDbProxyObject
 90
      499
 91
      574
 93
      172
310
00010142505354105391D513D301C052DC9A6F104408
330
506
 94
        0
1001
ACAD
1000
AcadProxyRoundTripData
1071
      517
1071
   851991
1070
     0
  0
ACAD_PROXY_OBJECT
  5
551
330
0
100
AcDbProxyObject
 90
      499
 91
      574
 93
      132
310
0001014114D2569140000000000002440C
330
506
 94
        0
1001
ACAD
1000
AcadProxyRoundTripData
1071
      517
1071
   851991
1070
     0
  0
ACAD_PROXY_OBJECT
  5
552
330
0
100
AcDbProxyObject
 90
      499
 91
      574
 93
      156
310
00010142905351D4941491519256005034153470
330
506
 94
        0
1001
ACAD
1000
AcadProxyRoundTripData
1071
      539
1071
   851991
1070
     0
  0
ACAD_PROXY_OBJECT
  5
553
330
0
100
AcDbProxyObject
 90
      499
 91
      574
 93
      314
310
00014080509646973745363616C650000000000003C2FC000000000000F0BF0000003F20F5E5D045
330
506
 94
        0
1001
ACAD
1000
AcadProxyRoundTripData
1071
      540
1071
   851991
1070
     0
  0
ACAD_PROXY_OBJECT
  5
554
330
0
100
AcDbProxyObject
 90
      499
 91
      574
 93
      322
310
0001408050A65646175526F74617465060B51153EC87E4FC182D4454FB2119C0060B51153EC8465039
330
506
 94
        0
1001
ACAD
1000
AcadProxyRoundTripData
1071
      540
1071
   851991
1070
     0
  0
ACAD_PROXY_OBJECT
  5
555
330
0
100
AcDbProxyObject
 90
      499
 91
      574
 93
      314
310
00014080509656461755477697374060B51153EC846500000000FC83D797C10000003F20F5E5D050
330
506
 94
        0
1001
ACAD
1000
AcadProxyRoundTripData
1071
      540
1071
   851991
1070
     0
  0
ACAD_PROXY_OBJECT
  5
556
330
0
100
AcDbProxyObject
 90
      499
 91
      574
 93
      294
310
000140C050A656467654F75747075740144F3B7F635ECB74A140A4817D41BDB1E5B1A5B995
330
506
 94
        0
1001
ACAD
1000
AcadProxyRoundTripData
1071
      541
1071
   851991
1070
     0
  0
ACAD_PROXY_OBJECT
  5
557
330
0
100
AcDbProxyObject
 90
      499
 91
      574
 93
      154
310
0001404050B6564697450726576696577406407F
330
506
 94
        0
1001
ACAD
1000
AcadProxyRoundTripData
1071
      542
1071
   851991
1070
     0
  0
ACAD_PROXY_OBJECT
  5
558
330
0
100
AcDbProxyObject
 90
      499
 91
      574
 93
      170
310
0001404050A666C6F77556C696E657342A3A00C0001E
330
506
 94
        0
1001
ACAD
1000
AcadProxyRoundTripData
1071
      542
1071
   851991
1070
     0
  0
ACAD_PROXY_OBJECT
  5
559
330
0
100
AcDbProxyObject
 90
      499
 91
      574
 93
      170
310
0001404050A666C6F77566C696E657342A3A00C0001E
330
506
 94
        0
1001
ACAD
1000
AcadProxyRoundTripData
1071
      542
1071
   851991
1070
     0
  0
ACAD_PROXY_OBJECT
  5
55A
330
0
100
AcDbProxyObject
 90
      499
 91
      574
 93
      322
310
0001408050A666C7366456E645261640000000000003C2FC000000000000F0BF0000003F20F5E5D079
330
506
 94
        0
1001
ACAD
1000
AcadProxyRoundTripData
1071
      540
1071
   851991
1070
     0
  0
ACAD_PROXY_OBJECT
  5
55B
330
0
100
AcDbProxyObject
 90
      499
 91
      574
 93
      246
310
000140C05086A6E33644D6F64650143E3BA24EB8A134A4817D3585B9D585B0
330
506
 94
        0
1001
ACAD
1000
AcadProxyRoundTripData
1071
      541
1071
   851991
1070
     0
  0
ACAD_PROXY_OBJECT
  5
55C
330
0
100
AcDbProxyObject
 90
      499
 91
      574
 93
      294
310
000140C050A6A6E33644F75747075740144F3B7F635ECB74A140A4817D41BDB1E5B1A5B994
330
506
 94
        0
1001
ACAD
1000
AcadProxyRoundTripData
1071
      541
1071
   851991
1070
     0
  0
ACAD_PROXY_OBJECT
  5
55D
330
0
100
AcDbProxyObject
 90
      499
 91
      574
 93
      306
310
000140805086C656E675065726300000000002016D002D431CEBE2361A3F0000003F20F5E5D065
330
506
 94
        0
1001
ACAD
1000
AcadProxyRoundTripData
1071
      540
1071
   851991
1070
     0
  0
ACAD_PROXY_OBJECT
  5
55E
330
0
100
AcDbProxyObject
 90
      499
 91
      574
 93
      266
310
0001408050B6D61737344656E7369747942D431CEBE2361A3F0000003F20F5E5D07F
330
506
 94
        0
1001
ACAD
1000
AcadProxyRoundTripData
1071
      540
1071
   851991
1070
     0
  0
ACAD_PROXY_OBJECT
  5
55F
330
0
100
AcDbProxyObject
 90
      499
 91
      574
 93
      186
310
000140805096D617373546869636BA0000003F20F5E5D05A
330
506
 94
        0
1001
ACAD
1000
AcadProxyRoundTripData
1071
      540
1071
   851991
1070
     0
  0
ACAD_PROXY_OBJECT
  5
560
330
0
100
AcDbProxyObject
 90
      499
 91
      574
 93
      230
310
000140C05086D6173735479706501436F2AB64A14CA4817D4DA195B1B3
330
506
 94
        0
1001
ACAD
1000
AcadProxyRoundTripData
1071
      541
1071
   851991
1070
     0
  0
ACAD_PROXY_OBJECT
  5
561
330
0
100
AcDbProxyObject
 90
      499
 91
      574
 93
      242
310
000140805086F667366446973744000000FC83D797C10000003F20F5E5D075
330
506
 94
        0
1001
ACAD
1000
AcadProxyRoundTripData
1071
      540
1071
   851991
1070
     0
  0
ACAD_PROXY_OBJECT
  5
562
330
0
100
AcDbProxyObject
 90
      499
 91
      574
 93
      258
310
0001408050A7072696D52616469757342D431CEBE2361A3F0000003F20F5E5D050
330
506
 94
        0
1001
ACAD
1000
AcadProxyRoundTripData
1071
      540
1071
   851991
1070
     0
  0
ACAD_PROXY_OBJECT
  5
563
330
0
100
AcDbProxyObject
 90
      499
 91
      574
 93
      194
310
0001408050A7072696D546F70526164A0000003F20F5E5D040
330
506
 94
        0
1001
ACAD
1000
AcadProxyRoundTripData
1071
      540
1071
   851991
1070
     0
  0
ACAD_PROXY_OBJECT
  5
564
330
0
100
AcDbProxyObject
 90
      499
 91
      574
 93
      266
310
0001408050B7072696D5475626552616442D431CEBE2361A3F0000003F20F5E5D07F
330
506
 94
        0
1001
ACAD
1000
AcadProxyRoundTripData
1071
      540
1071
   851991
1070
     0
  0
ACAD_PROXY_OBJECT
  5
565
330
0
100
AcDbProxyObject
 90
      499
 91
      574
 93
      258
310
0001408050A7072696D4865696768744000000FC83D797C10000003F20F5E5D050
330
506
 94
        0
1001
ACAD
1000
AcadProxyRoundTripData
1071
      540
1071
   851991
1070
     0
  0
ACAD_PROXY_OBJECT
  5
566
330
0
100
AcDbProxyObject
 90
      499
 91
      574
 93
      250
310
000140805097072696D5374416E678182D4454FB2119C0060B51153EC8465010
330
506
 94
        0
1001
ACAD
1000
AcadProxyRoundTripData
1071
      540
1071
   851991
1070
     0
  0
ACAD_PROXY_OBJECT
  5
567
330
0
100
AcDbProxyObject
 90
      499
 91
      574
 93
      322
310
0001408050A7072696D456E64416E67060B51153EC846500182D4454FB2119C0060B51153EC8465039
330
506
 94
        0
1001
ACAD
1000
AcadProxyRoundTripData
1071
      540
1071
   851991
1070
     0
  0
ACAD_PROXY_OBJECT
  5
568
330
0
100
AcDbProxyObject
 90
      499
 91
      574
 93
      242
310
000140805087265765374416E678182D4454FB2119C0060B51153EC8465019
330
506
 94
        0
1001
ACAD
1000
AcadProxyRoundTripData
1071
      540
1071
   851991
1070
     0
  0
ACAD_PROXY_OBJECT
  5
569
330
0
100
AcDbProxyObject
 90
      499
 91
      574
 93
      314
310
00014080509726576456E64416E67060B51153EC846500182D4454FB2119C0060B51153EC8465010
330
506
 94
        0
1001
ACAD
1000
AcadProxyRoundTripData
1071
      540
1071
   851991
1070
     0
  0
ACAD_PROXY_OBJECT
  5
56A
330
0
100
AcDbProxyObject
 90
      499
 91
      574
 93
      194
310
0001404050C7266736655706174636865734290139C0C0002D
330
506
 94
        0
1001
ACAD
1000
AcadProxyRoundTripData
1071
      542
1071
   851991
1070
     0
  0
ACAD_PROXY_OBJECT
  5
56B
330
0
100
AcDbProxyObject
 90
      499
 91
      574
 93
      194
310
0001404050C7266736656706174636865734290139C0C0002D
330
506
 94
        0
1001
ACAD
1000
AcadProxyRoundTripData
1071
      542
1071
   851991
1070
     0
  0
ACAD_PROXY_OBJECT
  5
56C
330
0
100
AcDbProxyObject
 90
      499
 91
      574
 93
      246
310
000140C0508747562654D6F64650143E3BA24EB8A134A4817D3585B9D585B0
330
506
 94
        0
1001
ACAD
1000
AcadProxyRoundTripData
1071
      541
1071
   851991
1070
     0
  0
ACAD_PROXY_OBJECT
  5
56D
330
0
100
AcDbProxyObject
 90
      499
 91
      574
 93
      274
310
0001408050C747562654469616D6574657242D431CEBE2361A3F0000003F20F5E5D055
330
506
 94
        0
1001
ACAD
1000
AcadProxyRoundTripData
1071
      540
1071
   851991
1070
     0
  0
ACAD_PROXY_OBJECT
  5
56E
330
0
100
AcDbProxyObject
 90
      499
 91
      574
 93
      130
310
00014040509696E746572506F6C79A4057
330
506
 94
        0
1001
ACAD
1000
AcadProxyRoundTripData
1071
      542
1071
   851991
1070
     0
  0
ACAD_PROXY_OBJECT
  5
56F
330
0
100
AcDbProxyObject
 90
      499
 91
      574
 93
      162
310
0001404050D696E746572417567506F696E74A405C
330
506
 94
        0
1001
ACAD
1000
AcadProxyRoundTripData
1071
      542
1071
   851991
1070
     0
  0
ACAD_PROXY_OBJECT
  5
570
330
0
100
AcDbProxyObject
 90
      499
 91
      574
 93
      238
310
000140C0509696E7465727472696D014365EF257ECA108A4817D09BDD1A3
330
506
 94
        0
1001
ACAD
1000
AcadProxyRoundTripData
1071
      541
1071
   851991
1070
     0
  0
ACAD_PROXY_OBJECT
  5
571
330
0
100
AcDbProxyObject
 90
      499
 91
      574
 93
      230
310
000140C0509696E7465727479706501433136344A150A4817D51C9A5B5
330
506
 94
        0
1001
ACAD
1000
AcadProxyRoundTripData
1071
      541
1071
   851991
1070
     0
  0
ACAD_PROXY_OBJECT
  5
572
330
0
100
AcDbProxyObject
 90
      499
 91
      574
 93
      146
310
0001404050A636F726E65727472696D4064063
330
506
 94
        0
1001
ACAD
1000
AcadProxyRoundTripData
1071
      542
1071
   851991
1070
     0
  0
ACAD_PROXY_OBJECT
  5
573
330
0
100
AcDbProxyObject
 90
      499
 91
      574
 93
      130
310
000140405086F6673666B6565704064046
330
506
 94
        0
1001
ACAD
1000
AcadProxyRoundTripData
1071
      542
1071
   851991
1070
     0
  0
ACAD_PROXY_OBJECT
  5
574
330
0
100
AcDbProxyObject
 90
      499
 91
      574
 93
      146
310
0001404050A70726F6A4F757470757440A40E3
330
506
 94
        0
1001
ACAD
1000
AcadProxyRoundTripData
1071
      542
1071
   851991
1070
     0
  0
ACAD_PROXY_OBJECT
  5
575
330
0
100
AcDbProxyObject
 90
      499
 91
      574
 93
      270
310
000140C050D70726F6A446972656374696F6E014372F7AB6C0A124A4817DD92595DC
330
506
 94
        0
1001
ACAD
1000
AcadProxyRoundTripData
1071
      541
1071
   851991
1070
     0
  0
ACAD_PROXY_OBJECT
  5
576
330
0
100
AcDbProxyObject
 90
      499
 91
      574
 93
      130
310
0001404050870726F6A4B6565704064056
330
506
 94
        0
1001
ACAD
1000
AcadProxyRoundTripData
1071
      542
1071
   851991
1070
     0
  0
ACAD_PROXY_OBJECT
  5
577
330
0
100
AcDbProxyObject
 90
      499
 91
      574
 93
      278
310
000140C050B70726F6A53706163696E670144237164D2CA13CA4817D3DC1D1A5B585B1
330
506
 94
        0
1001
ACAD
1000
AcadProxyRoundTripData
1071
      541
1071
   851991
1070
     0
  0
ACAD_PROXY_OBJECT
  5
578
330
0
100
AcDbProxyObject
 90
      499
 91
      574
 93
      250
310
0001408050970726F6A54617065728182D4454FB21F9BF060B51153EC87E4FE5
330
506
 94
        0
1001
ACAD
1000
AcadProxyRoundTripData
1071
      540
1071
   851991
1070
     0
  0
ACAD_PROXY_OBJECT
  5
579
330
0
100
AcDbProxyObject
 90
      499
 91
      574
 93
      130
310
00014040508647261674B656570406406D
330
506
 94
        0
1001
ACAD
1000
AcadProxyRoundTripData
1071
      542
1071
   851991
1070
     0
  0
ACAD_PROXY_OBJECT
  5
57A
330
0
100
AcDbProxyObject
 90
      499
 91
      574
 93
      302
310
000140C050F647261674F7269656E746174696F6E0143E590243F0A138A4817D39BDC9B585B2
330
506
 94
        0
1001
ACAD
1000
AcadProxyRoundTripData
1071
      541
1071
   851991
1070
     0
  0
ACAD_PROXY_OBJECT
  5
57B
330
0
100
AcDbProxyObject
 90
      499
 91
      574
 93
      286
310
000140C050E647261675472616E736974696F6E0143A3B6A4DE0A10CA4817DCD0D85B195
330
506
 94
        0
1001
ACAD
1000
AcadProxyRoundTripData
1071
      541
1071
   851991
1070
     0
  0
ACAD_PROXY_OBJECT
  5
57C
330
0
100
AcDbProxyObject
 90
      499
 91
      574
 93
      318
310
000140C051061646A757374436F6E74696E7569747901442F746C2F778A14CA4817D4DB5BDBDD1A0
330
506
 94
        0
1001
ACAD
1000
AcadProxyRoundTripData
1071
      541
1071
   851991
1070
     0
  0
ACAD_PROXY_OBJECT
  5
57D
330
0
100
AcDbProxyObject
 90
      499
 91
      574
 93
      138
310
0001404050A61646A7573744B656570A4067
330
506
 94
        0
1001
ACAD
1000
AcadProxyRoundTripData
1071
      542
1071
   851991
1070
     0
  0
ACAD_PROXY_OBJECT
  5
57E
330
0
100
AcDbProxyObject
 90
      499
 91
      574
 93
      250
310
0001408050972756C65576964746842D431CEBE2361A3F0000003F20F5E5D064
330
506
 94
        0
1001
ACAD
1000
AcadProxyRoundTripData
1071
      540
1071
   851991
1070
     0
  0
ACAD_PROXY_OBJECT
  5
57F
330
0
100
AcDbProxyObject
 90
      499
 91
      574
 93
      274
310
0001408050C616E616C797A65447261667421D139D28615ED8FE060B51153EC842500D
330
506
 94
        0
1001
ACAD
1000
AcadProxyRoundTripData
1071
      540
1071
   851991
1070
     0
  0
ACAD_PROXY_OBJECT
  5
580
330
0
100
AcDbProxyObject
 90
      499
 91
      574
 93
      210
310
0001404050F616E616C797A654E756D4C696E65734163FDFC00006
330
506
 94
        0
1001
ACAD
1000
AcadProxyRoundTripData
1071
      542
1071
   851991
1070
     0
  0
ACAD_PROXY_OBJECT
  5
581
330
0
100
AcDbProxyObject
 90
      499
 91
      574
 93
      202
310
00014040512616E616C797A65526F746174654C696E6573A4040
330
506
 94
        0
1001
ACAD
1000
AcadProxyRoundTripData
1071
      542
1071
   851991
1070
     0
  0
ACAD_PROXY_OBJECT
  5
582
330
0
100
AcDbProxyObject
 90
      499
 91
      574
 93
      210
310
00014040513616E616C797A65446973706C61794C696E6573A4046
330
506
 94
        0
1001
ACAD
1000
AcadProxyRoundTripData
1071
      542
1071
   851991
1070
     0
  0
ACAD_PROXY_OBJECT
  5
583
330
0
100
AcDbProxyObject
 90
      499
 91
      574
 93
      258
310
00014040519616E616C797A655472616E736C7563656E7453757266616365A4042
330
506
 94
        0
1001
ACAD
1000
AcadProxyRoundTripData
1071
      542
1071
   851991
1070
     0
  0
ACAD_PROXY_OBJECT
  5
58C
330
0
100
AcDbProxyObject
 90
      499
 91
      574
 93
      698
310
0001000000009AA6A9AA4051E4D6F6E204F63742031332030303A33373A353920323030382028555443290141CD8B8D0B8C0B8C405184D6F6E204F63742031332030393A34313A333120323030380141CD8B8D0B8C0B8C76
330
506
330
58D
330
58E
330
590
330
0
 94
        0
1001
ACAD
1000
AcadProxyRoundTripData
1071
      548
1071
   851991
1070
     0
  0
ACAD_PROXY_OBJECT
  5
58D
330
0
100
AcDbProxyObject
 90
      499
 91
      574
 93
       70
310
0001AAA80820000002
330
506
330
58D
330
58D
 94
        0
1001
ACAD
1000
AcadProxyRoundTripData
1071
      549
1071
   851991
1070
     0
  0
ACAD_PROXY_OBJECT
  5
58E
330
0
100
AcDbProxyObject
 90
      499
 91
      574
 93
       48
310
00010000000011
330
506
330
0
330
58F
330
0
330
0
 94
        0
1001
ACAD
1000
AcadProxyRoundTripData
1071
      550
1071
   851991
1070
     0
  0
ACAD_PROXY_OBJECT
  5
58F
330
0
100
AcDbProxyObject
 90
      499
 91
      574
 93
       40
310
000100AAAA06
330
506
330
0
 94
        0
1001
ACAD
1000
AcadProxyRoundTripData
1071
      551
1071
   851991
1070
     0
  0
ACAD_PROXY_OBJECT
  5
591
330
0
100
AcDbProxyObject
 90
      499
 91
      574
 93
      124
310
00010142905350D3D39114D414D69050
330
506
 94
        0
1001
ACAD
1000
AcadProxyRoundTripData
1071
      518
1071
   851991
1070
     0
  0
ACAD_PROXY_OBJECT
  5
592
330
0
100
AcDbProxyObject
 90
      499
 91
      574
 93
      124
310
000101429053549553115353D1115010
330
506
 94
        0
1001
ACAD
1000
AcadProxyRoundTripData
1071
      518
1071
   851991
1070
     0
  0
ACAD_PROXY_OBJECT
  5
593
330
0
100
AcDbProxyObject
 90
      499
 91
      574
 93
      108
310
00010142105354D2D353D1115011
330
506
 94
        0
1001
ACAD
1000
AcadProxyRoundTripData
1071
      518
1071
   851991
1070
     0
  0
ACAD_PROXY_OBJECT
  5
594
330
0
100
AcDbProxyObject
 90
      499
 91
      574
 93
      140
310
000101435053511253511254D41353D11160
330
506
 94
        0
1001
ACAD
1000
AcadProxyRoundTripData
1071
      518
1071
   851991
1070
     0
  0
ACAD_PROXY_OBJECT
  5
595
330
0
100
AcDbProxyObject
 90
      499
 91
      574
 93
      180
310
00010142905354D2D05391D513D3000000000000010400
330
506
 94
        0
1001
ACAD
1000
AcadProxyRoundTripData
1071
      517
1071
   851991
1070
     0
  0
ACAD_PROXY_OBJECT
  5
596
330
0
100
AcDbProxyObject
 90
      499
 91
      574
 93
      164
310
00010142505354D2D4D516531140505434F4E542A1
330
506
 94
        0
1001
ACAD
1000
AcadProxyRoundTripData
1071
      539
1071
   851991
1070
     0
  0
ACAD_PROXY_OBJECT
  5
597
330
0
100
AcDbProxyObject
 90
      499
 91
      574
 93
      108
310
00010142105350D3511112535010
330
506
 94
        0
1001
ACAD
1000
AcadProxyRoundTripData
1071
      518
1071
   851991
1070
     0
  0
ACAD_PROXY_OBJECT
  5
598
330
0
100
AcDbProxyObject
 90
      499
 91
      574
 93
      108
310
00010142105350D3D35414D59010
330
506
 94
        0
1001
ACAD
1000
AcadProxyRoundTripData
1071
      518
1071
   851991
1070
     0
  0
ACAD_PROXY_OBJECT
  5
599
330
0
100
AcDbProxyObject
 90
      499
 91
      574
 93
      164
310
0001014290535410549514D4119600504CADFB0C21
330
506
 94
        0
1001
ACAD
1000
AcadProxyRoundTripData
1071
      539
1071
   851991
1070
     0
  0
ACAD_PROXY_OBJECT
  5
59A
330
0
100
AcDbProxyObject
 90
      499
 91
      574
 93
      220
310
0001014350535513D3D31093D11654119600508C2B0D9CEDEC3DEA83
330
506
 94
        0
1001
ACAD
1000
AcadProxyRoundTripData
1071
      539
1071
   851991
1070
     0
  0
ACAD_PROXY_OBJECT
  5
59B
330
0
100
AcDbProxyObject
 90
      499
 91
      574
 93
      116
310
000101425053511254D410D3D39014
330
506
 94
        0
1001
ACAD
1000
AcadProxyRoundTripData
1071
      518
1071
   851991
1070
     0
  0
ACAD_PROXY_OBJECT
  5
59C
330
0
100
AcDbProxyObject
 90
      499
 91
      574
 93
      108
310
00010142105350D3D39114D41010
330
506
 94
        0
1001
ACAD
1000
AcadProxyRoundTripData
1071
      518
1071
   851991
1070
     0
  0
ACAD_PROXY_OBJECT
  5
59D
330
0
100
AcDbProxyObject
 90
      499
 91
      574
 93
      124
310
0001014290535490511114D414D69190
330
506
 94
        0
1001
ACAD
1000
AcadProxyRoundTripData
1071
      518
1071
   851991
1070
     0
  0
ACAD_PROXY_OBJECT
  5
5A3
330
0
100
AcDbProxyObject
 90
      499
 91
      574
 93
      132
310
00010142D05050555513D4D3D315915010
330
506
 94
        0
1001
ACAD
1000
AcadProxyRoundTripData
1071
      518
1071
   851991
1070
     0
  0
ACAD_PROXY_OBJECT
  5
5A4
330
0
100
AcDbProxyObject
 90
      499
 91
      574
 93
      156
310
00010143905050555513D054D4D1535093115010
330
506
 94
        0
1001
ACAD
1000
AcadProxyRoundTripData
1071
      518
1071
   851991
1070
     0
  0
ACAD_PROXY_OBJECT
  5
5A5
330
0
100
AcDbProxyObject
 90
      499
 91
      574
 93
      148
310
00010143505055925155D49154D513D4915010
330
506
 94
        0
1001
ACAD
1000
AcadProxyRoundTripData
1071
      518
1071
   851991
1070
     0
  0
ACAD_PROXY_OBJECT
  5
5A6
330
0
100
AcDbProxyObject
 90
      499
 91
      574
 93
      124
310
00010142D050525394D15495105094E4
330
506
 94
        0
1001
ACAD
1000
AcadProxyRoundTripData
1071
      518
1071
   851991
1070
     0
  0
ACAD_PROXY_OBJECT
  5
5A7
330
0
100
AcDbProxyObject
 90
      499
 91
      574
 93
      148
310
00010143505054D0D153915554111055115010
330
506
 94
        0
1001
ACAD
1000
AcadProxyRoundTripData
1071
      518
1071
   851991
1070
     0
  0
ACAD_PROXY_OBJECT
  5
5A8
330
0
100
AcDbProxyObject
 90
      499
 91
      574
 93
      172
310
00010143105054D5509054D4D3541196005035355420
330
506
 94
        0
1001
ACAD
1000
AcadProxyRoundTripData
1071
      539
1071
   851991
1070
     0
  0
ACAD_PROXY_OBJECT
  5
5A9
330
0
100
AcDbProxyObject
 90
      499
 91
      574
 93
      172
310
00010142905054D0D15391541196005055343454E450
330
506
 94
        0
1001
ACAD
1000
AcadProxyRoundTripData
1071
      539
1071
   851991
1070
     0
  0
ACAD_PROXY_OBJECT
  5
5AA
330
0
100
AcDbProxyObject
 90
      499
 91
      574
 93
      148
310
00010143505350555513D313D0D2D4D0D39014
330
506
 94
        0
1001
ACAD
1000
AcadProxyRoundTripData
1071
      518
1071
   851991
1070
     0
  0
ACAD_PROXY_OBJECT
  5
5AF
330
0
100
AcDbProxyObject
 90
      499
 91
      574
 93
       32
310
0001000000
330
506
340
5AC
330
5B1
330
5AC
 94
        0
1001
ACAD
1000
AcadProxyRoundTripData
1071
      557
1071
   851991
1070
     0
  0
ACAD_PROXY_OBJECT
  5
5B0
330
0
100
AcDbProxyObject
 90
      499
 91
      574
 93
       18
310
000180
330
506
 94
        0
1001
ACAD
1000
AcadProxyRoundTripData
1071
      558
1071
   851991
1070
     0
  0
ACAD_PROXY_OBJECT
  5
5B1
330
0
100
AcDbProxyObject
 90
      499
 91
      574
 93
      111
310
0001014150D5930C0D5050055401
330
506
330
5AF
330
5B0
 94
        0
1001
ACAD
1000
AcadProxyRoundTripData
1071
      559
1071
   851991
1070
     0
  0
ACAD_PROXY_OBJECT
  5
5B2
330
0
100
AcDbProxyObject
 90
      499
 91
      574
 93
       40
310
000100AAAA00
330
506
330
5B1
 94
        0
1001
ACAD
1000
AcadProxyRoundTripData
1071
      560
1071
   851991
1070
     0
  0
ACAD_PROXY_OBJECT
  5
5B3
330
0
100
AcDbProxyObject
 90
      499
 91
      574
 93
      108
310
0001901422000000000000AAAAAD
330
506
330
5B4
330
5B4
330
5B4
330
5B4
330
5B4
330
0
 94
        0
1001
ACAD
1000
AcadProxyRoundTripData
1071
      561
1071
   851991
1070
     0
  0
ACAD_PROXY_OBJECT
  5
5B4
330
0
100
AcDbProxyObject
 90
      499
 91
      574
 93
       51
310
00010000AAAA98
330
506
330
5B3
330
5B1
 94
        0
1001
ACAD
1000
AcadProxyRoundTripData
1071
      562
1071
   851991
1070
     0
  0
ACAD_PROXY_OBJECT
  5
5C5
330
0
100
AcDbProxyObject
 90
      499
 91
      574
 93
      140
310
00010142105350D55494D5110050349534F6
330
506
 94
        0
1001
ACAD
1000
AcadProxyRoundTripData
1071
      539
1071
   851991
1070
     0
  0
DICTIONARY
  5
4FE
102
{ACAD_REACTORS
330
4FD
102
}
330
4FD
100
AcDbDictionary
  3
DWGSETTINGS
350
4FF
  0
ACAD_PROXY_OBJECT
  5
5C3
102
{ACAD_REACTORS
330
4FD
102
}
330
4FD
100
AcDbProxyObject
 90
      499
 91
      574
 93
    12938
310
41102491013041105357CC1074CA404C504414D5F31439329013241105357CC9054CA404CD04414D5F33419199013441105357CD103466404D504414D5F3540D199013641105357CD90248E404DD04414D5F37411199013841105357CE101466404E504414D5F397F641102324141505357CC4C1074CA408D10505414D5F31
310
3140D19902495041505357CC4C9074C902408C13905414D5F304E41D32902314E41505357CC5390E4CA408C93905414D5F324E41532902334E41505357CCD3906466408D13905414D5F344E40D19902354E41505357CD53903466408D93905414D5F364E40923902374E41505357CDD3904466408E13905414D5F384E40519
310
902394E41505357CE539FD90440CC9053906414D5F31304E41D3290334414E41905357CC4C5390346640D25413906414D5F31324E41D32409044B4C494E41505357D0D3101465094112539193D08414D5F50415245464111942D055241484D3541905357D093D49074C9094115925155D08414D5F56494557534051942D064
310
24548494E4441905357D253959FD90D415514905253105414D5F545240D194250348494441905357D212511074650940D59254D06414D5F56495341D324250650415244494D42505357D410549112535034650941949151911253509414D5F52454644494D4111942553411092139590139CFFFFFFFF415092139594D06424
310
548494E44CFFFFFFFF411093D48C9055241484D3540519411093D48CD055241484D3540923411093D48D5055241484D35CFFFFFFFF4110D0530C90134CFFFFFFFF4110D0530CD0134409234110D0530D5013441D324110D0530DD0134479464110D1539390137CFFFFFFFF4110D15395D0137CFFFFFFFF4110D312539044B4
310
C494ECFFFFFFFF4110D3D38C50130CFFFFFFFF4110D3D38C90131CFFFFFFFF4110D3D38CD0132CFFFFFFFF4110D3D38D10132CFFFFFFFF411111551050134CFFFFFFFF4111125051D0135CFFFFFFFF411112531250135CFFFFFFFF411112535410650415244494DCFFFFFFFF411112535490652454644494DCFFFFFFFF4111
310
91535390138CFFFFFFFF4151915354139013840CFFFFFFFF4151915354D41023441CFFFFFFFF4151915354D5102344140D1941519153559390132CFFFFFFFF4151915355951013240D194112105510D0138CFFFFFFFF411212511390133CFFFFFFFF4112125115D0133CFFFFFFFF411213125390134CFFFFFFFF411213D0D3
310
90137CFFFFFFFF411213D0D5D0137CFFFFFFFF4112539193D04494E464FCFFFFFFFF411311505110135CFFFFFFFF419397D0921395902394ECFFFFFFFF419397D0D3D38C502304ECFFFFFFFF419397D0D3D38C902314ECFFFFFFFF419397D0D3D38CD02324ECFFFFFFFF419397D0D3D38D102324ECFFFFFFFF419397D0D153
310
93902374ECFFFFFFFF419397D0D15395D02374ECFFFFFFFF419397D1125312502354ECFFFFFFFF419397D2105510D02384ECFFFFFFFF419397D2125113902334ECFFFFFFFF419397D2125115D02334ECFFFFFFFF419397D3115051102354ECFFFFFFFF419397D391D25410349504ECFFFFFFFF419397D412105390334414EC
310
FFFFFFFF419397D510D3D3902304ECFFFFFFFF419397D5121312502344ECFFFFFFFF419397D5131153902304ECFFFFFFFF419397D594131250332414ECFFFFFFFF411391D2541024950CFFFFFFFF411410530C9055241484D3540519411410530CD055241484D3540923411410530D5055241484D35CFFFFFFFF4114121053
310
9023441CFFFFFFFF411413D4D390135CFFFFFFFF411490D1D390137CFFFFFFFF411490D1D5D0137CFFFFFFFF4114D09492D0134CFFFFFFFF4114D150D510134CFFFFFFFF4114D6508CD013540923411354D6535013540923411510D3D390130CFFFFFFFF411512131250134CFFFFFFFF411512550C9055241484D354051941
310
1512550CD055241484D3540923411512550D5055241484D35CFFFFFFFF411513115390130CFFFFFFFF415514905253105545241494CCFFFFFFFF411514931250134CFFFFFFFF411516150C5013640D19411516150C9013640D19411516150CD0136CFFFFFFFF411516150D5013641D32411516150DD0136479464115925155
310
D0456494557CFFFFFFFF4115915112103484944CFFFFFFFF4115915115903564953CFFFFFFFF41159413125023241CFFFFFFFF411692569050134CFFFFFFFFAA9FD404FE4290E4C9074C906465054C904465034650248D014651E519FD80
340
16
340
16
340
16
340
5C6
340
16
340
16
340
16
340
5C7
340
16
340
16
340
5C7
340
5C8
340
16
340
16
340
16
340
16
340
5C6
340
16
340
16
340
16
340
5C7
340
16
340
16
340
5C7
340
5C8
340
16
340
5C9
340
16
340
16
340
16
340
16
340
16
340
5C6
340
16
340
16
340
16
340
15
340
15
340
15
340
15
340
15
340
15
340
15
340
15
340
15
340
5CA
340
15
340
15
340
15
340
15
340
15
340
15
340
15
340
15
340
15
340
15
340
15
340
15
340
15
340
16
340
15
340
15
340
15
340
15
340
5CB
340
15
340
15
340
5CA
340
15
340
15
340
15
340
15
340
15
340
15
340
15
340
15
340
5CA
340
15
340
15
340
15
340
5CB
340
15
340
15
340
15
340
15
340
15
340
15
340
15
340
15
340
15
340
15
340
15
340
15
340
15
340
15
340
5CA
340
15
340
15
340
15
340
15
340
15
340
15
340
15
340
15
340
15
340
15
340
15
340
15
340
15
340
15
340
15
340
15
340
15
340
15
340
15
340
15
340
15
340
15
340
5CE
 94
        0
1001
ACAD
1000
AcadProxyRoundTripData
1071
      570
1071
   851991
1070
     0
  0
ACAD_PROXY_OBJECT
  5
5D5
102
{ACAD_REACTORS
330
5D0
102
}
330
5D0
100
AcDbProxyObject
 90
      499
 91
      574
 93
      253
310
43D1444494D454E53494F4E2C414D44545F2A5F44494D404A9012A404A9012A9
 94
        0
1001
ACAD
1000
AcadProxyRoundTripData
1071
      571
1071
   851991
1070
     0
  0
ACAD_PROXY_OBJECT
  5
5D4
102
{ACAD_REACTORS
330
5D0
102
}
330
5D0
100
AcDbProxyObject
 90
      499
 91
      574
 93
      181
310
43D012A42D05357D191504B505357CA9012A404A9012AC
 94
        0
1001
ACAD
1000
AcadProxyRoundTripData
1071
      571
1071
   851991
1070
     0
  0
ACAD_PROXY_OBJECT
  5
5D1
102
{ACAD_REACTORS
330
5D0
102
}
330
5D0
100
AcDbProxyObject
 90
      499
 91
      574
 93
      133
310
43D054841544348404A9012A404A9012A9
 94
        0
1001
ACAD
1000
AcadProxyRoundTripData
1071
      571
1071
   851991
1070
     0
  0
ACAD_PROXY_OBJECT
  5
5D2
102
{ACAD_REACTORS
330
5D0
102
}
330
5D0
100
AcDbProxyObject
 90
      499
 91
      574
 93
      549
310
43D044C494E4549CE0B0E138B0A8B4E0B0A8B4E138B105357CE0B105357CE138B0A8B505357CE0B0A8B505357CE139012A404A910494E534552542C5354445041525432449
 94
        0
1001
ACAD
1000
AcadProxyRoundTripData
1071
      571
1071
   851991
1070
     0
  0
ACAD_PROXY_OBJECT
  5
5D6
102
{ACAD_REACTORS
330
5D0
102
}
330
5D0
100
AcDbProxyObject
 90
      499
 91
      574
 93
      181
310
43D0341524341105357CD5012A404C906494E534552545
 94
        0
1001
ACAD
1000
AcadProxyRoundTripData
1071
      571
1071
   851991
1070
     0
  0
ACAD_PROXY_OBJECT
  5
5D3
102
{ACAD_REACTORS
330
5D0
102
}
330
5D0
100
AcDbProxyObject
 90
      499
 91
      574
 93
     1053
310
43D7841434D46434652414D452C41434D444154554D5441524745542C41434D444154554D49442C41434D57454C4453594D2C41434D5355524653594D2C41434D4645415449442C41434D504152545245462C41434D42414C4C4F4F4E2C414D44544544474553594D2C414D47534352455743414C435441424C45404A9012A
310
404A9012AA
 94
        0
1001
ACAD
1000
AcadProxyRoundTripData
1071
      571
1071
   851991
1070
     0
  0
LAYER_INDEX
  5
5D8
102
{ACAD_REACTORS
330
5D7
102
}
330
5D7
100
AcDbIndex
 40
2454757.553938796
100
AcDbLayerIndex
  8
0
360
5D9
 90
        0
  8
10
360
5DA
 90
      236
  8
12
360
5DB
 90
       14
  8
16
360
5DC
 90
        2
  8
19
360
5DD
 90
        1
  8
DEFPOINTS
360
94B
 90
        0
  8
17
360
94C
 90
        4
  0
ACAD_PROXY_OBJECT
  5
5B8
102
{ACAD_REACTORS
330
5B7
102
}
330
5B7
100
AcDbProxyObject
 90
      499
 91
      574
 93
      187
310
057356C1D5C406406AA8FFFFFFFF0AE50543564C30354055
330
1F
330
0
330
5B1
 94
        0
1001
ACAD
1000
AcadProxyRoundTripData
1071
      564
1071
   851991
1070
     0
  0
ACAD_PROXY_OBJECT
  5
4FF
102
{ACAD_REACTORS
330
4FE
102
}
330
4FE
100
AcDbProxyObject
 90
      499
 91
      574
 93
     2270
310
4050B44574753455454494E4753A1286829C8E82A4A482B282A106660F8686AF86C608321A2A720A723A0A849A1ABE1C983E18999AA0C868A9C889282940000000000000488083A1A2A72224A0A9A0A8418983E19183E199820E868A9C8892A6A894000000000000010808321A2A72622A7250000000000000122020C868A9
310
C9E8C8C940000000000000488084A1A624A720A92920ACA0A8418983E19183E19982108698929C8AA8B2A082A0AB098929C8A84A22BA3AAA9A1A0A622A50A0E9882A6A89E849482A02608426A0A5A2AB24A2ABA7E8120CA0A68682988A0C00800010652455649534941501304154D0D0531150540CC4E8C50954494D455354
310
414D504A03D0A805197267341441ED115D1D4D15515125391D4D153911F5
 94
        0
1001
ACAD
1000
AcadProxyRoundTripData
1071
      512
1071
   851991
1070
     0
  0
IDBUFFER
  5
5D9
330
0
100
AcDbIdBuffer
  0
IDBUFFER
  5
5DA
330
0
100
AcDbIdBuffer
330
7A5
330
7A6
330
7A8
330
7A9
330
7AB
330
7AC
330
7AD
330
7AE
330
7AF
330
7B0
330
7B1
330
7B2
330
7B3
330
7B4
330
7B5
330
7B6
330
7B7
330
7B8
330
7B9
330
7BA
330
7BC
330
7BD
330
7C0
330
7C1
330
7C5
330
7C6
330
7C7
330
7C8
330
7C9
330
7CA
330
7CB
330
7CC
330
7CD
330
7CE
330
7CF
330
7D2
330
7D3
330
7D5
330
7D6
330
7D7
330
7D8
330
7D9
330
7DA
330
7DB
330
7DC
330
7DD
330
7DF
330
7E2
330
7E3
330
7E4
330
7E5
330
7E6
330
7E7
330
7E8
330
7E9
330
7EB
330
7ED
330
7EE
330
7EF
330
7F0
330
7F1
330
7F2
330
7F3
330
7F7
330
7F8
330
7F9
330
7FA
330
7FB
330
7FC
330
7FD
330
7FE
330
7FF
330
800
330
801
330
802
330
803
330
804
330
805
330
806
330
807
330
808
330
809
330
80A
330
80B
330
80C
330
80D
330
80E
330
80F
330
810
330
811
330
812
330
813
330
814
330
815
330
816
330
817
330
818
330
819
330
81A
330
81B
330
81C
330
81D
330
81E
330
81F
330
820
330
821
330
822
330
823
330
824
330
825
330
826
330
827
330
828
330
829
330
82A
330
82B
330
82C
330
82D
330
82E
330
82F
330
830
330
831
330
832
330
833
330
834
330
835
330
836
330
837
330
838
330
839
330
83A
330
83B
330
83C
330
83D
330
83E
330
83F
330
840
330
841
330
842
330
843
330
844
330
845
330
846
330
847
330
848
330
849
330
84A
330
84B
330
84C
330
84D
330
84E
330
84F
330
850
330
851
330
852
330
853
330
854
330
855
330
856
330
85B
330
85C
330
85D
330
85E
330
85F
330
860
330
861
330
862
330
863
330
864
330
865
330
866
330
867
330
868
330
869
330
86A
330
86B
330
86C
330
86D
330
86E
330
86F
330
870
330
871
330
872
330
873
330
874
330
875
330
876
330
877
330
878
330
879
330
87A
330
880
330
882
330
883
330
884
330
885
330
886
330
887
330
888
330
889
330
88C
330
88D
330
88E
330
88F
330
890
330
891
330
892
330
893
330
894
330
895
330
896
330
897
330
898
330
899
330
89A
330
89B
330
89D
330
89E
330
89F
330
8A0
330
8A1
330
8A2
330
8A3
330
8A4
330
8A5
330
8A6
330
8A7
330
8A8
330
8A9
330
8AA
330
8AB
330
8AC
330
8AD
330
8AE
330
8AF
330
8B0
  0
IDBUFFER
  5
5DB
330
0
100
AcDbIdBuffer
330
7BB
330
7BE
330
7BF
330
7C2
330
7C3
330
7C4
330
7D0
330
7D1
330
7D4
330
7DE
330
7E0
330
7E1
330
7EA
330
7EC
  0
IDBUFFER
  5
5DC
330
0
100
AcDbIdBuffer
330
7A7
330
7AA
  0
IDBUFFER
  5
5DD
330
0
100
AcDbIdBuffer
330
5EB
  0
IDBUFFER
  5
94B
330
0
100
AcDbIdBuffer
  0
IDBUFFER
  5
94C
330
0
100
AcDbIdBuffer
330
881
330
88A
330
88B
330
89C
  0
ENDSEC
  0
EOF
