  0
SECTION
  2
HEADER
  9
$ACADVER
  1
AC1014
  9
$ACADMAINTVER
 70
     9
  9
$DWGCODEPAGE
  3
ANSI_932
  9
$INSBASE
 10
0.0
 20
0.0
 30
0.0
  9
$EXTMIN
 10
-2.039553112862222
 20
-10.50479824056412
 30
-0.0000000000000058
  9
$EXTMAX
 10
634.1406048949607
 20
350.5121628386598
 30
0.0000000000000104
  9
$LIMMIN
 10
0.0
 20
0.0
  9
$LIMMAX
 10
669.7937549948307
 20
351.135746781838
  9
$ORTHOMODE
 70
     0
  9
$REGENMODE
 70
     1
  9
$FILLMODE
 70
     1
  9
$QTEXTMODE
 70
     0
  9
$MIRRTEXT
 70
     1
  9
$DRAGMODE
 70
     2
  9
$LTSCALE
 40
1.0
  9
$OSMODE
 70
  3071
  9
$ATTMODE
 70
     1
  9
$TEXTSIZE
 40
2.5
  9
$TRACEWID
 40
1.0
  9
$TEXTSTYLE
  7
STANDARD
  9
$CLAYER
  8
0
  9
$CELTYPE
  6
BYLAYER
  9
$CECOLOR
 62
   256
  9
$CELTSCALE
 40
1.0
  9
$DELOBJ
 70
     1
  9
$DISPSILH
 70
     0
  9
$DIMSCALE
 40
1.0
  9
$DIMASZ
 40
2.5
  9
$DIMEXO
 40
0.625
  9
$DIMDLI
 40
3.75
  9
$DIMRND
 40
0.0
  9
$DIMDLE
 40
0.0
  9
$DIMEXE
 40
1.25
  9
$DIMTP
 40
0.0
  9
$DIMTM
 40
0.0
  9
$DIMTXT
 40
2.5
  9
$DIMCEN
 40
2.5
  9
$DIMTSZ
 40
0.0
  9
$DIMTOL
 70
     0
  9
$DIMLIM
 70
     0
  9
$DIMTIH
 70
     0
  9
$DIMTOH
 70
     0
  9
$DIMSE1
 70
     0
  9
$DIMSE2
 70
     0
  9
$DIMTAD
 70
     1
  9
$DIMZIN
 70
     8
  9
$DIMBLK
  1

  9
$DIMASO
 70
     1
  9
$DIMSHO
 70
     1
  9
$DIMPOST
  1

  9
$DIMAPOST
  1

  9
$DIMALT
 70
     0
  9
$DIMALTD
 70
     3
  9
$DIMALTF
 40
0.03937007874016
  9
$DIMLFAC
 40
1.0
  9
$DIMTOFL
 70
     1
  9
$DIMTVP
 40
0.0
  9
$DIMTIX
 70
     0
  9
$DIMSOXD
 70
     0
  9
$DIMSAH
 70
     0
  9
$DIMBLK1
  1

  9
$DIMBLK2
  1

  9
$DIMSTYLE
  2
ISO-25
  9
$DIMCLRD
 70
     0
  9
$DIMCLRE
 70
     0
  9
$DIMCLRT
 70
     0
  9
$DIMTFAC
 40
1.0
  9
$DIMGAP
 40
0.625
  9
$DIMJUST
 70
     0
  9
$DIMSD1
 70
     0
  9
$DIMSD2
 70
     0
  9
$DIMTOLJ
 70
     0
  9
$DIMTZIN
 70
     8
  9
$DIMALTZ
 70
     0
  9
$DIMALTTZ
 70
     0
  9
$DIMFIT
 70
     3
  9
$DIMUPT
 70
     0
  9
$DIMUNIT
 70
     2
  9
$DIMDEC
 70
     2
  9
$DIMTDEC
 70
     2
  9
$DIMALTU
 70
     2
  9
$DIMALTTD
 70
     3
  9
$DIMTXSTY
  7
STANDARD
  9
$DIMAUNIT
 70
     0
  9
$LUNITS
 70
     2
  9
$LUPREC
 70
     2
  9
$SKETCHINC
 40
1.0
  9
$FILLETRAD
 40
10.0
  9
$AUNITS
 70
     0
  9
$AUPREC
 70
     0
  9
$MENU
  1
.
  9
$ELEVATION
 40
0.0
  9
$PELEVATION
 40
0.0
  9
$THICKNESS
 40
0.0
  9
$LIMCHECK
 70
     0
  9
$BLIPMODE
 70
     0
  9
$CHAMFERA
 40
10.0
  9
$CHAMFERB
 40
10.0
  9
$CHAMFERC
 40
20.0
  9
$CHAMFERD
 40
0.0
  9
$SKPOLY
 70
     0
  9
$TDCREATE
 40
2454596.550355717
  9
$TDUPDATE
 40
2454757.584193784
  9
$TDINDWG
 40
0.0422164236
  9
$TDUSRTIMER
 40
0.0422162384
  9
$USRTIMER
 70
     1
  9
$ANGBASE
 50
0.0
  9
$ANGDIR
 70
     0
  9
$PDMODE
 70
     0
  9
$PDSIZE
 40
0.0
  9
$PLINEWID
 40
0.0
  9
$COORDS
 70
     0
  9
$SPLFRAME
 70
     0
  9
$SPLINETYPE
 70
     6
  9
$SPLINESEGS
 70
     8
  9
$ATTDIA
 70
     0
  9
$ATTREQ
 70
     1
  9
$HANDLING
 70
 22529
  9
$HANDSEED
  5
A0D
  9
$SURFTAB1
 70
     6
  9
$SURFTAB2
 70
     6
  9
$SURFTYPE
 70
     6
  9
$SURFU
 70
     6
  9
$SURFV
 70
     6
  9
$UCSNAME
  2

  9
$UCSORG
 10
0.0
 20
0.0
 30
0.0
  9
$UCSXDIR
 10
1.0
 20
0.0
 30
0.0
  9
$UCSYDIR
 10
0.0
 20
1.0
 30
0.0
  9
$PUCSNAME
  2

  9
$PUCSORG
 10
0.0
 20
0.0
 30
0.0
  9
$PUCSXDIR
 10
1.0
 20
0.0
 30
0.0
  9
$PUCSYDIR
 10
0.0
 20
1.0
 30
0.0
  9
$USERI1
 70
     0
  9
$USERI2
 70
     0
  9
$USERI3
 70
     0
  9
$USERI4
 70
     0
  9
$USERI5
 70
     0
  9
$USERR1
 40
0.0
  9
$USERR2
 40
0.0
  9
$USERR3
 40
0.0
  9
$USERR4
 40
0.0
  9
$USERR5
 40
0.0
  9
$WORLDVIEW
 70
     1
  9
$SHADEDGE
 70
     3
  9
$SHADEDIF
 70
    70
  9
$TILEMODE
 70
     1
  9
$MAXACTVP
 70
    48
  9
$PINSBASE
 10
0.0
 20
0.0
 30
0.0
  9
$PLIMCHECK
 70
     0
  9
$PEXTMIN
 10
28.5263154029846
 20
19.82258291244505
 30
0.0
  9
$PEXTMAX
 10
256.7368386268614
 20
178.4032462120055
 30
0.0
  9
$PLIMMIN
 10
-5.873748779296875
 20
-5.873749732971191
  9
$PLIMMAX
 10
291.1369018554686
 20
204.0995779037474
  9
$UNITMODE
 70
     0
  9
$VISRETAIN
 70
     1
  9
$PLINEGEN
 70
     0
  9
$PSLTSCALE
 70
     1
  9
$TREEDEPTH
 70
  3020
  9
$PICKSTYLE
 70
     1
  9
$CMLSTYLE
  2
STANDARD
  9
$CMLJUST
 70
     0
  9
$CMLSCALE
 40
20.0
  9
$PROXYGRAPHICS
 70
     1
  9
$MEASUREMENT
 70
     1
  0
ENDSEC
  0
SECTION
  2
CLASSES
  0
CLASS
  1
ACDBDICTIONARYWDFLT
  2
AcDbDictionaryWithDefault
  3
AutoCAD 2000
 90
        0
280
     0
281
     0
  0
CLASS
  1
ACDBPLACEHOLDER
  2
AcDbPlaceHolder
  3
AutoCAD 2000
 90
        0
280
     0
281
     0
  0
CLASS
  1
LAYOUT
  2
AcDbLayout
  3
AutoCAD 2000
 90
        0
280
     0
281
     0
  0
CLASS
  1
DICTIONARYVAR
  2
AcDbDictionaryVar
  3
AutoCAD 2000
 90
        0
280
     0
281
     0
  0
CLASS
  1
LONG_TRANSACTION
  2
AcDbLongTransaction
  3
AutoCAD 2000
 90
        0
280
     0
281
     0
  0
CLASS
  1
LWPOLYLINE
  2
AcDbPolyline
  3
AutoCAD 2000
 90
        0
280
     0
281
     1
  0
CLASS
  1
HATCH
  2
AcDbHatch
  3
AutoCAD 2000
 90
        0
280
     0
281
     1
  0
CLASS
  1
XRECORD
  2
AcDbXrecord
  3
AutoCAD 2000
 90
        0
280
     0
281
     0
  0
CLASS
  1
LONG_TRANSACTION
  2
AcDbLongTransaction
  3
AutoCAD 2000
 90
        0
280
     0
281
     0
  0
CLASS
  1
LWPOLYLINE
  2
AcDbPolyline
  3
AutoCAD 2000
 90
        0
280
     0
281
     1
  0
CLASS
  1
HATCH
  2
AcDbHatch
  3
AutoCAD 2000
 90
        0
280
     0
281
     1
  0
CLASS
  1
XRECORD
  2
AcDbXrecord
  3
AutoCAD 2000
 90
        0
280
     0
281
     0
  0
CLASS
  1
AMGSETTINGSOBJ
  2
AmgSettingsObj
  3
"AcadM|Product Description: AutoCAD Mechanical 2000|Company: Autodesk"
 90
        0
280
     0
281
     0
  0
CLASS
  1
ACME_DOCUMENT
  2
AcMeDbDoc
  3
AcMeServices
 90
        0
280
     0
281
     0
  0
CLASS
  1
ACMESCOPE
  2
AcMeScope
  3
AcMeServices
 90
        0
280
     0
281
     0
  0
CLASS
  1
ACMECOMMANDHISTORY
  2
AcMeCommandHistory
  3
AcMeServices
 90
        0
280
     0
281
     0
  0
CLASS
  1
ACIMSYSVARMAN
  2
AcImSysVarManager
  3
AcMeServices
 90
        0
280
     0
281
     0
  0
CLASS
  1
ACIMREALSYSVAR
  2
AcImRealSysVar
  3
AcMeServices
 90
        0
280
     0
281
     0
  0
CLASS
  1
ACIMINTSYSVAR
  2
AcImIntSysVar
  3
AcMeServices
 90
        0
280
     0
281
     0
  0
CLASS
  1
ACMEDRAWINGMAN
  2
AcMeDrawingMan
  3
AcMeServices
 90
        0
280
     0
281
     0
  0
CLASS
  1
ACMEVIEW
  2
AcMeView
  3
AcMeServices
 90
        0
280
     0
281
     0
  0
CLASS
  1
ACDBENTITYCACHE
  2
AcMeEntityCache
  3
AcMeServices
 90
        0
280
     0
281
     0
  0
CLASS
  1
GSMANAGER
  2
AcMeGSManager
  3
AcMeServices
 90
        0
280
     0
281
     0
  0
CLASS
  1
AMDTINTERNALREACTOR
  2
AmdtInternalReactor
  3
AcMeServices
 90
        0
280
     0
281
     0
  0
CLASS
  1
ACMESTATEMGR
  2
AcMeStateMgr
  3
AcMeServices
 90
        0
280
     0
281
     0
  0
CLASS
  1
ACGREFMASTER
  2
AcGrefMaster
  3
AcAttribServices
 90
        0
280
     0
281
     0
  0
CLASS
  1
AM_DRAWING_MGR
  2
AcDmDwgMgr
  3
AcMechDwgViewMgmt
 90
        0
280
     0
281
     0
  0
CLASS
  1
AM_DWG_DOCUMENT
  2
AcDmDwgDocument
  3
AcMechDwgViewMgmt
 90
        0
280
     0
281
     0
  0
CLASS
  1
AM_DWG_SHEET
  2
AcDmSheet
  3
AcMechDwgViewMgmt
 90
        0
280
     0
281
     0
  0
CLASS
  1
AM_VIEWDIMPARMAP
  2
AcDmViewDimParMap
  3
AcMechDwgViewMgmt
 90
        0
280
     0
281
     0
  0
CLASS
  1
AM_DWGMGR_NAME
  2
AcDmDwgMgrName
  3
AcMechDwgViewMgmt
 90
        0
280
     0
281
     0
  0
CLASS
  1
ACME_DATABASE
  2
AcMeDbDatabase
  3
AcMeServices
 90
        0
280
     0
281
     0
  0
CLASS
  1
ACRFINSADJUSTERMGR
  2
AcRfInsAdjusterMgr
  3
AcMeServices
 90
        0
280
     0
281
     0
  0
CLASS
  1
ACGREFACADMASTER
  2
AcGrefacadMaster
  3
AcGrefServices
 90
        0
280
     0
281
     0
  0
CLASS
  1
AMDTMENUSTATEMGR
  2
AmdtMenuStateMgr
  3
McadcomServices
 90
        0
280
     0
281
     0
  0
CLASS
  1
AMDTMCOMMENUSTATE
  2
AmdtMcomMenuState
  3
McadcomServices
 90
        0
280
     0
281
     0
  0
CLASS
  1
AMIMASTER
  2
AmiMaster
  3
AmiServices
 90
        0
280
     0
281
     0
  0
CLASS
  1
ASAPP
  2
AcAsAppObject
  3
AutoSurfServices
 90
        0
280
     0
281
     0
  0
CLASS
  1
IM_STATIC_MAN
  2
AcImStaticVarManager
  3
AcMeServices
 90
        0
280
     0
281
     0
  0
CLASS
  1
ACIMSTRSYSVAR
  2
AcImStrSysVar
  3
AcMeServices
 90
        0
280
     0
281
     0
  0
CLASS
  1
ACIMDBLSTATICVAR
  2
AcImDblStaticVar
  3
AcMeServices
 90
        0
280
     0
281
     0
  0
CLASS
  1
ACIMSTRSTATICVAR
  2
AcImStrStaticVar
  3
AcMeServices
 90
        0
280
     0
281
     0
  0
CLASS
  1
ACIMINTSTATICVAR
  2
AcImIntStaticVar
  3
AcMeServices
 90
        0
280
     0
281
     0
  0
CLASS
  1
ACASGREFMASTER
  2
AcAsGrefMaster
  3
AutoSurfResolverServices
 90
        0
280
     0
281
     0
  0
CLASS
  1
ACADGREFMODULE
  2
AcAdGrefModule
  3
AdGrefServices
 90
        0
280
     0
281
     0
  0
CLASS
  1
AMDTMAPISURFMOUDULE
  2
AmdtMApiSurfModule
  3
MApiSurfServices
 90
        0
280
     0
281
     0
  0
CLASS
  1
MAPIAMMOUDLE
  2
MApiAmModule
  3
MApiAmServices
 90
        0
280
     0
281
     0
  0
CLASS
  1
AMDTADMENUSTATE
  2
AmdtAdMenuState
  3
DesignerServices
 90
        0
280
     0
281
     0
  0
CLASS
  1
ADAPPL
  2
AcAdAppl
  3
DesignerServices
 90
        0
280
     0
281
     0
  0
CLASS
  1
DEPMGR
  2
AcAdDepMgr
  3
DesignerServices
 90
        0
280
     0
281
     0
  0
CLASS
  1
PARAMMGR
  2
AcAdParamMgr
  3
DesignerServices
 90
        0
280
     0
281
     0
  0
CLASS
  1
PARAMSCOPE
  2
AcAdParamScope
  3
DesignerServices
 90
        0
280
     0
281
     0
  0
CLASS
  1
NAMEDAPPL
  2
AcAdNamedAppl
  3
DesignerServices
 90
        0
280
     0
281
     0
  0
CLASS
  1
AMDTDMMENUSTATE
  2
AmdtDmMenuState
  3
AcMechDwgViewMgmt
 90
        0
280
     0
281
     0
  0
CLASS
  1
MAPIADMODULE
  2
MApiAdModule
  3
MApiAdServices
 90
        0
280
     0
281
     0
  0
CLASS
  1
AMDTAMMENUSTATE
  2
AmdtAmMenuState
  3
DesignerAssemblies
 90
        0
280
     0
281
     0
  0
CLASS
  1
ACAMPROJECT
  2
AcAmProject
  3
DesignerAssemblies
 90
        0
280
     0
281
     0
  0
CLASS
  1
ACAMGRCOMPDEF
  2
AcAmGrCompDef
  3
DesignerAssemblies
 90
        0
280
     0
281
     0
  0
CLASS
  1
ACCMCONTEXT
  2
AcCmContext
  3
DesignerAssemblies
 90
        0
280
     0
281
     0
  0
CLASS
  1
ACAMCOMPDEF
  2
AcAmCompDef
  3
DesignerAssemblies
 90
        0
280
     0
281
     0
  0
CLASS
  1
ACAMCOMPDEFMGR
  2
AcAmCompDefMgr
  3
DesignerAssemblies
 90
        0
280
     0
281
     0
  0
CLASS
  1
AMCONTEXTMGR
  2
AcAmContextMgr
  3
DesignerAssemblies
 90
        0
280
     0
281
     0
  0
CLASS
  1
ACAMCONTEXTMODELER
  2
AcAmContextModeler
  3
DesignerAssemblies
 90
        0
280
     0
281
     0
  0
CLASS
  1
ACMDATADICTIONARY
  2
AcmDataDictionary
  3
"AcmSymBB|Product Description: AutoCAD Mechanical 2000|Company: Autodesk"
 90
        0
280
     0
281
     0
  0
CLASS
  1
ACMDATAENTRYBLOCK
  2
AcmDataEntryBlock
  3
"AcmSymBB|Product Description: AutoCAD Mechanical 2000|Company: Autodesk"
 90
        0
280
     0
281
     0
  0
CLASS
  1
CATALOGSTATE
  2
AcAmCatalogState
  3
DesignerAssemblies
 90
        0
280
     0
281
     0
  0
CLASS
  1
ACAMGRCOMPDEFSET
  2
AcAmGrCompDefSet
  3
DesignerAssemblies
 90
        0
280
     0
281
     0
  0
CLASS
  1
AMDTBROWSERDBTAB
  2
AmdtBrowserDbTab
  3
McadcomServices
 90
        0
280
     0
281
     0
  0
CLASS
  1
CBROWSERAPPOBJECT
  2
CBrowserAppObject
  3
McadcomServices
 90
        0
280
     0
281
     0
  0
CLASS
  1
DM_PLACEHOLDER
  2
AcDmSelsetPlaceholder
  3
AcMechDwgViewMgmt
 90
        0
280
     0
281
     0
  0
CLASS
  1
AMGOBJPROPCFG
  2
AmgObjPropCfg
  3
"AmgLay|Product Description: AutoCAD Mechanical 2000|Company: Autodesk"
 90
        1
280
     0
281
     0
  0
CLASS
  1
ACAMGFILTERDAT
  2
AcAmgFilterDat
  3
"AcadM|Product Description: AutoCAD Mechanical 2000|Company: Autodesk"
 90
        0
280
     0
281
     0
  0
CLASS
  1
LAYER_INDEX
  2
AcDbLayerIndex
  3
AutoCAD 2000
 90
        0
280
     0
281
     0
  0
CLASS
  1
IDBUFFER
  2
AcDbIdBuffer
  3
AutoCAD 2000
 90
        0
280
     0
281
     0
  0
CLASS
  1
ACAD_PROXY_OBJECT_WRAPPER
  2
AcDbProxyObjectWrapper
  3
AutoCAD 2000
 90
        0
280
     0
281
     0
  0
CLASS
  1
LONG_TRANSACTION
  2
AcDbLongTransaction
  3
AutoCAD 2000
 90
        0
280
     0
281
     0
  0
CLASS
  1
LWPOLYLINE
  2
AcDbPolyline
  3
AutoCAD 2000
 90
        0
280
     0
281
     1
  0
CLASS
  1
HATCH
  2
AcDbHatch
  3
AutoCAD 2000
 90
        0
280
     0
281
     1
  0
CLASS
  1
XRECORD
  2
AcDbXrecord
  3
AutoCAD 2000
 90
        0
280
     0
281
     0
  0
CLASS
  1
LONG_TRANSACTION
  2
AcDbLongTransaction
  3
AutoCAD 2000
 90
        0
280
     0
281
     0
  0
CLASS
  1
LWPOLYLINE
  2
AcDbPolyline
  3
AutoCAD 2000
 90
        0
280
     0
281
     1
  0
CLASS
  1
HATCH
  2
AcDbHatch
  3
AutoCAD 2000
 90
        0
280
     0
281
     1
  0
CLASS
  1
XRECORD
  2
AcDbXrecord
  3
AutoCAD 2000
 90
        0
280
     0
281
     0
  0
CLASS
  1
LONG_TRANSACTION
  2
AcDbLongTransaction
  3
AutoCAD 2000
 90
        0
280
     0
281
     0
  0
CLASS
  1
LWPOLYLINE
  2
AcDbPolyline
  3
AutoCAD 2000
 90
        0
280
     0
281
     1
  0
CLASS
  1
HATCH
  2
AcDbHatch
  3
AutoCAD 2000
 90
        0
280
     0
281
     1
  0
CLASS
  1
XRECORD
  2
AcDbXrecord
  3
AutoCAD 2000
 90
        0
280
     0
281
     0
  0
CLASS
  1
LONG_TRANSACTION
  2
AcDbLongTransaction
  3
AutoCAD 2000
 90
        0
280
     0
281
     0
  0
CLASS
  1
LWPOLYLINE
  2
AcDbPolyline
  3
AutoCAD 2000
 90
        0
280
     0
281
     1
  0
CLASS
  1
HATCH
  2
AcDbHatch
  3
AutoCAD 2000
 90
        0
280
     0
281
     1
  0
CLASS
  1
XRECORD
  2
AcDbXrecord
  3
AutoCAD 2000
 90
        0
280
     0
281
     0
  0
CLASS
  1
LONG_TRANSACTION
  2
AcDbLongTransaction
  3
AutoCAD 2000
 90
        0
280
     0
281
     0
  0
CLASS
  1
LWPOLYLINE
  2
AcDbPolyline
  3
AutoCAD 2000
 90
        0
280
     0
281
     1
  0
CLASS
  1
HATCH
  2
AcDbHatch
  3
AutoCAD 2000
 90
        0
280
     0
281
     1
  0
CLASS
  1
XRECORD
  2
AcDbXrecord
  3
AutoCAD 2000
 90
        0
280
     0
281
     0
  0
ENDSEC
  0
SECTION
  2
TABLES
  0
TABLE
  2
VPORT
  5
8
330
0
100
AcDbSymbolTable
 70
     2
  0
VPORT
  5
9EA
330
8
100
AcDbSymbolTableRecord
100
AcDbViewportTableRecord
  2
*ACTIVE
 70
     0
 10
0.0
 20
0.0
 11
1.0
 21
1.0
 12
-824.8892065370132
 22
-382.5807607244432
 13
0.0
 23
0.0
 14
10.0
 24
10.0
 15
10.0
 25
10.0
 16
0.0
 26
0.0
 36
1.0
 17
1140.949166581189
 27
552.5761744424462
 37
0.0
 40
394.6112667496866
 41
1.62121212121212
 42
50.0
 43
0.0
 44
0.0
 50
0.0
 51
0.0
 71
     0
 72
   100
 73
     1
 74
     3
 75
     0
 76
     0
 77
     0
 78
     0
  0
ENDTAB
  0
TABLE
  2
LTYPE
  5
5
330
0
100
AcDbSymbolTable
 70
     8
  0
LTYPE
  5
14
330
5
100
AcDbSymbolTableRecord
100
AcDbLinetypeTableRecord
  2
BYBLOCK
 70
     0
  3

 72
    65
 73
     0
 40
0.0
  0
LTYPE
  5
15
330
5
100
AcDbSymbolTableRecord
100
AcDbLinetypeTableRecord
  2
BYLAYER
 70
     0
  3

 72
    65
 73
     0
 40
0.0
  0
LTYPE
  5
16
330
5
100
AcDbSymbolTableRecord
100
AcDbLinetypeTableRecord
  2
CONTINUOUS
 70
     0
  3
Solid line
 72
    65
 73
     0
 40
0.0
  0
LTYPE
  5
5C6
330
5
100
AcDbSymbolTableRecord
100
AcDbLinetypeTableRecord
  2
AM_ISO02W050
 70
     0
  3
__ __ __ __ __ __ __ __ __ __ __ __ __ __ __
 72
    65
 73
     2
 40
7.5
 49
6.0
 74
     0
 49
-1.5
 74
     0
  0
LTYPE
  5
5C7
330
5
100
AcDbSymbolTableRecord
100
AcDbLinetypeTableRecord
  2
AM_ISO08W050
 70
     0
  3
____ . ____ . ____ . ____ . ____ . ____ . ____
 72
    65
 73
     4
 40
18.0
 49
12.0
 74
     0
 49
-1.5
 74
     0
 49
3.0
 74
     0
 49
-1.5
 74
     0
  0
LTYPE
  5
5C8
330
5
100
AcDbSymbolTableRecord
100
AcDbLinetypeTableRecord
  2
AM_ISO09W050
 70
     0
  3
_____ . . _____ . . _____ . . ____ .. ____
 72
    65
 73
     6
 40
22.5
 49
12.0
 74
     0
 49
-1.5
 74
     0
 49
3.0
 74
     0
 49
-1.5
 74
     0
 49
3.0
 74
     0
 49
-1.5
 74
     0
  0
LTYPE
  5
5C9
330
5
100
AcDbSymbolTableRecord
100
AcDbLinetypeTableRecord
  2
AMCONSTR
 70
     0
  3
_______________________
 72
    65
 73
     2
 40
9999.0
 49
9999.0
 74
     0
 49
0.0
 74
     0
  0
LTYPE
  5
5CA
330
5
100
AcDbSymbolTableRecord
100
AcDbLinetypeTableRecord
  2
AM_ISO08W050X2
 70
     0
  3
__ . __ . __ . __ . __ . __
 72
    65
 73
     4
 40
9.0
 49
6.0
 74
     0
 49
-0.75
 74
     0
 49
1.5
 74
     0
 49
-0.75
 74
     0
  0
LTYPE
  5
5CB
330
5
100
AcDbSymbolTableRecord
100
AcDbLinetypeTableRecord
  2
AM_ISO02W050X2
 70
     0
  3
 _ _ _ _ _ _ _ _ _ _ _ _
 72
    65
 73
     2
 40
3.75
 49
3.0
 74
     0
 49
-0.75
 74
     0
  0
LTYPE
  5
5CE
330
5
100
AcDbSymbolTableRecord
100
AcDbLinetypeTableRecord
  2
AMZIGZAG
 70
     0
  3
/\/-/\/-/\/-/\/-/\/-/\/
 72
    65
 73
     2
 40
11.00009999999999
 49
0.0001
 74
     4
 75
   135
340
5CD
 46
0.04
 50
0.0
 44
0.0
 45
0.0
 49
-11.0
 74
     0
  0
ENDTAB
  0
TABLE
  2
LAYER
  5
2
102
{ACAD_XDICTIONARY
360
41
102
}
330
0
100
AcDbSymbolTable
 70
     7
  0
LAYER
  5
10
330
2
100
AcDbSymbolTableRecord
100
AcDbLayerTableRecord
  2
0
 70
     0
 62
     7
  6
CONTINUOUS
  0
LAYER
  5
35
330
2
100
AcDbSymbolTableRecord
100
AcDbLayerTableRecord
  2
10
 70
     0
 62
     4
  6
CONTINUOUS
  0
LAYER
  5
36
330
2
100
AcDbSymbolTableRecord
100
AcDbLayerTableRecord
  2
12
 70
     0
 62
     3
  6
CONTINUOUS
  0
LAYER
  5
37
330
2
100
AcDbSymbolTableRecord
100
AcDbLayerTableRecord
  2
16
 70
     0
 62
     4
  6
CONTINUOUS
  0
LAYER
  5
38
330
2
100
AcDbSymbolTableRecord
100
AcDbLayerTableRecord
  2
19
 70
     0
 62
     7
  6
CONTINUOUS
  0
LAYER
  5
66E
330
2
100
AcDbSymbolTableRecord
100
AcDbLayerTableRecord
  2
DEFPOINTS
 70
     0
 62
     7
  6
CONTINUOUS
  0
LAYER
  5
95A
330
2
100
AcDbSymbolTableRecord
100
AcDbLayerTableRecord
  2
17
 70
     0
 62
     2
  6
CONTINUOUS
  0
ENDTAB
  0
TABLE
  2
STYLE
  5
3
330
0
100
AcDbSymbolTable
 70
     3
  0
STYLE
  5
11
330
3
100
AcDbSymbolTableRecord
100
AcDbTextStyleTableRecord
  2
STANDARD
 70
     0
 40
0.0
 41
1.0
 50
0.0
 71
     0
 42
2.5
  3
txt
  4

  0
STYLE
  5
3A
330
3
100
AcDbSymbolTableRecord
100
AcDbTextStyleTableRecord
  2
STANDARD1X3
 70
     0
 40
9.599999999999999
 41
0.7
 50
0.0
 71
     0
 42
9.599999999999999
  3
romans.shx
  4
extfont.shx
  0
STYLE
  5
5CD
330
3
100
AcDbSymbolTableRecord
100
AcDbTextStyleTableRecord
  2

 70
     1
 40
0.0
 41
1.0
 50
0.0
 71
     0
 42
2.5
  3
ltypeshp.shx
  4

  0
ENDTAB
  0
TABLE
  2
VIEW
  5
6
330
0
100
AcDbSymbolTable
 70
     0
  0
ENDTAB
  0
TABLE
  2
UCS
  5
7
330
0
100
AcDbSymbolTable
 70
     0
  0
ENDTAB
  0
TABLE
  2
APPID
  5
9
330
0
100
AcDbSymbolTable
 70
    18
  0
APPID
  5
12
330
9
100
AcDbSymbolTableRecord
100
AcDbRegAppTableRecord
  2
ACAD
 70
     0
  0
APPID
  5
3C
330
9
100
AcDbSymbolTableRecord
100
AcDbRegAppTableRecord
  2
ACAD_PSEXT
 70
     0
  0
APPID
  5
3D
330
9
100
AcDbSymbolTableRecord
100
AcDbRegAppTableRecord
  2
ACAD_DSTYLE_DIMEXT_LENGTH
 70
     0
  0
APPID
  5
3E
330
9
100
AcDbSymbolTableRecord
100
AcDbRegAppTableRecord
  2
ACAD_DSTYLE_DIMEXT_ENABLED
 70
     0
  0
APPID
  5
3F
330
9
100
AcDbSymbolTableRecord
100
AcDbRegAppTableRecord
  2
ACAD_DSTYLE_DIMJOGGED_JOGA
 70
     0
  0
APPID
  5
40
330
9
100
AcDbSymbolTableRecord
100
AcDbRegAppTableRecord
  2
ACAD_DSTYLE_DIMARC_LENGTH_
 70
     0
  0
APPID
  5
500
330
9
100
AcDbSymbolTableRecord
100
AcDbRegAppTableRecord
  2
GENIUS_GENDIM_13
 70
     0
  0
APPID
  5
501
330
9
100
AcDbSymbolTableRecord
100
AcDbRegAppTableRecord
  2
GENIUS_GENDTOL_13
 70
     0
  0
APPID
  5
502
330
9
100
AcDbSymbolTableRecord
100
AcDbRegAppTableRecord
  2
GENIUS_GE3DTOL_13
 70
     0
  0
APPID
  5
504
330
9
100
AcDbSymbolTableRecord
100
AcDbRegAppTableRecord
  2
MCAD_NO_VIS
 70
     0
  0
APPID
  5
505
330
9
100
AcDbSymbolTableRecord
100
AcDbRegAppTableRecord
  2
ACAD_TEMP_GRAPHIC
 70
     0
  0
APPID
  5
537
330
9
100
AcDbSymbolTableRecord
100
AcDbRegAppTableRecord
  2
AD_DRAW
 70
     0
  0
APPID
  5
53A
330
9
100
AcDbSymbolTableRecord
100
AcDbRegAppTableRecord
  2
ACATTRIBSERVICES
 70
     0
  0
APPID
  5
586
330
9
100
AcDbSymbolTableRecord
100
AcDbRegAppTableRecord
  2
ASURF_PCURVE_APPNAME
 70
     0
  0
APPID
  5
5B5
330
9
100
AcDbSymbolTableRecord
100
AcDbRegAppTableRecord
  2
DESIGNERASSEMBLIES
 70
     0
  0
APPID
  5
5BD
330
9
100
AcDbSymbolTableRecord
100
AcDbRegAppTableRecord
  2
ACADM_DIM_EDIT
 70
     0
  0
APPID
  5
5BE
330
9
100
AcDbSymbolTableRecord
100
AcDbRegAppTableRecord
  2
AMDT_DM_ADJ
 70
     0
  0
APPID
  5
678
330
9
100
AcDbSymbolTableRecord
100
AcDbRegAppTableRecord
  2
ACAECLAYERSTANDARD
 70
     0
  0
ENDTAB
  0
TABLE
  2
DIMSTYLE
  5
A
330
0
100
AcDbSymbolTable
 70
     1
  0
DIMSTYLE
105
27
330
A
100
AcDbSymbolTableRecord
100
AcDbDimStyleTableRecord
  2
ISO-25
 70
     0
  3

  4

  5

  6

  7

 40
1.0
 41
2.5
 42
0.625
 43
3.75
 44
1.25
 45
0.0
 46
0.0
 47
0.0
 48
0.0
140
2.5
141
2.5
142
0.0
143
0.03937007874016
144
1.0
145
0.0
146
1.0
147
0.625
 71
     0
 72
     0
 73
     0
 74
     0
 75
     0
 76
     0
 77
     1
 78
     8
170
     0
171
     3
172
     1
173
     0
174
     0
175
     0
176
     0
177
     0
178
     0
270
     2
271
     2
272
     2
273
     2
274
     3
340
11
275
     0
280
     0
281
     0
282
     0
283
     0
284
     8
285
     0
286
     0
287
     3
288
     0
  0
ENDTAB
  0
TABLE
  2
BLOCK_RECORD
  5
1
330
0
100
AcDbSymbolTable
 70
     1
  0
BLOCK_RECORD
  5
1F
102
{ACAD_XDICTIONARY
360
438
102
}
330
1
100
AcDbSymbolTableRecord
100
AcDbBlockTableRecord
  2
*MODEL_SPACE
  0
BLOCK_RECORD
  5
23
102
{ACAD_XDICTIONARY
360
43A
102
}
330
1
100
AcDbSymbolTableRecord
100
AcDbBlockTableRecord
  2
*PAPER_SPACE
  0
BLOCK_RECORD
  5
5AC
330
1
100
AcDbSymbolTableRecord
100
AcDbBlockTableRecord
  2
*U0
  0
ENDTAB
  0
ENDSEC
  0
SECTION
  2
BLOCKS
  0
BLOCK
  5
20
330
1F
100
AcDbEntity
  8
0
100
AcDbBlockBegin
  2
*MODEL_SPACE
 70
     0
 10
0.0
 20
0.0
 30
0.0
  3
*MODEL_SPACE
  1

  0
ENDBLK
  5
21
330
1F
100
AcDbEntity
  8
0
100
AcDbBlockEnd
  0
BLOCK
  5
24
330
23
100
AcDbEntity
 67
     1
  8
0
100
AcDbBlockBegin
  2
*PAPER_SPACE
 70
     0
 10
0.0
 20
0.0
 30
0.0
  3
*PAPER_SPACE
  1

  0
ENDBLK
  5
25
330
23
100
AcDbEntity
 67
     1
  8
0
100
AcDbBlockEnd
  0
BLOCK
  5
5AD
330
5AC
100
AcDbEntity
  8
0
100
AcDbBlockBegin
  2
*U0
 70
     1
 10
0.0
 20
0.0
 30
0.0
  3
*U0
  1

  0
ENDBLK
  5
5AE
330
5AC
100
AcDbEntity
  8
0
100
AcDbBlockEnd
  0
ENDSEC
  0
SECTION
  2
ENTITIES
  0
MTEXT
  5
5EB
330
1F
100
AcDbEntity
  8
19
100
AcDbMText
 10
580.0033772390486
 20
21.30573760754919
 30
0.0
 40
8.0
 41
70.16
 71
     1
 72
     5
  1
HEL16\PFR-HEL-75K
  7
STANDARD1X3
1001
ACAD
1000
MTEXTBEGIN
1070
    73
1070
     1
1070
    44
1040
1.0
1070
    74
1070
     0
1000
MTEXTEND
1000
MTEXTBEGIN
1070
    73
1070
     1
1070
    44
1040
1.0
1070
    74
1070
     0
1000
MTEXTEND
1000
MTEXTBEGIN
1070
    73
1070
     1
1070
    44
1040
1.0
1070
    74
1070
     0
1000
MTEXTEND
1000
MTEXTBEGIN
1070
    73
1070
     1
1070
    44
1040
1.0
1070
    74
1070
     0
1000
MTEXTEND
  0
LINE
  5
7B7
330
1F
100
AcDbEntity
  8
10
100
AcDbLine
 10
554.0429983922108
 20
322.5000000000004
 30
0.0
 11
554.0429983922108
 21
333.7939219681111
 31
0.0
  0
LINE
  5
7B9
330
1F
100
AcDbEntity
  8
16
 48
3.0
100
AcDbLine
 10
152.0
 20
170.0000000000009
 30
0.0
 11
-2.0
 21
170.0000000000009
 31
0.0
  0
LINE
  5
7BA
330
1F
100
AcDbEntity
  8
16
 48
3.0
100
AcDbLine
 10
75.00000000000091
 20
-10.5
 30
0.0
 11
74.99999999999885
 21
34.55999999999994
 31
0.0
  0
LINE
  5
7BB
330
1F
100
AcDbEntity
  8
16
 48
3.0
100
AcDbLine
 10
74.99999999999885
 20
305.44
 30
0.0
 11
75.00000000000091
 21
350.5000000000003
 31
0.0
  0
LINE
  5
7BC
330
1F
100
AcDbEntity
  8
16
 48
3.0
100
AcDbLine
 10
74.99999999999885
 20
70.55999999999993
 30
0.0
 11
74.99999999999885
 21
269.4400000000005
 31
0.0
  0
LINE
  5
7BD
330
1F
100
AcDbEntity
  8
10
100
AcDbLine
 10
519.0429983922118
 20
0.0
 30
0.0
 11
519.0429983922118
 21
3.0
 31
0.0
  0
LINE
  5
7BE
330
1F
100
AcDbEntity
  8
10
100
AcDbLine
 10
517.0429983922108
 20
6.0
 30
0.0
 11
517.0429983922108
 21
0.0
 31
0.0
  0
LINE
  5
7BF
330
1F
100
AcDbEntity
  8
10
100
AcDbLine
 10
515.0429983922108
 20
0.0
 30
0.0
 11
515.0429983922108
 21
9.0
 31
0.0
  0
LINE
  5
7C0
330
1F
100
AcDbEntity
  8
10
100
AcDbLine
 10
513.0429983922108
 20
6.0
 30
0.0
 11
513.0429983922108
 21
0.0
 31
0.0
  0
LINE
  5
7C1
330
1F
100
AcDbEntity
  8
10
100
AcDbLine
 10
511.0429983922109
 20
0.0
 30
0.0
 11
511.0429983922109
 21
3.0
 31
0.0
  0
LINE
  5
7C2
330
1F
100
AcDbEntity
  8
10
100
AcDbLine
 10
509.0429983922108
 20
6.0
 30
0.0
 11
509.0429983922108
 21
0.0
 31
0.0
  0
LINE
  5
7C3
330
1F
100
AcDbEntity
  8
10
100
AcDbLine
 10
507.0429983922108
 20
9.0
 30
0.0
 11
507.0429983922108
 21
0.0
 31
0.0
  0
LINE
  5
7C4
330
1F
100
AcDbEntity
  8
10
100
AcDbLine
 10
505.0429983922108
 20
0.0
 30
0.0
 11
505.0429983922108
 21
12.0
 31
0.0
  0
LINE
  5
7C5
330
1F
100
AcDbEntity
  8
10
100
AcDbLine
 10
503.0429983922116
 20
15.0
 30
0.0
 11
503.0429983922116
 21
0.0
 31
0.0
  0
LINE
  5
7C6
330
1F
100
AcDbEntity
  8
10
100
AcDbLine
 10
501.042998392212
 20
0.0
 30
0.0
 11
501.042998392212
 21
12.0
 31
0.0
  0
LINE
  5
7C7
330
1F
100
AcDbEntity
  8
10
100
AcDbLine
 10
499.0429983922108
 20
9.0
 30
0.0
 11
499.0429983922108
 21
0.0
 31
0.0
  0
LINE
  5
7C8
330
1F
100
AcDbEntity
  8
10
100
AcDbLine
 10
497.0429983922108
 20
0.0
 30
0.0
 11
497.0429983922108
 21
6.0
 31
0.0
  0
LINE
  5
7C9
330
1F
100
AcDbEntity
  8
10
100
AcDbLine
 10
495.0429983922108
 20
3.0
 30
0.0
 11
495.0429983922108
 21
0.0
 31
0.0
  0
LINE
  5
7CA
330
1F
100
AcDbEntity
  8
10
100
AcDbLine
 10
493.0429983922108
 20
0.0
 30
0.0
 11
493.0429983922108
 21
6.0
 31
0.0
  0
LINE
  5
7CB
330
1F
100
AcDbEntity
  8
10
100
AcDbLine
 10
491.0429983922108
 20
9.0
 30
0.0
 11
491.0429983922108
 21
0.0
 31
0.0
  0
LINE
  5
7CC
330
1F
100
AcDbEntity
  8
10
100
AcDbLine
 10
489.0429983922108
 20
0.0
 30
0.0
 11
489.0429983922108
 21
12.0
 31
0.0
  0
LINE
  5
7CD
330
1F
100
AcDbEntity
  8
10
100
AcDbLine
 10
487.042998392212
 20
15.0
 30
0.0
 11
487.042998392212
 21
0.0
 31
0.0
  0
LINE
  5
7CE
330
1F
100
AcDbEntity
  8
10
100
AcDbLine
 10
485.0429983922118
 20
0.0
 30
0.0
 11
485.0429983922118
 21
18.0
 31
0.0
  0
LINE
  5
7CF
330
1F
100
AcDbEntity
  8
10
100
AcDbLine
 10
483.042998392212
 20
21.0
 30
0.0
 11
483.042998392212
 21
0.0
 31
0.0
  0
LINE
  5
7D0
330
1F
100
AcDbEntity
  8
10
100
AcDbLine
 10
481.0429983922118
 20
0.0
 30
0.0
 11
481.0429983922118
 21
24.00000000000089
 31
0.0
  0
LINE
  5
7D1
330
1F
100
AcDbEntity
  8
10
100
AcDbLine
 10
479.042998392212
 20
27.0
 30
0.0
 11
479.042998392212
 21
0.0
 31
0.0
  0
LINE
  5
7D2
330
1F
100
AcDbEntity
  8
10
100
AcDbLine
 10
477.0429983922118
 20
0.0
 30
0.0
 11
477.0429983922118
 21
30.0
 31
0.0
  0
LINE
  5
7D3
330
1F
100
AcDbEntity
  8
10
100
AcDbLine
 10
519.0429983922118
 20
340.0000000000003
 30
0.0
 11
519.0429983922118
 21
328.0000000000004
 31
0.0
  0
LINE
  5
7D4
330
1F
100
AcDbEntity
  8
10
100
AcDbLine
 10
517.0429983922108
 20
331.0000000000004
 30
0.0
 11
517.0429983922108
 21
340.0000000000003
 31
0.0
  0
LINE
  5
7D5
330
1F
100
AcDbEntity
  8
10
100
AcDbLine
 10
515.0429983922108
 20
340.0000000000003
 30
0.0
 11
515.0429983922108
 21
334.0000000000001
 31
0.0
  0
LINE
  5
7D6
330
1F
100
AcDbEntity
  8
10
100
AcDbLine
 10
513.0429983922108
 20
337.0000000000004
 30
0.0
 11
513.0429983922108
 21
340.0000000000003
 31
0.0
  0
LINE
  5
7D7
330
1F
100
AcDbEntity
  8
10
100
AcDbLine
 10
511.0429983922109
 20
340.0000000000003
 30
0.0
 11
511.0429983922109
 21
334.0000000000001
 31
0.0
  0
LINE
  5
7D8
330
1F
100
AcDbEntity
  8
10
100
AcDbLine
 10
509.0429983922108
 20
331.0000000000004
 30
0.0
 11
509.0429983922108
 21
340.0000000000003
 31
0.0
  0
LINE
  5
7D9
330
1F
100
AcDbEntity
  8
10
100
AcDbLine
 10
507.0429983922108
 20
340.0000000000003
 30
0.0
 11
507.0429983922108
 21
328.0000000000004
 31
0.0
  0
LINE
  5
7DA
330
1F
100
AcDbEntity
  8
10
100
AcDbLine
 10
505.0429983922108
 20
325.0000000000003
 30
0.0
 11
505.0429983922108
 21
340.0000000000003
 31
0.0
  0
LINE
  5
7DB
330
1F
100
AcDbEntity
  8
10
100
AcDbLine
 10
503.0429983922116
 20
340.0000000000003
 30
0.0
 11
503.0429983922116
 21
322.0
 31
0.0
  0
LINE
  5
7DC
330
1F
100
AcDbEntity
  8
10
100
AcDbLine
 10
501.042998392212
 20
319.0
 30
0.0
 11
501.042998392212
 21
340.0000000000003
 31
0.0
  0
LINE
  5
7DD
330
1F
100
AcDbEntity
  8
10
100
AcDbLine
 10
499.0429983922108
 20
340.0000000000003
 30
0.0
 11
499.0429983922108
 21
316.0
 31
0.0
  0
LINE
  5
7DE
330
1F
100
AcDbEntity
  8
10
100
AcDbLine
 10
497.0429983922108
 20
313.0000000000003
 30
0.0
 11
497.0429983922108
 21
340.0000000000003
 31
0.0
  0
LINE
  5
7DF
330
1F
100
AcDbEntity
  8
10
100
AcDbLine
 10
495.0429983922108
 20
340.0000000000003
 30
0.0
 11
495.0429983922108
 21
310.0000000000004
 31
0.0
  0
LINE
  5
7E0
330
1F
100
AcDbEntity
  8
10
100
AcDbLine
 10
493.0429983922108
 20
313.0000000000003
 30
0.0
 11
493.0429983922108
 21
340.0000000000003
 31
0.0
  0
LINE
  5
7E1
330
1F
100
AcDbEntity
  8
10
100
AcDbLine
 10
491.0429983922108
 20
340.0000000000003
 30
0.0
 11
491.0429983922108
 21
316.0
 31
0.0
  0
LINE
  5
7E2
330
1F
100
AcDbEntity
  8
10
100
AcDbLine
 10
489.0429983922108
 20
319.0
 30
0.0
 11
489.0429983922108
 21
340.0000000000003
 31
0.0
  0
LINE
  5
7E3
330
1F
100
AcDbEntity
  8
10
100
AcDbLine
 10
487.042998392212
 20
340.0000000000003
 30
0.0
 11
487.042998392212
 21
322.0
 31
0.0
  0
LINE
  5
7E4
330
1F
100
AcDbEntity
  8
10
100
AcDbLine
 10
485.0429983922118
 20
340.0000000000003
 30
0.0
 11
485.0429983922118
 21
325.0000000000003
 31
0.0
  0
LINE
  5
7E5
330
1F
100
AcDbEntity
  8
10
100
AcDbLine
 10
483.042998392212
 20
328.0000000000004
 30
0.0
 11
483.042998392212
 21
340.0000000000003
 31
0.0
  0
LINE
  5
7E6
330
1F
100
AcDbEntity
  8
10
100
AcDbLine
 10
481.0429983922118
 20
340.0000000000003
 30
0.0
 11
481.0429983922118
 21
331.0000000000004
 31
0.0
  0
LINE
  5
7E7
330
1F
100
AcDbEntity
  8
10
100
AcDbLine
 10
479.042998392212
 20
334.0000000000001
 30
0.0
 11
479.042998392212
 21
340.0000000000003
 31
0.0
  0
LINE
  5
7E8
330
1F
100
AcDbEntity
  8
10
100
AcDbLine
 10
477.0429983922118
 20
340.0000000000003
 30
0.0
 11
477.0429983922118
 21
337.0000000000004
 31
0.0
  0
LINE
  5
7E9
330
1F
100
AcDbEntity
  8
10
100
AcDbLine
 10
73.99999999999884
 20
70.55999999999993
 30
0.0
 11
73.99999999999884
 21
269.4400000000005
 31
0.0
  0
LINE
  5
7EA
330
1F
100
AcDbEntity
  8
10
100
AcDbLine
 10
76.0
 20
65.47133223180299
 30
0.0
 11
76.0
 21
274.5286677681974
 31
0.0
  0
LINE
  5
7EB
330
1F
100
AcDbEntity
  8
10
100
AcDbLine
 10
74.99999999999885
 20
35.0
 30
0.0
 11
82.49999999999884
 21
35.0
 31
0.0
  0
LINE
  5
7EC
330
1F
100
AcDbEntity
  8
10
100
AcDbLine
 10
72.39999999999895
 20
39.55999999999994
 30
0.0
 11
67.49999999999885
 21
39.55999999999994
 31
0.0
  0
LINE
  5
7ED
330
1F
100
AcDbEntity
  8
10
100
AcDbLine
 10
74.99999999999885
 20
300.4400000000005
 30
0.0
 11
82.49999999999884
 21
300.4400000000005
 31
0.0
  0
LINE
  5
7EE
330
1F
100
AcDbEntity
  8
10
100
AcDbLine
 10
72.39999999999895
 20
305.0000000000004
 30
0.0
 11
67.49999999999885
 21
305.0000000000004
 31
0.0
  0
LINE
  5
7EF
330
1F
100
AcDbEntity
  8
17
 48
3.0
100
AcDbLine
 10
70.39999999999896
 20
287.4400000000004
 30
0.0
 11
76.99999999999885
 21
287.4400000000004
 31
0.0
  0
LINE
  5
7F0
330
1F
100
AcDbEntity
  8
10
100
AcDbLine
 10
74.99999999999885
 20
305.44
 30
0.0
 11
74.99999999999885
 21
269.4400000000005
 31
0.0
  0
LINE
  5
7F1
330
1F
100
AcDbEntity
  8
10
100
AcDbLine
 10
72.39999999999895
 20
269.4400000000005
 30
0.0
 11
72.39999999999895
 21
305.44
 31
0.0
  0
LINE
  5
7F2
330
1F
100
AcDbEntity
  8
10
100
AcDbLine
 10
72.39999999999895
 20
280.8400000000005
 30
0.0
 11
74.99999999999885
 21
280.8400000000005
 31
0.0
  0
LINE
  5
7F3
330
1F
100
AcDbEntity
  8
10
100
AcDbLine
 10
72.39999999999895
 20
294.0399999999998
 30
0.0
 11
74.99999999999885
 21
294.0399999999998
 31
0.0
  0
LINE
  5
7F4
330
1F
100
AcDbEntity
  8
10
100
AcDbLine
 10
74.99999999999885
 20
269.4400000000005
 30
0.0
 11
72.39999999999895
 21
269.4400000000005
 31
0.0
  0
LINE
  5
7F5
330
1F
100
AcDbEntity
  8
10
100
AcDbLine
 10
72.39999999999895
 20
305.44
 30
0.0
 11
74.99999999999885
 21
305.44
 31
0.0
  0
LINE
  5
7F6
330
1F
100
AcDbEntity
  8
17
 48
3.0
100
AcDbLine
 10
382.0429983922118
 20
43.98000000000001
 30
0.0
 11
382.0429983922118
 21
61.13999999999986
 31
0.0
  0
LINE
  5
7F7
330
1F
100
AcDbEntity
  8
17
 48
3.0
100
AcDbLine
 10
390.6229983922107
 20
52.55999999999993
 30
0.0
 11
373.462998392212
 21
52.55999999999993
 31
0.0
  0
LINE
  5
7F8
330
1F
100
AcDbEntity
  8
10
100
AcDbLine
 10
403.5429983922118
 20
39.61000000000012
 30
0.0
 11
403.5429983922118
 21
65.51000000000022
 31
0.0
  0
LINE
  5
7F9
330
1F
100
AcDbEntity
  8
10
100
AcDbLine
 10
431.0429983922118
 20
39.61000000000012
 30
0.0
 11
403.5429983922118
 21
39.61000000000012
 31
0.0
  0
LINE
  5
7FA
330
1F
100
AcDbEntity
  8
10
100
AcDbLine
 10
403.5429983922118
 20
65.51000000000022
 30
0.0
 11
431.0429983922118
 21
65.51000000000022
 31
0.0
  0
LINE
  5
7FB
330
1F
100
AcDbEntity
  8
10
100
AcDbLine
 10
431.0429983922118
 20
61.05999999999995
 30
0.0
 11
451.042998392212
 21
61.05999999999995
 31
0.0
  0
LINE
  5
7FC
330
1F
100
AcDbEntity
  8
10
100
AcDbLine
 10
431.0429983922118
 20
65.51000000000022
 30
0.0
 11
431.0429983922118
 21
39.61000000000012
 31
0.0
  0
LINE
  5
7FD
330
1F
100
AcDbEntity
  8
10
100
AcDbLine
 10
451.042998392212
 20
295.9400000000005
 30
0.0
 11
451.042998392212
 21
44.05999999999993
 31
0.0
  0
LINE
  5
7FE
330
1F
100
AcDbEntity
  8
10
100
AcDbLine
 10
451.042998392212
 20
278.94
 30
0.0
 11
431.0429983922118
 21
278.94
 31
0.0
  0
LINE
  5
7FF
330
1F
100
AcDbEntity
  8
10
100
AcDbLine
 10
431.0429983922118
 20
295.9400000000005
 30
0.0
 11
546.042998392212
 21
295.9400000000005
 31
0.0
  0
LINE
  5
800
330
1F
100
AcDbEntity
  8
17
 48
3.0
100
AcDbLine
 10
382.0429983922118
 20
278.8600000000004
 30
0.0
 11
382.0429983922118
 21
296.0199999999998
 31
0.0
  0
LINE
  5
801
330
1F
100
AcDbEntity
  8
17
 48
3.0
100
AcDbLine
 10
390.6229983922107
 20
287.4400000000004
 30
0.0
 11
373.462998392212
 21
287.4400000000004
 31
0.0
  0
LINE
  5
802
330
1F
100
AcDbEntity
  8
17
 48
3.0
100
AcDbLine
 10
70.39999999999896
 20
52.55999999999993
 30
0.0
 11
76.99999999999885
 21
52.55999999999993
 31
0.0
  0
LINE
  5
803
330
1F
100
AcDbEntity
  8
10
100
AcDbLine
 10
403.5429983922118
 20
300.3900000000006
 30
0.0
 11
431.0429983922118
 21
300.3900000000006
 31
0.0
  0
LINE
  5
804
330
1F
100
AcDbEntity
  8
10
100
AcDbLine
 10
431.0429983922118
 20
274.4900000000006
 30
0.0
 11
403.5429983922118
 21
274.4900000000006
 31
0.0
  0
LINE
  5
805
330
1F
100
AcDbEntity
  8
10
100
AcDbLine
 10
431.0429983922118
 20
300.3900000000006
 30
0.0
 11
431.0429983922118
 21
274.4900000000006
 31
0.0
  0
LINE
  5
806
330
1F
100
AcDbEntity
  8
10
100
AcDbLine
 10
403.5429983922118
 20
274.4900000000006
 30
0.0
 11
403.5429983922118
 21
300.3900000000006
 31
0.0
  0
LINE
  5
807
330
1F
100
AcDbEntity
  8
10
100
AcDbLine
 10
72.39999999999895
 20
70.55999999999993
 30
0.0
 11
74.99999999999885
 21
70.55999999999993
 31
0.0
  0
LINE
  5
808
330
1F
100
AcDbEntity
  8
10
100
AcDbLine
 10
74.99999999999885
 20
34.55999999999994
 30
0.0
 11
72.39999999999895
 21
34.55999999999994
 31
0.0
  0
LINE
  5
809
330
1F
100
AcDbEntity
  8
10
100
AcDbLine
 10
72.39999999999895
 20
59.15999999999985
 30
0.0
 11
74.99999999999885
 21
59.15999999999985
 31
0.0
  0
LINE
  5
80A
330
1F
100
AcDbEntity
  8
10
100
AcDbLine
 10
72.39999999999895
 20
45.96000000000092
 30
0.0
 11
74.99999999999885
 21
45.96000000000092
 31
0.0
  0
LINE
  5
80B
330
1F
100
AcDbEntity
  8
10
100
AcDbLine
 10
72.39999999999895
 20
34.55999999999994
 30
0.0
 11
72.39999999999895
 21
70.55999999999993
 31
0.0
  0
LINE
  5
80C
330
1F
100
AcDbEntity
  8
10
100
AcDbLine
 10
74.99999999999885
 20
70.55999999999993
 30
0.0
 11
74.99999999999885
 21
34.55999999999994
 31
0.0
  0
LINE
  5
80D
330
1F
100
AcDbEntity
  8
10
100
AcDbLine
 10
462.042998392212
 20
23.25
 30
0.0
 11
461.2429983922107
 21
23.25
 31
0.0
  0
LINE
  5
80E
330
1F
100
AcDbEntity
  8
10
100
AcDbLine
 10
461.2429983922107
 20
11.75
 30
0.0
 11
462.042998392212
 21
11.75
 31
0.0
  0
LINE
  5
80F
330
1F
100
AcDbEntity
  8
10
100
AcDbLine
 10
468.5429983922118
 20
23.5999999999999
 30
0.0
 11
467.042998392212
 21
23.5999999999999
 31
0.0
  0
LINE
  5
810
330
1F
100
AcDbEntity
  8
10
100
AcDbLine
 10
467.042998392212
 20
11.40000000000009
 30
0.0
 11
468.5429983922118
 21
11.40000000000009
 31
0.0
  0
LINE
  5
811
330
1F
100
AcDbEntity
  8
10
100
AcDbLine
 10
462.0429983922108
 20
23.27350269189627
 30
0.0
 11
467.042998392212
 21
23.27350269189627
 31
0.0
  0
LINE
  5
812
330
1F
100
AcDbEntity
  8
10
100
AcDbLine
 10
462.4895803795967
 20
20.38675134594814
 30
0.0
 11
467.042998392212
 21
20.38675134594814
 31
0.0
  0
LINE
  5
813
330
1F
100
AcDbEntity
  8
10
100
AcDbLine
 10
462.4895803795967
 20
14.61324865405185
 30
0.0
 11
467.042998392212
 21
14.61324865405185
 31
0.0
  0
LINE
  5
814
330
1F
100
AcDbEntity
  8
10
100
AcDbLine
 10
462.0429983922108
 20
11.72649730810417
 30
0.0
 11
467.042998392212
 21
11.72649730810417
 31
0.0
  0
LINE
  5
815
330
1F
100
AcDbEntity
  8
10
100
AcDbLine
 10
462.042998392212
 20
23.27350269189627
 30
0.0
 11
462.042998392212
 21
11.72649730810417
 31
0.0
  0
LINE
  5
816
330
1F
100
AcDbEntity
  8
10
100
AcDbLine
 10
467.042998392212
 20
23.5999999999999
 30
0.0
 11
467.042998392212
 21
11.40000000000009
 31
0.0
  0
LINE
  5
817
330
1F
100
AcDbEntity
  8
10
100
AcDbLine
 10
72.39999999999895
 20
295.9400000000005
 30
0.0
 11
18.5
 21
295.9400000000005
 31
0.0
  0
LINE
  5
818
330
1F
100
AcDbEntity
  8
10
100
AcDbLine
 10
70.0
 20
300.4400000000005
 30
0.0
 11
70.0
 21
295.9400000000005
 31
0.0
  0
LINE
  5
819
330
1F
100
AcDbEntity
  8
10
100
AcDbLine
 10
80.0
 20
299.3858151668268
 30
0.0
 11
80.0
 21
300.4400000000005
 31
0.0
  0
LINE
  5
81A
330
1F
100
AcDbEntity
  8
10
100
AcDbLine
 10
84.76997952914894
 20
295.9400000000005
 30
0.0
 11
131.4999999999988
 21
295.9400000000005
 31
0.0
  0
LINE
  5
81B
330
1F
100
AcDbEntity
  8
10
100
AcDbLine
 10
112.4999999999988
 20
300.4400000000005
 30
0.0
 11
114.9999999999987
 21
300.4400000000005
 31
0.0
  0
LINE
  5
81C
330
1F
100
AcDbEntity
  8
10
100
AcDbLine
 10
67.49999999999885
 20
300.4400000000005
 30
0.0
 11
72.39999999999895
 21
300.4400000000005
 31
0.0
  0
LINE
  5
81D
330
1F
100
AcDbEntity
  8
10
100
AcDbLine
 10
35.0
 20
300.4400000000005
 30
0.0
 11
37.5
 21
300.4400000000005
 31
0.0
  0
LINE
  5
81E
330
1F
100
AcDbEntity
  8
10
100
AcDbLine
 10
37.5
 20
295.9400000000005
 30
0.0
 11
37.5
 21
306.5000000000003
 31
0.0
  0
LINE
  5
81F
330
1F
100
AcDbEntity
  8
10
100
AcDbLine
 10
35.0
 20
305.0000000000004
 30
0.0
 11
37.5
 21
305.0000000000004
 31
0.0
  0
LINE
  5
820
330
1F
100
AcDbEntity
  8
10
100
AcDbLine
 10
67.49999999999885
 20
295.9400000000005
 30
0.0
 11
67.49999999999885
 21
306.5000000000003
 31
0.0
  0
LINE
  5
821
330
1F
100
AcDbEntity
  8
10
100
AcDbLine
 10
82.49999999999884
 20
305.0000000000004
 30
0.0
 11
74.99999999999885
 21
305.0000000000004
 31
0.0
  0
LINE
  5
822
330
1F
100
AcDbEntity
  8
10
100
AcDbLine
 10
82.49999999999884
 20
306.5000000000003
 30
0.0
 11
82.49999999999884
 21
297.9971066111888
 31
0.0
  0
LINE
  5
823
330
1F
100
AcDbEntity
  8
10
100
AcDbLine
 10
112.4999999999988
 20
295.9400000000005
 30
0.0
 11
112.4999999999988
 21
306.5000000000003
 31
0.0
  0
LINE
  5
824
330
1F
100
AcDbEntity
  8
10
100
AcDbLine
 10
114.9999999999987
 20
305.0000000000004
 30
0.0
 11
112.4999999999988
 21
305.0000000000004
 31
0.0
  0
LINE
  5
825
330
1F
100
AcDbEntity
  8
10
100
AcDbLine
 10
35.0
 20
340.0000000000003
 30
0.0
 11
35.0
 21
295.9400000000005
 31
0.0
  0
LINE
  5
826
330
1F
100
AcDbEntity
  8
10
100
AcDbLine
 10
114.9999999999987
 20
340.0000000000003
 30
0.0
 11
35.0
 21
340.0000000000003
 31
0.0
  0
LINE
  5
827
330
1F
100
AcDbEntity
  8
10
100
AcDbLine
 10
114.9999999999987
 20
295.9400000000005
 30
0.0
 11
114.9999999999987
 21
340.0000000000003
 31
0.0
  0
LINE
  5
828
330
1F
100
AcDbEntity
  8
10
100
AcDbLine
 10
150.0
 20
306.5000000000003
 30
0.0
 11
150.0
 21
338.5000000000004
 31
0.0
  0
LINE
  5
829
330
1F
100
AcDbEntity
  8
10
100
AcDbLine
 10
119.4999999999987
 20
338.5000000000004
 30
0.0
 11
119.4999999999987
 21
306.5000000000003
 31
0.0
  0
LINE
  5
82A
330
1F
100
AcDbEntity
  8
10
100
AcDbLine
 10
0.0
 20
338.5000000000004
 30
0.0
 11
0.0
 21
306.5000000000003
 31
0.0
  0
LINE
  5
82B
330
1F
100
AcDbEntity
  8
10
100
AcDbLine
 10
30.5
 20
306.5000000000003
 30
0.0
 11
30.5
 21
338.5000000000004
 31
0.0
  0
LINE
  5
82C
330
1F
100
AcDbEntity
  8
10
100
AcDbLine
 10
0.0
 20
306.5000000000003
 30
0.0
 11
150.0
 21
306.5000000000003
 31
0.0
  0
LINE
  5
82D
330
1F
100
AcDbEntity
  8
10
100
AcDbLine
 10
150.0
 20
338.5000000000004
 30
0.0
 11
0.0
 21
338.5000000000004
 31
0.0
  0
LINE
  5
82E
330
1F
100
AcDbEntity
  8
12
 48
3.0
100
AcDbLine
 10
139.9999999999988
 20
314.2000000000021
 30
0.0
 11
139.9999999999988
 21
335.8000000000001
 31
0.0
  0
LINE
  5
82F
330
1F
100
AcDbEntity
  8
12
 48
3.0
100
AcDbLine
 10
146.5
 20
325.0000000000003
 30
0.0
 11
133.4999999999988
 21
325.0000000000003
 31
0.0
  0
LINE
  5
830
330
1F
100
AcDbEntity
  8
12
 48
3.0
100
AcDbLine
 10
16.5
 20
324.5000000000004
 30
0.0
 11
3.5
 21
324.5000000000004
 31
0.0
  0
LINE
  5
831
330
1F
100
AcDbEntity
  8
12
 48
3.0
100
AcDbLine
 10
10.0
 20
311.7000000000006
 30
0.0
 11
10.0
 21
333.3000000000001
 31
0.0
  0
LINE
  5
832
330
1F
100
AcDbEntity
  8
10
100
AcDbLine
 10
52.49999999999886
 20
316.7264973081051
 30
0.0
 11
57.49999999999886
 21
319.6132486540523
 31
0.0
  0
LINE
  5
833
330
1F
100
AcDbEntity
  8
10
100
AcDbLine
 10
47.5
 20
319.6132486540523
 30
0.0
 11
52.49999999999886
 21
316.7264973081051
 31
0.0
  0
LINE
  5
834
330
1F
100
AcDbEntity
  8
10
100
AcDbLine
 10
47.5
 20
325.3867513459481
 30
0.0
 11
47.5
 21
319.6132486540523
 31
0.0
  0
LINE
  5
835
330
1F
100
AcDbEntity
  8
10
100
AcDbLine
 10
52.49999999999886
 20
328.2735026918971
 30
0.0
 11
47.5
 21
325.3867513459481
 31
0.0
  0
LINE
  5
836
330
1F
100
AcDbEntity
  8
10
100
AcDbLine
 10
57.49999999999886
 20
325.3867513459481
 30
0.0
 11
52.49999999999886
 21
328.2735026918971
 31
0.0
  0
LINE
  5
837
330
1F
100
AcDbEntity
  8
10
100
AcDbLine
 10
57.49999999999886
 20
319.6132486540523
 30
0.0
 11
57.49999999999886
 21
325.3867513459481
 31
0.0
  0
LINE
  5
838
330
1F
100
AcDbEntity
  8
12
 48
3.0
100
AcDbLine
 10
547.5429983922118
 20
322.5000000000004
 30
0.0
 11
556.0429983922108
 21
322.5000000000004
 31
0.0
  0
LINE
  5
839
330
1F
100
AcDbEntity
  8
10
100
AcDbLine
 10
476.0429983922108
 20
337.44
 30
0.0
 11
473.0429983922117
 21
337.44
 31
0.0
  0
LINE
  5
83A
330
1F
100
AcDbEntity
  8
10
100
AcDbLine
 10
521.0429983922108
 20
340.0000000000003
 30
0.0
 11
476.0429983922108
 21
340.0000000000003
 31
0.0
  0
LINE
  5
83B
330
1F
100
AcDbEntity
  8
10
100
AcDbLine
 10
524.0429983922108
 20
337.44
 30
0.0
 11
521.0429983922108
 21
337.44
 31
0.0
  0
LINE
  5
83C
330
1F
100
AcDbEntity
  8
10
100
AcDbLine
 10
521.0429983922108
 20
305.0000000000004
 30
0.0
 11
476.0429983922108
 21
305.0000000000004
 31
0.0
  0
LINE
  5
83D
330
1F
100
AcDbEntity
  8
10
100
AcDbLine
 10
476.0429983922108
 20
300.4400000000005
 30
0.0
 11
521.0429983922108
 21
300.4400000000005
 31
0.0
  0
LINE
  5
83E
330
1F
100
AcDbEntity
  8
10
100
AcDbLine
 10
476.0429983922108
 20
340.0000000000003
 30
0.0
 11
476.0429983922108
 21
295.9400000000005
 31
0.0
  0
LINE
  5
83F
330
1F
100
AcDbEntity
  8
10
100
AcDbLine
 10
521.0429983922108
 20
295.9400000000005
 30
0.0
 11
521.0429983922108
 21
340.0000000000003
 31
0.0
  0
LINE
  5
840
330
1F
100
AcDbEntity
  8
10
100
AcDbLine
 10
468.5429983922118
 20
306.5000000000003
 30
0.0
 11
473.0429983922117
 21
306.5000000000003
 31
0.0
  0
LINE
  5
841
330
1F
100
AcDbEntity
  8
10
100
AcDbLine
 10
473.0429983922117
 20
338.5000000000004
 30
0.0
 11
468.5429983922118
 21
338.5000000000004
 31
0.0
  0
LINE
  5
842
330
1F
100
AcDbEntity
  8
10
100
AcDbLine
 10
473.0429983922117
 20
295.9400000000005
 30
0.0
 11
473.0429983922117
 21
338.5000000000004
 31
0.0
  0
LINE
  5
843
330
1F
100
AcDbEntity
  8
10
100
AcDbLine
 10
524.0429983922108
 20
295.9400000000005
 30
0.0
 11
524.0429983922108
 21
338.5000000000004
 31
0.0
  0
LINE
  5
844
330
1F
100
AcDbEntity
  8
10
 48
3.0
100
AcDbLine
 10
528.542998392212
 20
306.5000000000003
 30
0.0
 11
528.542998392212
 21
338.5000000000004
 31
0.0
  0
LINE
  5
845
330
1F
100
AcDbEntity
  8
10
100
AcDbLine
 10
554.0429983922108
 20
338.5000000000004
 30
0.0
 11
524.0429983922108
 21
338.5000000000004
 31
0.0
  0
LINE
  5
846
330
1F
100
AcDbEntity
  8
10
100
AcDbLine
 10
524.0429983922108
 20
306.5000000000003
 30
0.0
 11
554.0429983922108
 21
306.5000000000003
 31
0.0
  0
LINE
  5
847
330
1F
100
AcDbEntity
  8
10
 48
3.0
100
AcDbLine
 10
554.0429983922108
 20
313.5000000000004
 30
0.0
 11
549.542998392212
 21
313.5000000000004
 31
0.0
  0
LINE
  5
848
330
1F
100
AcDbEntity
  8
10
 48
3.0
100
AcDbLine
 10
549.542998392212
 20
331.5000000000003
 30
0.0
 11
554.0429983922108
 21
331.5000000000003
 31
0.0
  0
LINE
  5
849
330
1F
100
AcDbEntity
  8
10
100
AcDbLine
 10
554.0429983922108
 20
306.5000000000003
 30
0.0
 11
554.0429983922108
 21
338.5000000000004
 31
0.0
  0
LINE
  5
84A
330
1F
100
AcDbEntity
  8
10
100
AcDbLine
 10
549.542998392212
 20
338.5000000000004
 30
0.0
 11
549.542998392212
 21
306.5000000000003
 31
0.0
  0
LINE
  5
84B
330
1F
100
AcDbEntity
  8
10
100
AcDbLine
 10
467.042998392212
 20
316.4000000000005
 30
0.0
 11
468.5429983922118
 21
316.4000000000005
 31
0.0
  0
LINE
  5
84C
330
1F
100
AcDbEntity
  8
10
100
AcDbLine
 10
468.5429983922118
 20
328.6000000000008
 30
0.0
 11
467.042998392212
 21
328.6000000000008
 31
0.0
  0
LINE
  5
84D
330
1F
100
AcDbEntity
  8
10
100
AcDbLine
 10
468.5429983922118
 20
338.5000000000004
 30
0.0
 11
468.5429983922118
 21
306.5000000000003
 31
0.0
  0
LINE
  5
84E
330
1F
100
AcDbEntity
  8
10
100
AcDbLine
 10
467.042998392212
 20
316.7264973081051
 30
0.0
 11
462.042998392212
 21
316.7264973081051
 31
0.0
  0
LINE
  5
84F
330
1F
100
AcDbEntity
  8
10
100
AcDbLine
 10
467.042998392212
 20
319.6132486540523
 30
0.0
 11
462.4895803795967
 21
319.6132486540523
 31
0.0
  0
LINE
  5
850
330
1F
100
AcDbEntity
  8
10
100
AcDbLine
 10
467.042998392212
 20
325.3867513459481
 30
0.0
 11
462.4895803795967
 21
325.3867513459481
 31
0.0
  0
LINE
  5
851
330
1F
100
AcDbEntity
  8
10
100
AcDbLine
 10
467.042998392212
 20
328.2735026918971
 30
0.0
 11
462.042998392212
 21
328.2735026918971
 31
0.0
  0
LINE
  5
852
330
1F
100
AcDbEntity
  8
10
100
AcDbLine
 10
462.042998392212
 20
328.2735026918971
 30
0.0
 11
462.042998392212
 21
316.7264973081051
 31
0.0
  0
LINE
  5
853
330
1F
100
AcDbEntity
  8
10
100
AcDbLine
 10
467.042998392212
 20
328.6000000000008
 30
0.0
 11
467.042998392212
 21
316.4000000000005
 31
0.0
  0
LINE
  5
854
330
1F
100
AcDbEntity
  8
10
100
AcDbLine
 10
449.542998392212
 20
14.5
 30
0.0
 11
449.542998392212
 21
20.5
 31
0.0
  0
LINE
  5
855
330
1F
100
AcDbEntity
  8
10
100
AcDbLine
 10
448.5429983922117
 20
15.5
 30
0.0
 11
449.542998392212
 21
14.5
 31
0.0
  0
LINE
  5
856
330
1F
100
AcDbEntity
  8
10
100
AcDbLine
 10
448.5429983922117
 20
19.5
 30
0.0
 11
449.542998392212
 21
20.5
 31
0.0
  0
LINE
  5
857
330
1F
100
AcDbEntity
  8
10
100
AcDbLine
 10
449.542998392212
 20
20.5
 30
0.0
 11
454.7429983922106
 21
20.5
 31
0.0
  0
LINE
  5
858
330
1F
100
AcDbEntity
  8
10
100
AcDbLine
 10
448.5429983922117
 20
15.5
 30
0.0
 11
448.5429983922117
 21
19.5
 31
0.0
  0
LINE
  5
859
330
1F
100
AcDbEntity
  8
10
100
AcDbLine
 10
454.7429983922106
 20
14.5
 30
0.0
 11
449.542998392212
 21
14.5
 31
0.0
  0
LINE
  5
85A
330
1F
100
AcDbEntity
  8
10
100
AcDbLine
 10
454.7429983922106
 20
15.5
 30
0.0
 11
448.5429983922117
 21
15.5
 31
0.0
  0
LINE
  5
85B
330
1F
100
AcDbEntity
  8
10
100
AcDbLine
 10
454.7429983922106
 20
19.5
 30
0.0
 11
448.5429983922117
 21
19.5
 31
0.0
  0
LINE
  5
85C
330
1F
100
AcDbEntity
  8
10
100
AcDbLine
 10
454.7429983922106
 20
23.27350269189627
 30
0.0
 11
454.7429983922106
 21
11.72649730810417
 31
0.0
  0
LINE
  5
85D
330
1F
100
AcDbEntity
  8
10
100
AcDbLine
 10
459.7429983922106
 20
23.5999999999999
 30
0.0
 11
459.7429983922106
 21
11.40000000000009
 31
0.0
  0
LINE
  5
85E
330
1F
100
AcDbEntity
  8
10
100
AcDbLine
 10
454.7429983922106
 20
11.72649730810417
 30
0.0
 11
459.7429983922106
 21
11.72649730810417
 31
0.0
  0
LINE
  5
85F
330
1F
100
AcDbEntity
  8
10
100
AcDbLine
 10
455.1895803795968
 20
14.61324865405185
 30
0.0
 11
459.7429983922106
 21
14.61324865405185
 31
0.0
  0
LINE
  5
860
330
1F
100
AcDbEntity
  8
10
100
AcDbLine
 10
455.1895803795968
 20
20.38675134594814
 30
0.0
 11
459.7429983922106
 21
20.38675134594814
 31
0.0
  0
LINE
  5
861
330
1F
100
AcDbEntity
  8
10
100
AcDbLine
 10
454.7429983922106
 20
23.27350269189627
 30
0.0
 11
459.7429983922106
 21
23.27350269189627
 31
0.0
  0
LINE
  5
862
330
1F
100
AcDbEntity
  8
10
100
AcDbLine
 10
459.7429983922106
 20
11.40000000000009
 30
0.0
 11
461.2429983922107
 21
11.40000000000009
 31
0.0
  0
LINE
  5
863
330
1F
100
AcDbEntity
  8
10
100
AcDbLine
 10
461.2429983922107
 20
23.5999999999999
 30
0.0
 11
461.2429983922107
 21
11.40000000000009
 31
0.0
  0
LINE
  5
864
330
1F
100
AcDbEntity
  8
10
100
AcDbLine
 10
461.2429983922107
 20
23.5999999999999
 30
0.0
 11
459.7429983922106
 21
23.5999999999999
 31
0.0
  0
LINE
  5
865
330
1F
100
AcDbEntity
  8
10
100
AcDbLine
 10
102.4999999999987
 20
20.38675134594814
 30
0.0
 11
97.5
 21
23.27350269189627
 31
0.0
  0
LINE
  5
866
330
1F
100
AcDbEntity
  8
10
100
AcDbLine
 10
97.5
 20
23.27350269189627
 30
0.0
 11
92.49999999999884
 21
20.38675134594814
 31
0.0
  0
LINE
  5
867
330
1F
100
AcDbEntity
  8
10
100
AcDbLine
 10
92.49999999999884
 20
20.38675134594814
 30
0.0
 11
92.49999999999884
 21
14.61324865405185
 31
0.0
  0
LINE
  5
868
330
1F
100
AcDbEntity
  8
10
100
AcDbLine
 10
92.49999999999884
 20
14.61324865405185
 30
0.0
 11
97.5
 21
11.72649730810417
 31
0.0
  0
LINE
  5
869
330
1F
100
AcDbEntity
  8
10
100
AcDbLine
 10
97.5
 20
11.72649730810417
 30
0.0
 11
102.4999999999987
 21
14.61324865405185
 31
0.0
  0
LINE
  5
86A
330
1F
100
AcDbEntity
  8
10
100
AcDbLine
 10
102.4999999999987
 20
14.61324865405185
 30
0.0
 11
102.4999999999987
 21
20.38675134594814
 31
0.0
  0
LINE
  5
86B
330
1F
100
AcDbEntity
  8
12
 48
3.0
100
AcDbLine
 10
556.0429983922108
 20
17.5
 30
0.0
 11
547.5429983922118
 21
17.5
 31
0.0
  0
LINE
  5
86C
330
1F
100
AcDbEntity
  8
10
 48
3.0
100
AcDbLine
 10
554.0429983922108
 20
8.5
 30
0.0
 11
549.542998392212
 21
8.5
 31
0.0
  0
LINE
  5
86D
330
1F
100
AcDbEntity
  8
10
 48
3.0
100
AcDbLine
 10
549.542998392212
 20
26.5
 30
0.0
 11
554.0429983922108
 21
26.5
 31
0.0
  0
LINE
  5
86E
330
1F
100
AcDbEntity
  8
10
100
AcDbLine
 10
6.5
 20
19.0
 30
0.0
 11
6.5
 21
11.0
 31
0.0
  0
LINE
  5
86F
330
1F
100
AcDbEntity
  8
12
100
AcDbLine
 10
10.0
 20
5.700000000001181
 30
0.0
 11
10.0
 21
24.29999999999926
 31
0.0
  0
LINE
  5
870
330
1F
100
AcDbEntity
  8
12
100
AcDbLine
 10
3.5
 20
15.0
 30
0.0
 11
16.5
 21
15.0
 31
0.0
  0
LINE
  5
871
330
1F
100
AcDbEntity
  8
12
100
AcDbLine
 10
133.4999999999988
 20
15.0
 30
0.0
 11
146.5
 21
15.0
 31
0.0
  0
LINE
  5
872
330
1F
100
AcDbEntity
  8
12
100
AcDbLine
 10
139.9999999999988
 20
5.700000000001181
 30
0.0
 11
139.9999999999988
 21
24.29999999999926
 31
0.0
  0
LINE
  5
873
330
1F
100
AcDbEntity
  8
10
100
AcDbLine
 10
30.5
 20
1.5
 30
0.0
 11
30.5
 21
33.5
 31
0.0
  0
LINE
  5
874
330
1F
100
AcDbEntity
  8
10
100
AcDbLine
 10
0.0
 20
33.5
 30
0.0
 11
0.0
 21
1.5
 31
0.0
  0
LINE
  5
875
330
1F
100
AcDbEntity
  8
10
100
AcDbLine
 10
119.4999999999987
 20
33.5
 30
0.0
 11
119.4999999999987
 21
1.5
 31
0.0
  0
LINE
  5
876
330
1F
100
AcDbEntity
  8
10
100
AcDbLine
 10
150.0
 20
1.5
 30
0.0
 11
150.0
 21
33.5
 31
0.0
  0
LINE
  5
877
330
1F
100
AcDbEntity
  8
10
 48
3.0
100
AcDbLine
 10
528.542998392212
 20
1.5
 30
0.0
 11
528.542998392212
 21
33.5
 31
0.0
  0
LINE
  5
878
330
1F
100
AcDbEntity
  8
10
100
AcDbLine
 10
549.542998392212
 20
33.5
 30
0.0
 11
549.542998392212
 21
1.5
 31
0.0
  0
LINE
  5
879
330
1F
100
AcDbEntity
  8
10
100
AcDbLine
 10
554.0429983922108
 20
33.5
 30
0.0
 11
524.0429983922108
 21
33.5
 31
0.0
  0
LINE
  5
87A
330
1F
100
AcDbEntity
  8
10
100
AcDbLine
 10
554.0429983922108
 20
1.5
 30
0.0
 11
554.0429983922108
 21
33.5
 31
0.0
  0
LINE
  5
87B
330
1F
100
AcDbEntity
  8
10
100
AcDbLine
 10
524.0429983922108
 20
1.5
 30
0.0
 11
554.0429983922108
 21
1.5
 31
0.0
  0
LINE
  5
87C
330
1F
100
AcDbEntity
  8
10
100
AcDbLine
 10
468.5429983922118
 20
1.5
 30
0.0
 11
473.0429983922117
 21
1.5
 31
0.0
  0
LINE
  5
87D
330
1F
100
AcDbEntity
  8
10
100
AcDbLine
 10
468.5429983922118
 20
33.5
 30
0.0
 11
468.5429983922118
 21
1.5
 31
0.0
  0
LINE
  5
87E
330
1F
100
AcDbEntity
  8
10
100
AcDbLine
 10
473.0429983922117
 20
33.5
 30
0.0
 11
468.5429983922118
 21
33.5
 31
0.0
  0
LINE
  5
87F
330
1F
100
AcDbEntity
  8
10
100
AcDbLine
 10
35.0
 20
0.0
 30
0.0
 11
114.9999999999987
 21
0.0
 31
0.0
  0
LINE
  5
880
330
1F
100
AcDbEntity
  8
10
100
AcDbLine
 10
112.4999999999988
 20
35.0
 30
0.0
 11
114.9999999999987
 21
35.0
 31
0.0
  0
LINE
  5
881
330
1F
100
AcDbEntity
  8
10
100
AcDbLine
 10
67.49999999999885
 20
35.0
 30
0.0
 11
72.39999999999895
 21
35.0
 31
0.0
  0
LINE
  5
882
330
1F
100
AcDbEntity
  8
10
100
AcDbLine
 10
37.5
 20
35.0
 30
0.0
 11
35.0
 21
35.0
 31
0.0
  0
LINE
  5
883
330
1F
100
AcDbEntity
  8
10
100
AcDbLine
 10
150.0
 20
1.5
 30
0.0
 11
0.0
 21
1.5
 31
0.0
  0
LINE
  5
884
330
1F
100
AcDbEntity
  8
10
100
AcDbLine
 10
0.0
 20
33.5
 30
0.0
 11
150.0
 21
33.5
 31
0.0
  0
LINE
  5
885
330
1F
100
AcDbEntity
  8
10
100
AcDbLine
 10
37.5
 20
39.55999999999994
 30
0.0
 11
35.0
 21
39.55999999999994
 31
0.0
  0
LINE
  5
886
330
1F
100
AcDbEntity
  8
10
100
AcDbLine
 10
82.49999999999884
 20
39.55999999999994
 30
0.0
 11
74.99999999999885
 21
39.55999999999994
 31
0.0
  0
LINE
  5
887
330
1F
100
AcDbEntity
  8
10
100
AcDbLine
 10
114.9999999999987
 20
39.55999999999994
 30
0.0
 11
112.4999999999988
 21
39.55999999999994
 31
0.0
  0
LINE
  5
888
330
1F
100
AcDbEntity
  8
10
100
AcDbLine
 10
114.9999999999987
 20
44.05999999999993
 30
0.0
 11
114.9999999999987
 21
0.0
 31
0.0
  0
LINE
  5
889
330
1F
100
AcDbEntity
  8
10
100
AcDbLine
 10
112.4999999999988
 20
33.5
 30
0.0
 11
112.4999999999988
 21
44.05999999999993
 31
0.0
  0
LINE
  5
88A
330
1F
100
AcDbEntity
  8
10
100
AcDbLine
 10
82.49999999999884
 20
42.00289338881201
 30
0.0
 11
82.49999999999884
 21
33.5
 31
0.0
  0
LINE
  5
88B
330
1F
100
AcDbEntity
  8
10
100
AcDbLine
 10
80.0
 20
39.55999999999994
 30
0.0
 11
80.0
 21
40.6141848331731
 31
0.0
  0
LINE
  5
88C
330
1F
100
AcDbEntity
  8
10
100
AcDbLine
 10
70.0
 20
44.05999999999993
 30
0.0
 11
70.0
 21
39.55999999999994
 31
0.0
  0
LINE
  5
88D
330
1F
100
AcDbEntity
  8
10
100
AcDbLine
 10
67.49999999999885
 20
33.5
 30
0.0
 11
67.49999999999885
 21
44.05999999999993
 31
0.0
  0
LINE
  5
88E
330
1F
100
AcDbEntity
  8
10
100
AcDbLine
 10
37.5
 20
44.05999999999993
 30
0.0
 11
37.5
 21
33.5
 31
0.0
  0
LINE
  5
88F
330
1F
100
AcDbEntity
  8
10
100
AcDbLine
 10
35.0
 20
0.0
 30
0.0
 11
35.0
 21
44.05999999999993
 31
0.0
  0
LINE
  5
890
330
1F
100
AcDbEntity
  8
10
100
AcDbLine
 10
521.0429983922108
 20
39.55999999999994
 30
0.0
 11
476.0429983922108
 21
39.55999999999994
 31
0.0
  0
LINE
  5
891
330
1F
100
AcDbEntity
  8
10
100
AcDbLine
 10
476.0429983922108
 20
35.0
 30
0.0
 11
521.0429983922108
 21
35.0
 31
0.0
  0
LINE
  5
892
330
1F
100
AcDbEntity
  8
10
100
AcDbLine
 10
524.0429983922108
 20
1.5
 30
0.0
 11
524.0429983922108
 21
44.05999999999993
 31
0.0
  0
LINE
  5
893
330
1F
100
AcDbEntity
  8
10
100
AcDbLine
 10
521.0429983922108
 20
2.559999999999944
 30
0.0
 11
524.0429983922108
 21
2.559999999999944
 31
0.0
  0
LINE
  5
894
330
1F
100
AcDbEntity
  8
10
100
AcDbLine
 10
521.0429983922108
 20
0.0
 30
0.0
 11
521.0429983922108
 21
44.05999999999993
 31
0.0
  0
LINE
  5
895
330
1F
100
AcDbEntity
  8
10
100
AcDbLine
 10
476.0429983922108
 20
0.0
 30
0.0
 11
521.0429983922108
 21
0.0
 31
0.0
  0
LINE
  5
896
330
1F
100
AcDbEntity
  8
10
100
AcDbLine
 10
476.0429983922108
 20
44.05999999999993
 30
0.0
 11
476.0429983922108
 21
0.0
 31
0.0
  0
LINE
  5
897
330
1F
100
AcDbEntity
  8
10
100
AcDbLine
 10
473.0429983922117
 20
2.559999999999944
 30
0.0
 11
476.0429983922108
 21
2.559999999999944
 31
0.0
  0
LINE
  5
898
330
1F
100
AcDbEntity
  8
10
100
AcDbLine
 10
473.0429983922117
 20
44.05999999999993
 30
0.0
 11
473.0429983922117
 21
1.5
 31
0.0
  0
LINE
  5
899
330
1F
100
AcDbEntity
  8
10
100
AcDbLine
 10
546.042998392212
 20
44.05999999999993
 30
0.0
 11
546.042998392212
 21
295.9400000000005
 31
0.0
  0
LINE
  5
89A
330
1F
100
AcDbEntity
  8
10
100
AcDbLine
 10
431.0429983922118
 20
44.05999999999993
 30
0.0
 11
546.042998392212
 21
44.05999999999993
 31
0.0
  0
LINE
  5
89B
330
1F
100
AcDbEntity
  8
10
100
AcDbLine
 10
131.4999999999988
 20
44.05999999999993
 30
0.0
 11
84.76997952914894
 21
44.05999999999993
 31
0.0
  0
LINE
  5
89C
330
1F
100
AcDbEntity
  8
10
100
AcDbLine
 10
131.4999999999988
 20
295.9400000000005
 30
0.0
 11
131.4999999999988
 21
44.05999999999993
 31
0.0
  0
LINE
  5
89D
330
1F
100
AcDbEntity
  8
10
100
AcDbLine
 10
18.5
 20
295.9400000000005
 30
0.0
 11
18.5
 21
44.05999999999993
 31
0.0
  0
LINE
  5
89E
330
1F
100
AcDbEntity
  8
10
100
AcDbLine
 10
18.5
 20
44.05999999999993
 30
0.0
 11
72.39999999999895
 21
44.05999999999993
 31
0.0
  0
ARC
  5
89F
330
1F
100
AcDbEntity
  8
10
100
AcDbCircle
 10
74.99999999999885
 20
287.4400000000004
 30
0.0
 40
12.94999999999999
100
AcDbArc
 50
270.0
 51
90.0
  0
ARC
  5
8A0
330
1F
100
AcDbEntity
  8
10
100
AcDbCircle
 10
382.0429983922167
 20
52.55999999999131
 30
0.0
 40
17.99999999998998
100
AcDbArc
 50
284.9999999999943
 51
296.4364747980029
  0
ARC
  5
8A1
330
1F
100
AcDbEntity
  8
10
100
AcDbCircle
 10
403.5429983922118
 20
9.317673267326879
 30
0.0
 40
30.292326732673
100
AcDbArc
 50
90.0
 51
116.4364747980026
  0
ARC
  5
8A2
330
1F
100
AcDbEntity
  8
10
100
AcDbCircle
 10
382.0429983922118
 20
52.55999999999993
 30
0.0
 40
18.0
100
AcDbArc
 50
63.5635252019971
 51
284.9999999999943
  0
ARC
  5
8A3
330
1F
100
AcDbEntity
  8
10
100
AcDbCircle
 10
403.5429983922118
 20
95.802326732673
 30
0.0
 40
30.292326732673
100
AcDbArc
 50
243.5635252019971
 51
270.0
  0
ARC
  5
8A4
330
1F
100
AcDbEntity
  8
10
100
AcDbCircle
 10
403.5429983922118
 20
330.6823267326738
 30
0.0
 40
30.292326732673
100
AcDbArc
 50
243.5635252019971
 51
270.0
  0
ARC
  5
8A5
330
1F
100
AcDbEntity
  8
10
100
AcDbCircle
 10
382.0429983922118
 20
287.4400000000004
 30
0.0
 40
18.0
100
AcDbArc
 50
63.5635252019971
 51
284.9999999999943
  0
ARC
  5
8A6
330
1F
100
AcDbEntity
  8
10
100
AcDbCircle
 10
403.5429983922118
 20
244.1976732673279
 30
0.0
 40
30.292326732673
100
AcDbArc
 50
90.0
 51
116.4364747980026
  0
ARC
  5
8A7
330
1F
100
AcDbEntity
  8
10
100
AcDbCircle
 10
382.0429983922167
 20
287.4399999999921
 30
0.0
 40
17.99999999998998
100
AcDbArc
 50
284.9999999999943
 51
296.4364747980029
  0
ARC
  5
8A8
330
1F
100
AcDbEntity
  8
10
100
AcDbCircle
 10
74.99999999999885
 20
52.55999999999993
 30
0.0
 40
12.94999999999999
100
AcDbArc
 50
270.0
 51
90.0
  0
ARC
  5
8A9
330
1F
100
AcDbEntity
  8
10
100
AcDbCircle
 10
471.5964164048257
 20
17.5
 30
0.0
 40
9.553418012614999
100
AcDbArc
 50
162.4120462260085
 51
197.5879537739913
  0
ARC
  5
8AA
330
1F
100
AcDbEntity
  8
10
100
AcDbCircle
 10
471.5964164048257
 20
322.5000000000004
 30
0.0
 40
9.553418012614999
100
AcDbArc
 50
162.4120462260085
 51
197.5879537739913
  0
ARC
  5
8AB
330
1F
100
AcDbEntity
  8
10
100
AcDbCircle
 10
464.2964164048271
 20
17.5
 30
0.0
 40
9.553418012614999
100
AcDbArc
 50
162.4120462260085
 51
197.5879537739913
  0
CIRCLE
  5
8AC
330
1F
100
AcDbEntity
  8
10
100
AcDbCircle
 10
382.0429983922118
 20
52.55999999999993
 30
0.0
 40
6.599999999999997
  0
CIRCLE
  5
8AD
330
1F
100
AcDbEntity
  8
10
100
AcDbCircle
 10
382.0429983922118
 20
287.4400000000004
 30
0.0
 40
6.599999999999997
  0
CIRCLE
  5
8AE
330
1F
100
AcDbEntity
  8
10
100
AcDbCircle
 10
52.49999999999886
 20
322.5000000000004
 30
0.0
 40
5.0
  0
CIRCLE
  5
8AF
330
1F
100
AcDbEntity
  8
10
100
AcDbCircle
 10
52.49999999999886
 20
322.5000000000004
 30
0.0
 40
6.099999999999997
  0
CIRCLE
  5
8B0
330
1F
100
AcDbEntity
  8
10
100
AcDbCircle
 10
52.49999999999886
 20
322.5000000000004
 30
0.0
 40
3.0
  0
CIRCLE
  5
8B1
330
1F
100
AcDbEntity
  8
10
100
AcDbCircle
 10
97.5
 20
17.5
 30
0.0
 40
5.0
  0
CIRCLE
  5
8B2
330
1F
100
AcDbEntity
  8
10
100
AcDbCircle
 10
97.5
 20
17.5
 30
0.0
 40
6.099999999999997
  0
CIRCLE
  5
8B3
330
1F
100
AcDbEntity
  8
10
100
AcDbCircle
 10
97.5
 20
17.5
 30
0.0
 40
3.0
  0
CIRCLE
  5
8C8
330
1F
100
AcDbEntity
  8
10
100
AcDbCircle
 10
52.5
 20
17.49999999999771
 30
0.0
 40
6.099999999999997
  0
CIRCLE
  5
8C9
330
1F
100
AcDbEntity
  8
10
100
AcDbCircle
 10
52.5
 20
17.49999999999771
 30
0.0
 40
3.0
  0
CIRCLE
  5
8CA
330
1F
100
AcDbEntity
  8
10
100
AcDbCircle
 10
52.5
 20
17.49999999999771
 30
0.0
 40
5.0
  0
LINE
  5
8CB
330
1F
100
AcDbEntity
  8
10
100
AcDbLine
 10
47.5
 20
14.61324865405003
 30
0.0
 11
47.5
 21
20.38675134594632
 31
0.0
  0
LINE
  5
8CC
330
1F
100
AcDbEntity
  8
10
100
AcDbLine
 10
52.5
 20
11.72649730810189
 30
0.0
 11
47.5
 21
14.61324865405003
 31
0.0
  0
LINE
  5
8CD
330
1F
100
AcDbEntity
  8
10
100
AcDbLine
 10
57.5
 20
14.61324865405092
 30
0.0
 11
52.5
 21
11.72649730810189
 31
0.0
  0
LINE
  5
8CE
330
1F
100
AcDbEntity
  8
10
100
AcDbLine
 10
57.5
 20
20.38675134594722
 30
0.0
 11
57.5
 21
14.61324865405092
 31
0.0
  0
LINE
  5
8CF
330
1F
100
AcDbEntity
  8
10
100
AcDbLine
 10
52.5
 20
23.27350269189401
 30
0.0
 11
57.5
 21
20.38675134594722
 31
0.0
  0
LINE
  5
8D0
330
1F
100
AcDbEntity
  8
10
100
AcDbLine
 10
47.5
 20
20.38675134594632
 30
0.0
 11
52.5
 21
23.27350269189401
 31
0.0
  0
CIRCLE
  5
8D1
330
1F
100
AcDbEntity
  8
10
100
AcDbCircle
 10
97.5
 20
322.4999999999986
 30
0.0
 40
6.099999999999997
  0
CIRCLE
  5
8D2
330
1F
100
AcDbEntity
  8
10
100
AcDbCircle
 10
97.5
 20
322.4999999999986
 30
0.0
 40
5.0
  0
LINE
  5
8D3
330
1F
100
AcDbEntity
  8
10
100
AcDbLine
 10
97.50000000000092
 20
328.2735026918953
 30
0.0
 11
102.5000000000009
 21
325.3867513459467
 31
0.0
  0
LINE
  5
8D4
330
1F
100
AcDbEntity
  8
10
100
AcDbLine
 10
102.4999999999999
 20
319.6132486540493
 30
0.0
 11
97.5
 21
316.7264973081032
 31
0.0
  0
LINE
  5
8D5
330
1F
100
AcDbEntity
  8
10
100
AcDbLine
 10
102.5000000000009
 20
325.3867513459467
 30
0.0
 11
102.4999999999999
 21
319.6132486540493
 31
0.0
  0
CIRCLE
  5
8D6
330
1F
100
AcDbEntity
  8
10
100
AcDbCircle
 10
97.5
 20
322.4999999999986
 30
0.0
 40
3.0
  0
LINE
  5
8D7
330
1F
100
AcDbEntity
  8
10
100
AcDbLine
 10
92.5
 20
319.6132486540509
 30
0.0
 11
92.5000000000009
 21
325.3867513459467
 31
0.0
  0
LINE
  5
8D8
330
1F
100
AcDbEntity
  8
10
100
AcDbLine
 10
92.5000000000009
 20
325.3867513459467
 30
0.0
 11
97.50000000000092
 21
328.2735026918953
 31
0.0
  0
LINE
  5
8D9
330
1F
100
AcDbEntity
  8
10
100
AcDbLine
 10
97.5
 20
316.7264973081032
 30
0.0
 11
92.5
 21
319.6132486540509
 31
0.0
  0
LINE
  5
8DA
330
1F
100
AcDbEntity
  8
10
100
AcDbLine
 10
462.042998392212
 20
324.5000000000004
 30
0.0
 11
455.8429983922118
 21
324.5000000000004
 31
0.0
  0
LINE
  5
8DB
330
1F
100
AcDbEntity
  8
10
100
AcDbLine
 10
462.042998392212
 20
320.5000000000004
 30
0.0
 11
455.8429983922118
 21
320.5000000000004
 31
0.0
  0
LINE
  5
8DC
330
1F
100
AcDbEntity
  8
10
100
AcDbLine
 10
462.042998392212
 20
319.5000000000001
 30
0.0
 11
456.8429983922118
 21
319.5000000000001
 31
0.0
  0
LINE
  5
8DD
330
1F
100
AcDbEntity
  8
10
100
AcDbLine
 10
456.8429983922118
 20
325.5000000000003
 30
0.0
 11
462.042998392212
 21
325.5000000000003
 31
0.0
  0
LINE
  5
8DE
330
1F
100
AcDbEntity
  8
10
100
AcDbLine
 10
455.8429983922118
 20
324.5000000000004
 30
0.0
 11
456.8429983922118
 21
325.5000000000003
 31
0.0
  0
LINE
  5
8DF
330
1F
100
AcDbEntity
  8
10
100
AcDbLine
 10
455.8429983922118
 20
320.5000000000004
 30
0.0
 11
456.8429983922118
 21
319.5000000000001
 31
0.0
  0
LINE
  5
8E0
330
1F
100
AcDbEntity
  8
10
100
AcDbLine
 10
456.8429983922118
 20
319.5000000000001
 30
0.0
 11
456.8429983922118
 21
325.5000000000003
 31
0.0
  0
LINE
  5
8E1
330
1F
100
AcDbEntity
  8
10
100
AcDbLine
 10
455.8429983922118
 20
320.5000000000004
 30
0.0
 11
455.8429983922118
 21
324.5000000000004
 31
0.0
  0
ARC
  5
8E2
330
1F
100
AcDbEntity
  8
10
100
AcDbCircle
 10
10.0
 20
19.0
 30
0.0
 40
3.5
100
AcDbArc
 50
0.0
 51
180.0
  0
ARC
  5
8E3
330
1F
100
AcDbEntity
  8
10
100
AcDbCircle
 10
10.0
 20
11.0
 30
0.0
 40
3.5
100
AcDbArc
 50
180.0
 51
0.0
  0
LINE
  5
8E4
330
1F
100
AcDbEntity
  8
10
100
AcDbLine
 10
13.5
 20
19.0
 30
0.0
 11
13.5
 21
11.0
 31
0.0
  0
LINE
  5
8E5
330
1F
100
AcDbEntity
  8
10
100
AcDbLine
 10
136.4999999999999
 20
19.0
 30
0.0
 11
136.4999999999999
 21
11.0
 31
0.0
  0
ARC
  5
8E6
330
1F
100
AcDbEntity
  8
10
100
AcDbCircle
 10
139.9999999999988
 20
19.0
 30
0.0
 40
3.5
100
AcDbArc
 50
0.0
 51
180.0
  0
ARC
  5
8E7
330
1F
100
AcDbEntity
  8
10
100
AcDbCircle
 10
139.9999999999988
 20
11.0
 30
0.0
 40
3.5
100
AcDbArc
 50
180.0
 51
0.0
  0
LINE
  5
8E8
330
1F
100
AcDbEntity
  8
10
100
AcDbLine
 10
143.4999999999988
 20
19.0
 30
0.0
 11
143.4999999999988
 21
11.0
 31
0.0
  0
LINE
  5
8E9
330
1F
100
AcDbEntity
  8
10
100
AcDbLine
 10
136.4999999999999
 20
329.0000000000004
 30
0.0
 11
136.4999999999999
 21
321.0000000000003
 31
0.0
  0
ARC
  5
8EA
330
1F
100
AcDbEntity
  8
10
100
AcDbCircle
 10
139.9999999999988
 20
329.0000000000004
 30
0.0
 40
3.5
100
AcDbArc
 50
0.0
 51
180.0
  0
ARC
  5
8EB
330
1F
100
AcDbEntity
  8
10
100
AcDbCircle
 10
139.9999999999988
 20
321.0000000000003
 30
0.0
 40
3.5
100
AcDbArc
 50
180.0
 51
0.0
  0
LINE
  5
8EC
330
1F
100
AcDbEntity
  8
10
100
AcDbLine
 10
143.4999999999988
 20
329.0000000000004
 30
0.0
 11
143.4999999999988
 21
321.0000000000003
 31
0.0
  0
LINE
  5
8ED
330
1F
100
AcDbEntity
  8
10
100
AcDbLine
 10
6.5
 20
328.5000000000004
 30
0.0
 11
6.5
 21
320.5
 31
0.0
  0
ARC
  5
8EE
330
1F
100
AcDbEntity
  8
10
100
AcDbCircle
 10
10.0
 20
328.5000000000004
 30
0.0
 40
3.5
100
AcDbArc
 50
0.0
 51
180.0
  0
ARC
  5
8EF
330
1F
100
AcDbEntity
  8
10
100
AcDbCircle
 10
10.0
 20
320.5
 30
0.0
 40
3.5
100
AcDbArc
 50
180.0
 51
0.0
  0
LINE
  5
8F0
330
1F
100
AcDbEntity
  8
10
100
AcDbLine
 10
13.5
 20
328.5000000000004
 30
0.0
 11
13.5
 21
320.5
 31
0.0
  0
VIEWPORT
  5
409
330
23
100
AcDbEntity
 67
     1
  8
0
100
AcDbViewport
 10
142.6315765380859
 20
99.1129140853882
 30
0.0
 40
314.2372683715819
 41
259.7433703258352
 68
     1
 69
     1
1001
ACAD
1000
MVIEW
1002
{
1070
    16
1010
0.0
1020
0.0
1030
0.0
1010
0.0
1020
0.0
1030
1.0
1040
0.0
1040
259.7433703258352
1040
142.6315765380859
1040
99.1129140853882
1040
50.0
1040
0.0
1040
0.0
1070
     0
1070
   100
1070
     1
1070
     1
1070
     0
1070
     0
1070
     0
1070
     0
1040
0.0
1040
0.0
1040
0.0
1040
10.0
1040
10.0
1040
10.0
1040
10.0
1070
     0
1002
{
1002
}
1002
}
  0
VIEWPORT
  5
40B
330
23
100
AcDbEntity
 67
     1
  8
0
100
AcDbViewport
 10
142.6315770149231
 20
99.11291456222535
 30
0.0
 40
228.2105232238769
 41
158.5806632995605
 68
     2
 69
     2
1001
ACAD
1000
MVIEW
1002
{
1070
    16
1010
0.0
1020
0.0
1030
0.0
1010
0.0
1020
0.0
1030
1.0
1040
0.0
1040
437.7797658097811
1040
303.2144175903108
1040
233.3590858733038
1040
50.0
1040
0.0
1040
0.0
1070
     0
1070
   100
1070
     1
1070
     3
1070
     0
1070
     0
1070
     0
1070
     0
1040
0.0
1040
0.0
1040
0.0
1040
10.0
1040
10.0
1040
10.0
1040
10.0
1070
     0
1002
{
1002
}
1002
}
  0
ENDSEC
  0
SECTION
  2
OBJECTS
  0
DICTIONARY
  5
C
330
0
100
AcDbDictionary
  3
ACAD_GROUP
350
D
  3
ACAD_LAYOUT
350
1A
  3
ACAD_MLINESTYLE
350
17
  3
ACAD_PLOTSETTINGS
350
19
  3
ACAD_PLOTSTYLENAME
350
E
  3
ACAMCATALOGSTATE
350
5BA
  3
ACASAPPOBJECT
350
53F
  3
ACASGREF_MASTER
350
587
  3
ACDBHEADERROUNDTRIPXREC
350
9EB
  3
ACDBVARIABLEDICTIONARY
350
40D
  3
ACDMSYSVARMGR
350
519
  3
ACGREF_MASTER
350
513
  3
ACGREFACAD_MASTER
350
53B
  3
ACMDICTIONARY
350
5B6
  3
ACME_BOM_MANAGER_NAME
350
50C
  3
ACME_COMMAND_HISTORY
350
507
  3
ACME_SCOPE_NAME
350
506
  3
ACMESTATEMGR
350
511
  3
ACMESYSVARMANAGER
350
508
  3
ACMSYSTEMVARIABLEMANAGER
350
5C4
  3
AD_APPL
350
59E
  3
AD_GREF_MODULE
350
588
  3
AD_MAPI_MODULE
350
5A0
  3
ADSYSVARMGR
350
590
  3
AMDTNAMEDDWGMGR
350
536
  3
AMG
350
4FD
  3
AMGSNAPSETTINGS
350
5D0
  3
AMI_MASTER
350
53E
  3
ASURF_STATIC_VARS
350
540
  3
AUTOCAD_ASSEMBLIES_PROJECT
350
5AB
  3
AUTOSURF_SYSVARS
350
541
  3
DESIGNER_ASSEMBLIES_SYSVARS
350
5A2
  3
DWGPROPS
350
5B9
  3
GREFAM_MODULE
350
58A
  3
MAPISURF_MODULE
350
589
  0
DICTIONARY
  5
41
330
2
100
AcDbDictionary
280
     1
  3
ACAD_LAYERFILTERS
360
3FF
  3
ACAD_LAYERSTATES
360
42
  0
DICTIONARY
  5
438
330
1F
100
AcDbDictionary
280
     1
  3
ACAD_INDEX
360
5D7
  3
ACAD_LAYOUTSELFREF
360
A0B
  0
DICTIONARY
  5
43A
330
23
100
AcDbDictionary
280
     1
  3
ACAD_LAYOUTSELFREF
360
A0C
  0
DICTIONARY
  5
D
102
{ACAD_REACTORS
330
C
102
}
330
C
100
AcDbDictionary
  0
DICTIONARY
  5
1A
102
{ACAD_REACTORS
330
C
102
}
330
C
100
AcDbDictionary
  0
DICTIONARY
  5
17
102
{ACAD_REACTORS
330
C
102
}
330
C
100
AcDbDictionary
  3
STANDARD
350
18
  0
DICTIONARY
  5
19
102
{ACAD_REACTORS
330
C
102
}
330
C
100
AcDbDictionary
  0
ACDBDICTIONARYWDFLT
  5
E
102
{ACAD_REACTORS
330
C
102
}
330
C
100
AcDbDictionary
281
     1
  3
Normal
350
F
100
AcDbDictionaryWithDefault
340
F
  0
ACAD_PROXY_OBJECT
  5
5BA
102
{ACAD_REACTORS
330
C
102
}
330
C
100
AcDbProxyObject
 90
      499
 91
      574
 93
      880
310
3FFFFFFFE00A0284402B0AE2E189C9917189B1C17189719182E32B733B4B732B2B934B733AE32B733B4B732B2B934B733AE26A2A2C5E34B58AE181C1898189A2FA6A2A2AF99222FC6F6483EAE39B4B5BCBAAE232916A420A62FA422A62FA1A0A22E4728C6B641B340ADC1AF400AA00
 94
        0
1001
ACAD
1000
AcadProxyRoundTripData
1071
      565
1071
   851991
1070
     0
  0
ACAD_PROXY_OBJECT
  5
53F
102
{ACAD_REACTORS
330
C
102
}
330
C
100
AcDbProxyObject
 90
      499
 91
      574
 93
       10
310
4040
 94
        0
1001
ACAD
1000
AcadProxyRoundTripData
1071
      537
1071
   851991
1070
     0
  0
ACAD_PROXY_OBJECT
  5
587
102
{ACAD_REACTORS
330
C
102
}
330
C
100
AcDbProxyObject
 90
      499
 91
      574
 93
       34
310
0100004062
 94
        0
1001
ACAD
1000
AcadProxyRoundTripData
1071
      543
1071
   851991
1070
     0
  0
DICTIONARY
  5
9EB
102
{ACAD_REACTORS
330
C
102
}
330
C
100
AcDbDictionary
  3
CEPSNTYPE
350
9F5
  3
FINGERPRINTGUID
350
9F6
  3
HYPERLINKBASE
350
9EE
  3
INSUNITS
350
9F4
  3
LAYOUTDICT
350
9F0
  3
LWETCUNION
350
9F3
  3
PLOTSETDICT
350
9F1
  3
PLOTSTYLNAMDICT
350
9F2
  3
PSVPSCALE
350
9F8
  3
PUCSBASE
350
9FB
  3
PUCSORGBACK
350
A01
  3
PUCSORGBOTTOM
350
9FD
  3
PUCSORGFRONT
350
A00
  3
PUCSORGLEFT
350
9FE
  3
PUCSORGRIGHT
350
9FF
  3
PUCSORGTOP
350
9FC
  3
PUCSORTHOREF
350
9F9
  3
PUCSORTHOVIEW
350
9FA
  3
STYLESHEET
350
9EF
  3
TSTACKALIGN
350
9EC
  3
TSTACKSIZE
350
9ED
  3
UCSBASE
350
A04
  3
UCSORGBACK
350
A0A
  3
UCSORGBOTTOM
350
A06
  3
UCSORGFRONT
350
A09
  3
UCSORGLEFT
350
A07
  3
UCSORGRIGHT
350
A08
  3
UCSORGTOP
350
A05
  3
UCSORTHOREF
350
A02
  3
UCSORTHOVIEW
350
A03
  3
VERSIONGUID
350
9F7
  0
DICTIONARY
  5
40D
102
{ACAD_REACTORS
330
C
102
}
330
C
100
AcDbDictionary
  3
DIMASSOC
350
40F
  3
HIDETEXT
350
40E
  3
INDEXCTL
350
5DF
  0
ACAD_PROXY_OBJECT
  5
519
102
{ACAD_REACTORS
330
C
102
}
330
C
100
AcDbProxyObject
 90
      499
 91
      574
 93
      240
310
4C51A482000000000000000000000000000000000000000000000000000000
330
51A
330
51B
330
51C
330
51D
330
51E
330
51F
330
520
330
523
330
524
330
525
330
526
330
527
330
528
330
529
330
52A
330
52B
330
52C
330
52D
330
52E
330
52F
330
530
330
531
330
532
330
533
330
534
330
535
 94
        0
1001
ACAD
1000
AcadProxyRoundTripData
1071
      516
1071
   851991
1070
     0
  0
ACAD_PROXY_OBJECT
  5
513
102
{ACAD_REACTORS
330
C
102
}
330
C
100
AcDbProxyObject
 90
      499
 91
      574
 93
       34
310
04000042A2
 94
        0
1001
ACAD
1000
AcadProxyRoundTripData
1071
      525
1071
   851991
1070
     0
  0
ACAD_PROXY_OBJECT
  5
53B
102
{ACAD_REACTORS
330
C
102
}
330
C
100
AcDbProxyObject
 90
      499
 91
      574
 93
      114
310
04000041C000000000000000000000
 94
        0
1001
ACAD
1000
AcadProxyRoundTripData
1071
      533
1071
   851991
1070
     0
  0
DICTIONARY
  5
5B6
102
{ACAD_REACTORS
330
C
102
}
330
C
100
AcDbDictionary
  3
ACMBOMDATA
350
5B7
  0
ACAD_PROXY_OBJECT
  5
50C
102
{ACAD_REACTORS
330
C
102
}
330
C
100
AcDbProxyObject
 90
      499
 91
      574
 93
       50
310
00000040400000
330
0
330
0
330
50D
 94
        0
1001
ACAD
1000
AcadProxyRoundTripData
1071
      519
1071
   851991
1070
     0
  0
ACAD_PROXY_OBJECT
  5
507
102
{ACAD_REACTORS
330
C
102
}
330
C
100
AcDbProxyObject
 90
      499
 91
      574
 93
      778
310
424050E414D4454524553455444424D4F4440805084E202D20554E444F014213880B4815539113C0507544F4F4C42415280504554E444F80504554E444F80504554E444F80504554E444F80504554E444F8050545524153458050653415645415380
 94
        0
1001
ACAD
1000
AcadProxyRoundTripData
1071
      515
1071
   851991
1070
     0
  0
ACAD_PROXY_OBJECT
  5
506
102
{ACAD_REACTORS
330
C
102
}
330
C
100
AcDbProxyObject
 90
      499
 91
      574
 93
     1242
310
06000044400000000000000000001840000400020000000000000000000000000000000000000000000000000000000000000000000000000000000000000000000000000000000000000000000000000000000000000000000000000000000000000000000000000000000000000000000000000000000000000000000000
310
00000000000000000000000000000000000000000000000000AAAAAAB0
360
509
360
50A
360
50B
360
50D
360
514
360
515
360
516
360
517
360
51A
360
51B
360
51C
360
51D
360
51E
360
51F
360
520
360
523
360
524
360
525
360
526
360
527
360
528
360
529
360
52A
360
52B
360
52C
360
52D
360
52E
360
52F
360
530
360
531
360
532
360
533
360
534
360
535
360
542
360
543
360
544
360
545
360
546
360
547
360
548
360
549
360
54A
360
54B
360
54C
360
54D
360
54E
360
54F
360
550
360
551
360
552
360
553
360
554
360
555
360
556
360
557
360
558
360
559
360
55A
360
55B
360
55C
360
55D
360
55E
360
55F
360
560
360
561
360
562
360
563
360
564
360
565
360
566
360
567
360
568
360
569
360
56A
360
56B
360
56C
360
56D
360
56E
360
56F
360
570
360
571
360
572
360
573
360
574
360
575
360
576
360
577
360
578
360
579
360
57A
360
57B
360
57C
360
57D
360
57E
360
57F
360
580
360
581
360
582
360
583
360
58C
360
58D
360
58E
360
58F
360
591
360
592
360
593
360
594
360
595
360
596
360
597
360
598
360
599
360
59A
360
59B
360
59C
360
59D
360
5A3
360
5A4
360
5A5
360
5A6
360
5A7
360
5A8
360
5A9
360
5AA
360
5AF
360
5B0
360
5B1
360
5B2
360
5B3
360
5B4
360
5C5
 94
        0
1001
ACAD
1000
AcadProxyRoundTripData
1071
      514
1071
   851991
1070
     0
  0
ACAD_PROXY_OBJECT
  5
511
102
{ACAD_REACTORS
330
C
102
}
330
C
100
AcDbProxyObject
 90
      499
 91
      574
 93
       50
310
06000041641280
 94
        0
1001
ACAD
1000
AcadProxyRoundTripData
1071
      524
1071
   851991
1070
     0
  0
ACAD_PROXY_OBJECT
  5
508
102
{ACAD_REACTORS
330
C
102
}
330
C
100
AcDbProxyObject
 90
      499
 91
      574
 93
       48
310
90342200000011
330
509
330
50A
330
50B
 94
        0
1001
ACAD
1000
AcadProxyRoundTripData
1071
      516
1071
   851991
1070
     0
  0
ACAD_PROXY_OBJECT
  5
5C4
102
{ACAD_REACTORS
330
C
102
}
330
C
100
AcDbProxyObject
 90
      499
 91
      574
 93
       32
310
9014220000
330
5C5
 94
        0
1001
ACAD
1000
AcadProxyRoundTripData
1071
      516
1071
   851991
1070
     0
  0
ACAD_PROXY_OBJECT
  5
59E
102
{ACAD_REACTORS
330
C
102
}
330
C
100
AcDbProxyObject
 90
      499
 91
      574
 93
       42
310
0006000043C6
330
58C
 94
        0
1001
ACAD
1000
AcadProxyRoundTripData
1071
      552
1071
   851991
1070
     0
  0
ACAD_PROXY_OBJECT
  5
588
102
{ACAD_REACTORS
330
C
102
}
330
C
100
AcDbProxyObject
 90
      499
 91
      574
 93
      114
310
000000438000000000000000000000
 94
        0
1001
ACAD
1000
AcadProxyRoundTripData
1071
      544
1071
   851991
1070
     0
  0
ACAD_PROXY_OBJECT
  5
5A0
102
{ACAD_REACTORS
330
C
102
}
330
C
100
AcDbProxyObject
 90
      499
 91
      574
 93
       34
310
05000044E2
 94
        0
1001
ACAD
1000
AcadProxyRoundTripData
1071
      554
1071
   851991
1070
     0
  0
ACAD_PROXY_OBJECT
  5
590
102
{ACAD_REACTORS
330
C
102
}
330
C
100
AcDbProxyObject
 90
      499
 91
      574
 93
      128
310
90D4420000000000000000000000000000
330
591
330
592
330
593
330
594
330
595
330
596
330
597
330
598
330
599
330
59A
330
59B
330
59C
330
59D
 94
        0
1001
ACAD
1000
AcadProxyRoundTripData
1071
      516
1071
   851991
1070
     0
  0
ACAD_PROXY_OBJECT
  5
536
102
{ACAD_REACTORS
330
C
102
}
330
C
100
AcDbProxyObject
 90
      499
 91
      574
 93
       42
310
000100005AC6
330
514
 94
        0
1001
ACAD
1000
AcadProxyRoundTripData
1071
      530
1071
   851991
1070
     0
  0
DICTIONARY
  5
4FD
102
{ACAD_REACTORS
330
C
102
}
330
C
100
AcDbDictionary
  3
ACMGSETTINGS
350
4FE
  3
AMGLAYCFG
350
5C3
  0
DICTIONARY
  5
5D0
102
{ACAD_REACTORS
330
C
102
}
330
C
100
AcDbDictionary
  3
DIMENSION
350
5D5
  3
FEA
350
5D4
  3
HATCH__1_
350
5D1
  3
HATCH__2_
350
5D2
  3
SIMPLE_WELD
350
5D6
  3
SYMBOLS
350
5D3
  0
ACAD_PROXY_OBJECT
  5
53E
102
{ACAD_REACTORS
330
C
102
}
330
C
100
AcDbProxyObject
 90
      499
 91
      574
 93
       34
310
05000042A2
 94
        0
1001
ACAD
1000
AcadProxyRoundTripData
1071
      536
1071
   851991
1070
     0
  0
ACAD_PROXY_OBJECT
  5
540
102
{ACAD_REACTORS
330
C
102
}
330
C
100
AcDbProxyObject
 90
      499
 91
      574
 93
      424
310
585315020000000000000000000000000000000000000000000000000000000000000000000000000000000000000000000000000000
330
553
330
554
330
555
330
556
330
557
330
558
330
559
330
55A
330
55B
330
55C
330
55D
330
55E
330
55F
330
560
330
561
330
562
330
563
330
564
330
565
330
566
330
567
330
568
330
569
330
56A
330
56B
330
56C
330
56D
330
56E
330
56F
330
570
330
571
330
572
330
573
330
574
330
575
330
576
330
577
330
578
330
579
330
57A
330
57B
330
57C
330
57D
330
57E
330
57F
330
580
330
581
330
582
330
583
 94
        0
1001
ACAD
1000
AcadProxyRoundTripData
1071
      538
1071
   851991
1070
     0
  0
ACAD_PROXY_OBJECT
  5
5AB
102
{ACAD_REACTORS
330
C
102
}
330
C
100
AcDbProxyObject
 90
      499
 91
      574
 93
       74
310
0600004A400000000000
330
5B2
330
0
330
5B3
330
0
330
0
 94
        0
1001
ACAD
1000
AcadProxyRoundTripData
1071
      556
1071
   851991
1070
     0
  0
ACAD_PROXY_OBJECT
  5
541
102
{ACAD_REACTORS
330
C
102
}
330
C
100
AcDbProxyObject
 90
      499
 91
      574
 93
      168
310
4C511482000000000000000000000000000000000000
330
542
330
543
330
544
330
545
330
546
330
547
330
548
330
549
330
54A
330
54B
330
54C
330
54D
330
54E
330
54F
330
550
330
551
330
552
 94
        0
1001
ACAD
1000
AcadProxyRoundTripData
1071
      516
1071
   851991
1070
     0
  0
ACAD_PROXY_OBJECT
  5
5A2
102
{ACAD_REACTORS
330
C
102
}
330
C
100
AcDbProxyObject
 90
      499
 91
      574
 93
       88
310
908422000000000000000000
330
5A3
330
5A4
330
5A5
330
5A6
330
5A7
330
5A8
330
5A9
330
5AA
 94
        0
1001
ACAD
1000
AcadProxyRoundTripData
1071
      516
1071
   851991
1070
     0
  0
XRECORD
  5
5B9
102
{ACAD_REACTORS
330
C
102
}
330
C
100
AcDbXrecord
  1
DWGPROPS COOKIE
  2

  3

  4

  6

  7

  8

  9

300
AmdtFileType=84
301
=
302
=
303
=
304
=
305
=
306
=
307
=
308
=
309
=
 40
0.005163125
 41
2454596.550355717
 42
2454596.675773645
  1

 90
        1
  0
ACAD_PROXY_OBJECT
  5
58A
102
{ACAD_REACTORS
330
C
102
}
330
C
100
AcDbProxyObject
 90
      499
 91
      574
 93
        8
310
0500
 94
        0
1001
ACAD
1000
AcadProxyRoundTripData
1071
      546
1071
   851991
1070
     0
  0
ACAD_PROXY_OBJECT
  5
589
102
{ACAD_REACTORS
330
C
102
}
330
C
100
AcDbProxyObject
 90
      499
 91
      574
 93
        8
310
0400
 94
        0
1001
ACAD
1000
AcadProxyRoundTripData
1071
      545
1071
   851991
1070
     0
  0
DICTIONARY
  5
3FF
102
{ACAD_REACTORS
330
41
102
}
330
41
100
AcDbDictionary
280
     1
  0
DICTIONARY
  5
42
102
{ACAD_REACTORS
330
41
102
}
330
41
100
AcDbDictionary
  0
DICTIONARY
  5
5D7
102
{ACAD_REACTORS
330
438
102
}
330
438
100
AcDbDictionary
  3
*A1
350
5D8
  0
XRECORD
  5
A0B
102
{ACAD_REACTORS
330
438
102
}
330
438
100
AcDbXrecord
340
1F
  0
XRECORD
  5
A0C
102
{ACAD_REACTORS
330
43A
102
}
330
43A
100
AcDbXrecord
340
23
  0
MLINESTYLE
  5
18
102
{ACAD_REACTORS
330
17
102
}
330
17
100
AcDbMlineStyle
  2
STANDARD
 70
     0
  3

 62
   256
 51
90.0
 52
90.0
 71
     2
 49
0.5
 62
   256
  6
BYLAYER
 49
-0.5
 62
   256
  6
BYLAYER
  0
ACDBPLACEHOLDER
  5
F
102
{ACAD_REACTORS
330
E
102
}
330
E
100
AcDbPlaceHolder
280
     0
  0
XRECORD
  5
9F5
102
{ACAD_REACTORS
330
9EB
102
}
330
9EB
100
AcDbXrecord
 90
        0
  0
XRECORD
  5
9F6
102
{ACAD_REACTORS
330
9EB
102
}
330
9EB
100
AcDbXrecord
  1
{025C7157-5529-449E-A239-D8CA396FD83B}
  0
XRECORD
  5
9EE
102
{ACAD_REACTORS
330
9EB
102
}
330
9EB
100
AcDbXrecord
  1

  0
XRECORD
  5
9F4
102
{ACAD_REACTORS
330
9EB
102
}
330
9EB
100
AcDbXrecord
 90
        4
  0
XRECORD
  5
9F0
102
{ACAD_REACTORS
330
9EB
102
}
330
9EB
100
AcDbXrecord
340
1A
  0
XRECORD
  5
9F3
102
{ACAD_REACTORS
330
9EB
102
}
330
9EB
100
AcDbXrecord
 90
    10781
  0
XRECORD
  5
9F1
102
{ACAD_REACTORS
330
9EB
102
}
330
9EB
100
AcDbXrecord
340
19
  0
XRECORD
  5
9F2
102
{ACAD_REACTORS
330
9EB
102
}
330
9EB
100
AcDbXrecord
340
E
  0
XRECORD
  5
9F8
102
{ACAD_REACTORS
330
9EB
102
}
330
9EB
100
AcDbXrecord
 40
0.0
  0
XRECORD
  5
9FB
102
{ACAD_REACTORS
330
9EB
102
}
330
9EB
100
AcDbXrecord
340
0
  0
XRECORD
  5
A01
102
{ACAD_REACTORS
330
9EB
102
}
330
9EB
100
AcDbXrecord
 10
0.0
 20
0.0
 30
0.0
  0
XRECORD
  5
9FD
102
{ACAD_REACTORS
330
9EB
102
}
330
9EB
100
AcDbXrecord
 10
0.0
 20
0.0
 30
0.0
  0
XRECORD
  5
A00
102
{ACAD_REACTORS
330
9EB
102
}
330
9EB
100
AcDbXrecord
 10
0.0
 20
0.0
 30
0.0
  0
XRECORD
  5
9FE
102
{ACAD_REACTORS
330
9EB
102
}
330
9EB
100
AcDbXrecord
 10
0.0
 20
0.0
 30
0.0
  0
XRECORD
  5
9FF
102
{ACAD_REACTORS
330
9EB
102
}
330
9EB
100
AcDbXrecord
 10
0.0
 20
0.0
 30
0.0
  0
XRECORD
  5
9FC
102
{ACAD_REACTORS
330
9EB
102
}
330
9EB
100
AcDbXrecord
 10
0.0
 20
0.0
 30
0.0
  0
XRECORD
  5
9F9
102
{ACAD_REACTORS
330
9EB
102
}
330
9EB
100
AcDbXrecord
340
0
  0
XRECORD
  5
9FA
102
{ACAD_REACTORS
330
9EB
102
}
330
9EB
100
AcDbXrecord
 70
     0
  0
XRECORD
  5
9EF
102
{ACAD_REACTORS
330
9EB
102
}
330
9EB
100
AcDbXrecord
  1
monochrome.ctb
  0
XRECORD
  5
9EC
102
{ACAD_REACTORS
330
9EB
102
}
330
9EB
100
AcDbXrecord
 90
        1
  0
XRECORD
  5
9ED
102
{ACAD_REACTORS
330
9EB
102
}
330
9EB
100
AcDbXrecord
 90
       70
  0
XRECORD
  5
A04
102
{ACAD_REACTORS
330
9EB
102
}
330
9EB
100
AcDbXrecord
340
0
  0
XRECORD
  5
A0A
102
{ACAD_REACTORS
330
9EB
102
}
330
9EB
100
AcDbXrecord
 10
0.0
 20
0.0
 30
0.0
  0
XRECORD
  5
A06
102
{ACAD_REACTORS
330
9EB
102
}
330
9EB
100
AcDbXrecord
 10
0.0
 20
0.0
 30
0.0
  0
XRECORD
  5
A09
102
{ACAD_REACTORS
330
9EB
102
}
330
9EB
100
AcDbXrecord
 10
0.0
 20
0.0
 30
0.0
  0
XRECORD
  5
A07
102
{ACAD_REACTORS
330
9EB
102
}
330
9EB
100
AcDbXrecord
 10
0.0
 20
0.0
 30
0.0
  0
XRECORD
  5
A08
102
{ACAD_REACTORS
330
9EB
102
}
330
9EB
100
AcDbXrecord
 10
0.0
 20
0.0
 30
0.0
  0
XRECORD
  5
A05
102
{ACAD_REACTORS
330
9EB
102
}
330
9EB
100
AcDbXrecord
 10
0.0
 20
0.0
 30
0.0
  0
XRECORD
  5
A02
102
{ACAD_REACTORS
330
9EB
102
}
330
9EB
100
AcDbXrecord
340
0
  0
XRECORD
  5
A03
102
{ACAD_REACTORS
330
9EB
102
}
330
9EB
100
AcDbXrecord
 70
     0
  0
XRECORD
  5
9F7
102
{ACAD_REACTORS
330
9EB
102
}
330
9EB
100
AcDbXrecord
  1
{AB88B538-BB67-4020-AACF-047925316954}
  0
DICTIONARYVAR
  5
40F
102
{ACAD_REACTORS
330
40D
102
}
330
40D
100
DictionaryVariables
280
     0
  1
2
  0
DICTIONARYVAR
  5
40E
102
{ACAD_REACTORS
330
40D
102
}
330
40D
100
DictionaryVariables
280
     0
  1
1
  0
DICTIONARYVAR
  5
5DF
102
{ACAD_REACTORS
330
40D
102
}
330
40D
100
DictionaryVariables
280
     0
  1
1
  0
ACAD_PROXY_OBJECT
  5
5B7
102
{ACAD_REACTORS
330
5B6
102
}
330
5B6
100
AcDbProxyObject
 90
      499
 91
      574
 93
      118
310
405010040CA904C415CD5B07571028
350
5B8
 94
        0
1001
ACAD
1000
AcadProxyRoundTripData
1071
      563
1071
   851991
1070
     0
  0
ACAD_PROXY_OBJECT
  5
509
330
0
100
AcDbProxyObject
 90
      499
 91
      574
 93
      156
310
00010143D050D351505391D5531054925390D490
330
506
 94
        0
1001
ACAD
1000
AcadProxyRoundTripData
1071
      517
1071
   851991
1070
     0
  0
ACAD_PROXY_OBJECT
  5
50A
330
0
100
AcDbProxyObject
 90
      499
 91
      574
 93
      148
310
000101439050D351531253915054925390D490
330
506
 94
        0
1001
ACAD
1000
AcadProxyRoundTripData
1071
      517
1071
   851991
1070
     0
  0
ACAD_PROXY_OBJECT
  5
50B
330
0
100
AcDbProxyObject
 90
      499
 91
      574
 93
      156
310
000101439050D35154D6535093D314D256915080
330
506
 94
        0
1001
ACAD
1000
AcadProxyRoundTripData
1071
      518
1071
   851991
1070
     0
  0
ACAD_PROXY_OBJECT
  5
50D
330
0
100
AcDbProxyObject
 90
      499
 91
      574
 93
      120
310
000101422565255A6557080C402B0000
330
506
330
0
330
0
 94
        0
1001
ACAD
1000
AcadProxyRoundTripData
1071
      520
1071
   851991
1070
     0
  0
ACAD_PROXY_OBJECT
  5
514
330
0
100
AcDbProxyObject
 90
      499
 91
      574
 93
      358
310
0001014124FEA55D00507362E332E302E31014124FEA55D00507362E332E302E3140501000041505391D311658
330
506
330
515
330
519
 94
        0
1001
ACAD
1000
AcadProxyRoundTripData
1071
      526
1071
   851991
1070
     0
  0
ACAD_PROXY_OBJECT
  5
515
330
0
100
AcDbProxyObject
 90
      499
 91
      574
 93
       48
310
00019014220011
330
506
330
516
 94
        0
1001
ACAD
1000
AcadProxyRoundTripData
1071
      527
1071
   851991
1070
     0
  0
ACAD_PROXY_OBJECT
  5
516
330
0
100
AcDbProxyObject
 90
      499
 91
      574
 93
       48
310
0001AA00000011
330
506
330
4F8
330
517
330
0
 94
        0
1001
ACAD
1000
AcadProxyRoundTripData
1071
      528
1071
   851991
1070
     0
  0
ACAD_PROXY_OBJECT
  5
517
330
0
100
AcDbProxyObject
 90
      499
 91
      574
 93
       28
310
0001AAA8
330
506
 94
        0
1001
ACAD
1000
AcadProxyRoundTripData
1071
      529
1071
   851991
1070
     0
  0
ACAD_PROXY_OBJECT
  5
51A
330
0
100
AcDbProxyObject
 90
      499
 91
      574
 93
      108
310
000101421053521310D05310D010
330
506
 94
        0
1001
ACAD
1000
AcadProxyRoundTripData
1071
      518
1071
   851991
1070
     0
  0
ACAD_PROXY_OBJECT
  5
51B
330
0
100
AcDbProxyObject
 90
      499
 91
      574
 93
      124
310
00010142905354915554D15112535010
330
506
 94
        0
1001
ACAD
1000
AcadProxyRoundTripData
1071
      518
1071
   851991
1070
     0
  0
ACAD_PROXY_OBJECT
  5
51C
330
0
100
AcDbProxyObject
 90
      499
 91
      574
 93
      132
310
00010143105354D150D51253D391125360
330
506
 94
        0
1001
ACAD
1000
AcadProxyRoundTripData
1071
      518
1071
   851991
1070
     0
  0
ACAD_PROXY_OBJECT
  5
51D
330
0
100
AcDbProxyObject
 90
      499
 91
      574
 93
      124
310
00010142905355941093D49111549010
330
506
 94
        0
1001
ACAD
1000
AcadProxyRoundTripData
1071
      518
1071
   851991
1070
     0
  0
ACAD_PROXY_OBJECT
  5
51E
330
0
100
AcDbProxyObject
 90
      499
 91
      574
 93
      116
310
0001014290535115D1D0D3D313D4A0
330
506
 94
        0
1001
ACAD
1000
AcadProxyRoundTripData
1071
      518
1071
   851991
1070
     0
  0
ACAD_PROXY_OBJECT
  5
51F
330
0
100
AcDbProxyObject
 90
      499
 91
      574
 93
      148
310
00010143505355925155D49151949154D21010
330
506
 94
        0
1001
ACAD
1000
AcadProxyRoundTripData
1071
      518
1071
   851991
1070
     0
  0
ACAD_PROXY_OBJECT
  5
520
330
0
100
AcDbProxyObject
 90
      499
 91
      574
 93
      172
310
00010144105350539393D51154149154D15495915010
330
506
 94
        0
1001
ACAD
1000
AcadProxyRoundTripData
1071
      518
1071
   851991
1070
     0
  0
ACAD_PROXY_OBJECT
  5
523
330
0
100
AcDbProxyObject
 90
      499
 91
      574
 93
      172
310
00010144105350555513D11253505494905391D15010
330
506
 94
        0
1001
ACAD
1000
AcadProxyRoundTripData
1071
      518
1071
   851991
1070
     0
  0
ACAD_PROXY_OBJECT
  5
524
330
0
100
AcDbProxyObject
 90
      499
 91
      574
 93
      124
310
00010142D05351561514915191125360
330
506
 94
        0
1001
ACAD
1000
AcadProxyRoundTripData
1071
      518
1071
   851991
1070
     0
  0
ACAD_PROXY_OBJECT
  5
525
330
0
100
AcDbProxyObject
 90
      499
 91
      574
 93
      132
310
00010142D05355105410539393D5115010
330
506
 94
        0
1001
ACAD
1000
AcadProxyRoundTripData
1071
      518
1071
   851991
1070
     0
  0
ACAD_PROXY_OBJECT
  5
526
330
0
100
AcDbProxyObject
 90
      499
 91
      574
 93
      108
310
00010142105350555513D0D31010
330
506
 94
        0
1001
ACAD
1000
AcadProxyRoundTripData
1071
      518
1071
   851991
1070
     0
  0
ACAD_PROXY_OBJECT
  5
527
330
0
100
AcDbProxyObject
 90
      499
 91
      574
 93
      108
310
00010142105350D3119150551050
330
506
 94
        0
1001
ACAD
1000
AcadProxyRoundTripData
1071
      518
1071
   851991
1070
     0
  0
ACAD_PROXY_OBJECT
  5
528
330
0
100
AcDbProxyObject
 90
      499
 91
      574
 93
      108
310
00010142105350D315925155D3F0
330
506
 94
        0
1001
ACAD
1000
AcadProxyRoundTripData
1071
      518
1071
   851991
1070
     0
  0
ACAD_PROXY_OBJECT
  5
529
330
0
100
AcDbProxyObject
 90
      499
 91
      574
 93
      148
310
0001014350535212511156915493D112535010
330
506
 94
        0
1001
ACAD
1000
AcadProxyRoundTripData
1071
      518
1071
   851991
1070
     0
  0
ACAD_PROXY_OBJECT
  5
52A
330
0
100
AcDbProxyObject
 90
      499
 91
      574
 93
      124
310
00010142905352105510D21254D3D010
330
506
 94
        0
1001
ACAD
1000
AcadProxyRoundTripData
1071
      518
1071
   851991
1070
     0
  0
ACAD_PROXY_OBJECT
  5
52B
330
0
100
AcDbProxyObject
 90
      499
 91
      574
 93
      148
310
00010143905354D25391D31152105513105660
330
506
 94
        0
1001
ACAD
1000
AcadProxyRoundTripData
1071
      518
1071
   851991
1070
     0
  0
ACAD_PROXY_OBJECT
  5
52C
330
0
100
AcDbProxyObject
 90
      499
 91
      574
 93
      124
310
00010142D0535115D1D193111254D420
330
506
 94
        0
1001
ACAD
1000
AcadProxyRoundTripData
1071
      518
1071
   851991
1070
     0
  0
ACAD_PROXY_OBJECT
  5
52D
330
0
100
AcDbProxyObject
 90
      499
 91
      574
 93
      100
310
00010142105350555513D213A0
330
506
 94
        0
1001
ACAD
1000
AcadProxyRoundTripData
1071
      518
1071
   851991
1070
     0
  0
ACAD_PROXY_OBJECT
  5
52E
330
0
100
AcDbProxyObject
 90
      499
 91
      574
 93
      116
310
000101425053521390D3D553951010
330
506
 94
        0
1001
ACAD
1000
AcadProxyRoundTripData
1071
      518
1071
   851991
1070
     0
  0
ACAD_PROXY_OBJECT
  5
52F
330
0
100
AcDbProxyObject
 90
      499
 91
      574
 93
      108
310
0001014210535213941493D29010
330
506
 94
        0
1001
ACAD
1000
AcadProxyRoundTripData
1071
      518
1071
   851991
1070
     0
  0
ACAD_PROXY_OBJECT
  5
530
330
0
100
AcDbProxyObject
 90
      499
 91
      574
 93
      108
310
0001014210535213951654115070
330
506
 94
        0
1001
ACAD
1000
AcadProxyRoundTripData
1071
      518
1071
   851991
1070
     0
  0
ACAD_PROXY_OBJECT
  5
531
330
0
100
AcDbProxyObject
 90
      499
 91
      574
 93
      108
310
000101421053521395925155D0F0
330
506
 94
        0
1001
ACAD
1000
AcadProxyRoundTripData
1071
      518
1071
   851991
1070
     0
  0
ACAD_PROXY_OBJECT
  5
532
330
0
100
AcDbProxyObject
 90
      499
 91
      574
 93
      140
310
00010143505354D150D51253D390D3D41660
330
506
 94
        0
1001
ACAD
1000
AcadProxyRoundTripData
1071
      518
1071
   851991
1070
     0
  0
ACAD_PROXY_OBJECT
  5
533
330
0
100
AcDbProxyObject
 90
      499
 91
      574
 93
      108
310
00010142105350D3141493D29030
330
506
 94
        0
1001
ACAD
1000
AcadProxyRoundTripData
1071
      518
1071
   851991
1070
     0
  0
ACAD_PROXY_OBJECT
  5
534
330
0
100
AcDbProxyObject
 90
      499
 91
      574
 93
      212
310
00010143905350555513D2105510D21493D500000000000002E400
330
506
 94
        0
1001
ACAD
1000
AcadProxyRoundTripData
1071
      517
1071
   851991
1070
     0
  0
ACAD_PROXY_OBJECT
  5
535
330
0
100
AcDbProxyObject
 90
      499
 91
      574
 93
      156
310
00010143905350555513D2105510D21111551010
330
506
 94
        0
1001
ACAD
1000
AcadProxyRoundTripData
1071
      518
1071
   851991
1070
     0
  0
ACAD_PROXY_OBJECT
  5
542
330
0
100
AcDbProxyObject
 90
      499
 91
      574
 93
      116
310
000101425053541051D15311539190
330
506
 94
        0
1001
ACAD
1000
AcadProxyRoundTripData
1071
      518
1071
   851991
1070
     0
  0
ACAD_PROXY_OBJECT
  5
543
330
0
100
AcDbProxyObject
 90
      499
 91
      574
 93
      108
310
000101421053555312539154D050
330
506
 94
        0
1001
ACAD
1000
AcadProxyRoundTripData
1071
      518
1071
   851991
1070
     0
  0
ACAD_PROXY_OBJECT
  5
544
330
0
100
AcDbProxyObject
 90
      499
 91
      574
 93
      108
310
000101421053559312539154D030
330
506
 94
        0
1001
ACAD
1000
AcadProxyRoundTripData
1071
      518
1071
   851991
1070
     0
  0
ACAD_PROXY_OBJECT
  5
545
330
0
100
AcDbProxyObject
 90
      499
 91
      574
 93
      140
310
00010143105354D1911254D41353D1115010
330
506
 94
        0
1001
ACAD
1000
AcadProxyRoundTripData
1071
      518
1071
   851991
1070
     0
  0
ACAD_PROXY_OBJECT
  5
546
330
0
100
AcDbProxyObject
 90
      499
 91
      574
 93
      172
310
00010142505354119255105391C1C052DC9A6F104400
330
506
 94
        0
1001
ACAD
1000
AcadProxyRoundTripData
1071
      517
1071
   851991
1070
     0
  0
ACAD_PROXY_OBJECT
  5
547
330
0
100
AcDbProxyObject
 90
      499
 91
      574
 93
      164
310
000101421053559150D05551C000000000000E03F0
330
506
 94
        0
1001
ACAD
1000
AcadProxyRoundTripData
1071
      517
1071
   851991
1070
     0
  0
ACAD_PROXY_OBJECT
  5
548
330
0
100
AcDbProxyObject
 90
      499
 91
      574
 93
      180
310
00010142905350931153911513D307B14AE47E17A843F0
330
506
 94
        0
1001
ACAD
1000
AcadProxyRoundTripData
1071
      517
1071
   851991
1070
     0
  0
ACAD_PROXY_OBJECT
  5
549
330
0
100
AcDbProxyObject
 90
      499
 91
      574
 93
      172
310
0001014250535293D25391D05407B14AE47E17A843F0
330
506
 94
        0
1001
ACAD
1000
AcadProxyRoundTripData
1071
      517
1071
   851991
1070
     0
  0
ACAD_PROXY_OBJECT
  5
54A
330
0
100
AcDbProxyObject
 90
      499
 91
      574
 93
      172
310
000101425053541192551311538000000FC83D797410
330
506
 94
        0
1001
ACAD
1000
AcadProxyRoundTripData
1071
      517
1071
   851991
1070
     0
  0
ACAD_PROXY_OBJECT
  5
54B
330
0
100
AcDbProxyObject
 90
      499
 91
      574
 93
      156
310
00010141D053559150D4D18000000000000E03F0
330
506
 94
        0
1001
ACAD
1000
AcadProxyRoundTripData
1071
      517
1071
   851991
1070
     0
  0
ACAD_PROXY_OBJECT
  5
54C
330
0
100
AcDbProxyObject
 90
      499
 91
      574
 93
      156
310
00010141D05354D19513D309A9999999999993F0
330
506
 94
        0
1001
ACAD
1000
AcadProxyRoundTripData
1071
      517
1071
   851991
1070
     0
  0
ACAD_PROXY_OBJECT
  5
54D
330
0
100
AcDbProxyObject
 90
      499
 91
      574
 93
      172
310
000101425053541192551513D307B14AE47E17A843F0
330
506
 94
        0
1001
ACAD
1000
AcadProxyRoundTripData
1071
      517
1071
   851991
1070
     0
  0
ACAD_PROXY_OBJECT
  5
54E
330
0
100
AcDbProxyObject
 90
      499
 91
      574
 93
      188
310
00010142D05354D151D192551513D307B14AE47E17A843F0
330
506
 94
        0
1001
ACAD
1000
AcadProxyRoundTripData
1071
      517
1071
   851991
1070
     0
  0
ACAD_PROXY_OBJECT
  5
54F
330
0
100
AcDbProxyObject
 90
      499
 91
      574
 93
      148
310
000101419053541311538000000FC83D797410
330
506
 94
        0
1001
ACAD
1000
AcadProxyRoundTripData
1071
      517
1071
   851991
1070
     0
  0
ACAD_PROXY_OBJECT
  5
550
330
0
100
AcDbProxyObject
 90
      499
 91
      574
 93
      172
310
00010142505354105391D513D301C052DC9A6F104400
330
506
 94
        0
1001
ACAD
1000
AcadProxyRoundTripData
1071
      517
1071
   851991
1070
     0
  0
ACAD_PROXY_OBJECT
  5
551
330
0
100
AcDbProxyObject
 90
      499
 91
      574
 93
      132
310
0001014114D25691400000000000024400
330
506
 94
        0
1001
ACAD
1000
AcadProxyRoundTripData
1071
      517
1071
   851991
1070
     0
  0
ACAD_PROXY_OBJECT
  5
552
330
0
100
AcDbProxyObject
 90
      499
 91
      574
 93
      156
310
00010142905351D4941491519256005034153470
330
506
 94
        0
1001
ACAD
1000
AcadProxyRoundTripData
1071
      539
1071
   851991
1070
     0
  0
ACAD_PROXY_OBJECT
  5
553
330
0
100
AcDbProxyObject
 90
      499
 91
      574
 93
      314
310
00014080509646973745363616C650000000000003C2FC000000000000F0BF0000003F20F5E5D040
330
506
 94
        0
1001
ACAD
1000
AcadProxyRoundTripData
1071
      540
1071
   851991
1070
     0
  0
ACAD_PROXY_OBJECT
  5
554
330
0
100
AcDbProxyObject
 90
      499
 91
      574
 93
      322
310
0001408050A65646175526F74617465060B51153EC87E4FC182D4454FB2119C0060B51153EC8465000
330
506
 94
        0
1001
ACAD
1000
AcadProxyRoundTripData
1071
      540
1071
   851991
1070
     0
  0
ACAD_PROXY_OBJECT
  5
555
330
0
100
AcDbProxyObject
 90
      499
 91
      574
 93
      314
310
00014080509656461755477697374060B51153EC846500000000FC83D797C10000003F20F5E5D040
330
506
 94
        0
1001
ACAD
1000
AcadProxyRoundTripData
1071
      540
1071
   851991
1070
     0
  0
ACAD_PROXY_OBJECT
  5
556
330
0
100
AcDbProxyObject
 90
      499
 91
      574
 93
      294
310
000140C050A656467654F75747075740144F3B7F635ECB74A140A4817D41BDB1E5B1A5B994
330
506
 94
        0
1001
ACAD
1000
AcadProxyRoundTripData
1071
      541
1071
   851991
1070
     0
  0
ACAD_PROXY_OBJECT
  5
557
330
0
100
AcDbProxyObject
 90
      499
 91
      574
 93
      154
310
0001404050B65646974507265766965774064040
330
506
 94
        0
1001
ACAD
1000
AcadProxyRoundTripData
1071
      542
1071
   851991
1070
     0
  0
ACAD_PROXY_OBJECT
  5
558
330
0
100
AcDbProxyObject
 90
      499
 91
      574
 93
      170
310
0001404050A666C6F77556C696E657342A3A00C00000
330
506
 94
        0
1001
ACAD
1000
AcadProxyRoundTripData
1071
      542
1071
   851991
1070
     0
  0
ACAD_PROXY_OBJECT
  5
559
330
0
100
AcDbProxyObject
 90
      499
 91
      574
 93
      170
310
0001404050A666C6F77566C696E657342A3A00C00000
330
506
 94
        0
1001
ACAD
1000
AcadProxyRoundTripData
1071
      542
1071
   851991
1070
     0
  0
ACAD_PROXY_OBJECT
  5
55A
330
0
100
AcDbProxyObject
 90
      499
 91
      574
 93
      322
310
0001408050A666C7366456E645261640000000000003C2FC000000000000F0BF0000003F20F5E5D040
330
506
 94
        0
1001
ACAD
1000
AcadProxyRoundTripData
1071
      540
1071
   851991
1070
     0
  0
ACAD_PROXY_OBJECT
  5
55B
330
0
100
AcDbProxyObject
 90
      499
 91
      574
 93
      246
310
000140C05086A6E33644D6F64650143E3BA24EB8A134A4817D3585B9D585B0
330
506
 94
        0
1001
ACAD
1000
AcadProxyRoundTripData
1071
      541
1071
   851991
1070
     0
  0
ACAD_PROXY_OBJECT
  5
55C
330
0
100
AcDbProxyObject
 90
      499
 91
      574
 93
      294
310
000140C050A6A6E33644F75747075740144F3B7F635ECB74A140A4817D41BDB1E5B1A5B994
330
506
 94
        0
1001
ACAD
1000
AcadProxyRoundTripData
1071
      541
1071
   851991
1070
     0
  0
ACAD_PROXY_OBJECT
  5
55D
330
0
100
AcDbProxyObject
 90
      499
 91
      574
 93
      306
310
000140805086C656E675065726300000000002016D002D431CEBE2361A3F0000003F20F5E5D040
330
506
 94
        0
1001
ACAD
1000
AcadProxyRoundTripData
1071
      540
1071
   851991
1070
     0
  0
ACAD_PROXY_OBJECT
  5
55E
330
0
100
AcDbProxyObject
 90
      499
 91
      574
 93
      266
310
0001408050B6D61737344656E7369747942D431CEBE2361A3F0000003F20F5E5D040
330
506
 94
        0
1001
ACAD
1000
AcadProxyRoundTripData
1071
      540
1071
   851991
1070
     0
  0
ACAD_PROXY_OBJECT
  5
55F
330
0
100
AcDbProxyObject
 90
      499
 91
      574
 93
      186
310
000140805096D617373546869636BA0000003F20F5E5D040
330
506
 94
        0
1001
ACAD
1000
AcadProxyRoundTripData
1071
      540
1071
   851991
1070
     0
  0
ACAD_PROXY_OBJECT
  5
560
330
0
100
AcDbProxyObject
 90
      499
 91
      574
 93
      230
310
000140C05086D6173735479706501436F2AB64A14CA4817D4DA195B1B0
330
506
 94
        0
1001
ACAD
1000
AcadProxyRoundTripData
1071
      541
1071
   851991
1070
     0
  0
ACAD_PROXY_OBJECT
  5
561
330
0
100
AcDbProxyObject
 90
      499
 91
      574
 93
      242
310
000140805086F667366446973744000000FC83D797C10000003F20F5E5D040
330
506
 94
        0
1001
ACAD
1000
AcadProxyRoundTripData
1071
      540
1071
   851991
1070
     0
  0
ACAD_PROXY_OBJECT
  5
562
330
0
100
AcDbProxyObject
 90
      499
 91
      574
 93
      258
310
0001408050A7072696D52616469757342D431CEBE2361A3F0000003F20F5E5D040
330
506
 94
        0
1001
ACAD
1000
AcadProxyRoundTripData
1071
      540
1071
   851991
1070
     0
  0
ACAD_PROXY_OBJECT
  5
563
330
0
100
AcDbProxyObject
 90
      499
 91
      574
 93
      194
310
0001408050A7072696D546F70526164A0000003F20F5E5D040
330
506
 94
        0
1001
ACAD
1000
AcadProxyRoundTripData
1071
      540
1071
   851991
1070
     0
  0
ACAD_PROXY_OBJECT
  5
564
330
0
100
AcDbProxyObject
 90
      499
 91
      574
 93
      266
310
0001408050B7072696D5475626552616442D431CEBE2361A3F0000003F20F5E5D040
330
506
 94
        0
1001
ACAD
1000
AcadProxyRoundTripData
1071
      540
1071
   851991
1070
     0
  0
ACAD_PROXY_OBJECT
  5
565
330
0
100
AcDbProxyObject
 90
      499
 91
      574
 93
      258
310
0001408050A7072696D4865696768744000000FC83D797C10000003F20F5E5D040
330
506
 94
        0
1001
ACAD
1000
AcadProxyRoundTripData
1071
      540
1071
   851991
1070
     0
  0
ACAD_PROXY_OBJECT
  5
566
330
0
100
AcDbProxyObject
 90
      499
 91
      574
 93
      250
310
000140805097072696D5374416E678182D4454FB2119C0060B51153EC8465000
330
506
 94
        0
1001
ACAD
1000
AcadProxyRoundTripData
1071
      540
1071
   851991
1070
     0
  0
ACAD_PROXY_OBJECT
  5
567
330
0
100
AcDbProxyObject
 90
      499
 91
      574
 93
      322
310
0001408050A7072696D456E64416E67060B51153EC846500182D4454FB2119C0060B51153EC8465000
330
506
 94
        0
1001
ACAD
1000
AcadProxyRoundTripData
1071
      540
1071
   851991
1070
     0
  0
ACAD_PROXY_OBJECT
  5
568
330
0
100
AcDbProxyObject
 90
      499
 91
      574
 93
      242
310
000140805087265765374416E678182D4454FB2119C0060B51153EC8465000
330
506
 94
        0
1001
ACAD
1000
AcadProxyRoundTripData
1071
      540
1071
   851991
1070
     0
  0
ACAD_PROXY_OBJECT
  5
569
330
0
100
AcDbProxyObject
 90
      499
 91
      574
 93
      314
310
00014080509726576456E64416E67060B51153EC846500182D4454FB2119C0060B51153EC8465000
330
506
 94
        0
1001
ACAD
1000
AcadProxyRoundTripData
1071
      540
1071
   851991
1070
     0
  0
ACAD_PROXY_OBJECT
  5
56A
330
0
100
AcDbProxyObject
 90
      499
 91
      574
 93
      194
310
0001404050C7266736655706174636865734290139C0C00000
330
506
 94
        0
1001
ACAD
1000
AcadProxyRoundTripData
1071
      542
1071
   851991
1070
     0
  0
ACAD_PROXY_OBJECT
  5
56B
330
0
100
AcDbProxyObject
 90
      499
 91
      574
 93
      194
310
0001404050C7266736656706174636865734290139C0C00000
330
506
 94
        0
1001
ACAD
1000
AcadProxyRoundTripData
1071
      542
1071
   851991
1070
     0
  0
ACAD_PROXY_OBJECT
  5
56C
330
0
100
AcDbProxyObject
 90
      499
 91
      574
 93
      246
310
000140C0508747562654D6F64650143E3BA24EB8A134A4817D3585B9D585B0
330
506
 94
        0
1001
ACAD
1000
AcadProxyRoundTripData
1071
      541
1071
   851991
1070
     0
  0
ACAD_PROXY_OBJECT
  5
56D
330
0
100
AcDbProxyObject
 90
      499
 91
      574
 93
      274
310
0001408050C747562654469616D6574657242D431CEBE2361A3F0000003F20F5E5D040
330
506
 94
        0
1001
ACAD
1000
AcadProxyRoundTripData
1071
      540
1071
   851991
1070
     0
  0
ACAD_PROXY_OBJECT
  5
56E
330
0
100
AcDbProxyObject
 90
      499
 91
      574
 93
      130
310
00014040509696E746572506F6C79A4040
330
506
 94
        0
1001
ACAD
1000
AcadProxyRoundTripData
1071
      542
1071
   851991
1070
     0
  0
ACAD_PROXY_OBJECT
  5
56F
330
0
100
AcDbProxyObject
 90
      499
 91
      574
 93
      162
310
0001404050D696E746572417567506F696E74A4040
330
506
 94
        0
1001
ACAD
1000
AcadProxyRoundTripData
1071
      542
1071
   851991
1070
     0
  0
ACAD_PROXY_OBJECT
  5
570
330
0
100
AcDbProxyObject
 90
      499
 91
      574
 93
      238
310
000140C0509696E7465727472696D014365EF257ECA108A4817D09BDD1A0
330
506
 94
        0
1001
ACAD
1000
AcadProxyRoundTripData
1071
      541
1071
   851991
1070
     0
  0
ACAD_PROXY_OBJECT
  5
571
330
0
100
AcDbProxyObject
 90
      499
 91
      574
 93
      230
310
000140C0509696E7465727479706501433136344A150A4817D51C9A5B4
330
506
 94
        0
1001
ACAD
1000
AcadProxyRoundTripData
1071
      541
1071
   851991
1070
     0
  0
ACAD_PROXY_OBJECT
  5
572
330
0
100
AcDbProxyObject
 90
      499
 91
      574
 93
      146
310
0001404050A636F726E65727472696D4064040
330
506
 94
        0
1001
ACAD
1000
AcadProxyRoundTripData
1071
      542
1071
   851991
1070
     0
  0
ACAD_PROXY_OBJECT
  5
573
330
0
100
AcDbProxyObject
 90
      499
 91
      574
 93
      130
310
000140405086F6673666B6565704064040
330
506
 94
        0
1001
ACAD
1000
AcadProxyRoundTripData
1071
      542
1071
   851991
1070
     0
  0
ACAD_PROXY_OBJECT
  5
574
330
0
100
AcDbProxyObject
 90
      499
 91
      574
 93
      146
310
0001404050A70726F6A4F757470757440A40C0
330
506
 94
        0
1001
ACAD
1000
AcadProxyRoundTripData
1071
      542
1071
   851991
1070
     0
  0
ACAD_PROXY_OBJECT
  5
575
330
0
100
AcDbProxyObject
 90
      499
 91
      574
 93
      270
310
000140C050D70726F6A446972656374696F6E014372F7AB6C0A124A4817DD92595DC
330
506
 94
        0
1001
ACAD
1000
AcadProxyRoundTripData
1071
      541
1071
   851991
1070
     0
  0
ACAD_PROXY_OBJECT
  5
576
330
0
100
AcDbProxyObject
 90
      499
 91
      574
 93
      130
310
0001404050870726F6A4B6565704064040
330
506
 94
        0
1001
ACAD
1000
AcadProxyRoundTripData
1071
      542
1071
   851991
1070
     0
  0
ACAD_PROXY_OBJECT
  5
577
330
0
100
AcDbProxyObject
 90
      499
 91
      574
 93
      278
310
000140C050B70726F6A53706163696E670144237164D2CA13CA4817D3DC1D1A5B585B0
330
506
 94
        0
1001
ACAD
1000
AcadProxyRoundTripData
1071
      541
1071
   851991
1070
     0
  0
ACAD_PROXY_OBJECT
  5
578
330
0
100
AcDbProxyObject
 90
      499
 91
      574
 93
      250
310
0001408050970726F6A54617065728182D4454FB21F9BF060B51153EC87E4FC0
330
506
 94
        0
1001
ACAD
1000
AcadProxyRoundTripData
1071
      540
1071
   851991
1070
     0
  0
ACAD_PROXY_OBJECT
  5
579
330
0
100
AcDbProxyObject
 90
      499
 91
      574
 93
      130
310
00014040508647261674B6565704064040
330
506
 94
        0
1001
ACAD
1000
AcadProxyRoundTripData
1071
      542
1071
   851991
1070
     0
  0
ACAD_PROXY_OBJECT
  5
57A
330
0
100
AcDbProxyObject
 90
      499
 91
      574
 93
      302
310
000140C050F647261674F7269656E746174696F6E0143E590243F0A138A4817D39BDC9B585B0
330
506
 94
        0
1001
ACAD
1000
AcadProxyRoundTripData
1071
      541
1071
   851991
1070
     0
  0
ACAD_PROXY_OBJECT
  5
57B
330
0
100
AcDbProxyObject
 90
      499
 91
      574
 93
      286
310
000140C050E647261675472616E736974696F6E0143A3B6A4DE0A10CA4817DCD0D85B194
330
506
 94
        0
1001
ACAD
1000
AcadProxyRoundTripData
1071
      541
1071
   851991
1070
     0
  0
ACAD_PROXY_OBJECT
  5
57C
330
0
100
AcDbProxyObject
 90
      499
 91
      574
 93
      318
310
000140C051061646A757374436F6E74696E7569747901442F746C2F778A14CA4817D4DB5BDBDD1A0
330
506
 94
        0
1001
ACAD
1000
AcadProxyRoundTripData
1071
      541
1071
   851991
1070
     0
  0
ACAD_PROXY_OBJECT
  5
57D
330
0
100
AcDbProxyObject
 90
      499
 91
      574
 93
      138
310
0001404050A61646A7573744B656570A4040
330
506
 94
        0
1001
ACAD
1000
AcadProxyRoundTripData
1071
      542
1071
   851991
1070
     0
  0
ACAD_PROXY_OBJECT
  5
57E
330
0
100
AcDbProxyObject
 90
      499
 91
      574
 93
      250
310
0001408050972756C65576964746842D431CEBE2361A3F0000003F20F5E5D040
330
506
 94
        0
1001
ACAD
1000
AcadProxyRoundTripData
1071
      540
1071
   851991
1070
     0
  0
ACAD_PROXY_OBJECT
  5
57F
330
0
100
AcDbProxyObject
 90
      499
 91
      574
 93
      274
310
0001408050C616E616C797A65447261667421D139D28615ED8FE060B51153EC8425000
330
506
 94
        0
1001
ACAD
1000
AcadProxyRoundTripData
1071
      540
1071
   851991
1070
     0
  0
ACAD_PROXY_OBJECT
  5
580
330
0
100
AcDbProxyObject
 90
      499
 91
      574
 93
      210
310
0001404050F616E616C797A654E756D4C696E65734163FDFC00000
330
506
 94
        0
1001
ACAD
1000
AcadProxyRoundTripData
1071
      542
1071
   851991
1070
     0
  0
ACAD_PROXY_OBJECT
  5
581
330
0
100
AcDbProxyObject
 90
      499
 91
      574
 93
      202
310
00014040512616E616C797A65526F746174654C696E6573A4040
330
506
 94
        0
1001
ACAD
1000
AcadProxyRoundTripData
1071
      542
1071
   851991
1070
     0
  0
ACAD_PROXY_OBJECT
  5
582
330
0
100
AcDbProxyObject
 90
      499
 91
      574
 93
      210
310
00014040513616E616C797A65446973706C61794C696E6573A4040
330
506
 94
        0
1001
ACAD
1000
AcadProxyRoundTripData
1071
      542
1071
   851991
1070
     0
  0
ACAD_PROXY_OBJECT
  5
583
330
0
100
AcDbProxyObject
 90
      499
 91
      574
 93
      258
310
00014040519616E616C797A655472616E736C7563656E7453757266616365A4040
330
506
 94
        0
1001
ACAD
1000
AcadProxyRoundTripData
1071
      542
1071
   851991
1070
     0
  0
ACAD_PROXY_OBJECT
  5
58C
330
0
100
AcDbProxyObject
 90
      499
 91
      574
 93
      698
310
0001000000009AA6A9AA4051E4D6F6E204F63742031332030303A33373A353920323030382028555443290141CD8B8D0B8C0B8C405184D6F6E204F63742031332030393A34313A333120323030380141CD8B8D0B8C0B8C40
330
506
330
58D
330
58E
330
590
330
0
 94
        0
1001
ACAD
1000
AcadProxyRoundTripData
1071
      548
1071
   851991
1070
     0
  0
ACAD_PROXY_OBJECT
  5
58D
330
0
100
AcDbProxyObject
 90
      499
 91
      574
 93
       70
310
0001AAA80820000001
330
506
330
58D
330
58D
 94
        0
1001
ACAD
1000
AcadProxyRoundTripData
1071
      549
1071
   851991
1070
     0
  0
ACAD_PROXY_OBJECT
  5
58E
330
0
100
AcDbProxyObject
 90
      499
 91
      574
 93
       48
310
00010000000011
330
506
330
0
330
58F
330
0
330
0
 94
        0
1001
ACAD
1000
AcadProxyRoundTripData
1071
      550
1071
   851991
1070
     0
  0
ACAD_PROXY_OBJECT
  5
58F
330
0
100
AcDbProxyObject
 90
      499
 91
      574
 93
       40
310
000100AAAA00
330
506
330
0
 94
        0
1001
ACAD
1000
AcadProxyRoundTripData
1071
      551
1071
   851991
1070
     0
  0
ACAD_PROXY_OBJECT
  5
591
330
0
100
AcDbProxyObject
 90
      499
 91
      574
 93
      124
310
00010142905350D3D39114D414D69050
330
506
 94
        0
1001
ACAD
1000
AcadProxyRoundTripData
1071
      518
1071
   851991
1070
     0
  0
ACAD_PROXY_OBJECT
  5
592
330
0
100
AcDbProxyObject
 90
      499
 91
      574
 93
      124
310
000101429053549553115353D1115010
330
506
 94
        0
1001
ACAD
1000
AcadProxyRoundTripData
1071
      518
1071
   851991
1070
     0
  0
ACAD_PROXY_OBJECT
  5
593
330
0
100
AcDbProxyObject
 90
      499
 91
      574
 93
      108
310
00010142105354D2D353D1115010
330
506
 94
        0
1001
ACAD
1000
AcadProxyRoundTripData
1071
      518
1071
   851991
1070
     0
  0
ACAD_PROXY_OBJECT
  5
594
330
0
100
AcDbProxyObject
 90
      499
 91
      574
 93
      140
310
000101435053511253511254D41353D11160
330
506
 94
        0
1001
ACAD
1000
AcadProxyRoundTripData
1071
      518
1071
   851991
1070
     0
  0
ACAD_PROXY_OBJECT
  5
595
330
0
100
AcDbProxyObject
 90
      499
 91
      574
 93
      180
310
00010142905354D2D05391D513D3000000000000010400
330
506
 94
        0
1001
ACAD
1000
AcadProxyRoundTripData
1071
      517
1071
   851991
1070
     0
  0
ACAD_PROXY_OBJECT
  5
596
330
0
100
AcDbProxyObject
 90
      499
 91
      574
 93
      164
310
00010142505354D2D4D516531140505434F4E542A0
330
506
 94
        0
1001
ACAD
1000
AcadProxyRoundTripData
1071
      539
1071
   851991
1070
     0
  0
ACAD_PROXY_OBJECT
  5
597
330
0
100
AcDbProxyObject
 90
      499
 91
      574
 93
      108
310
00010142105350D3511112535010
330
506
 94
        0
1001
ACAD
1000
AcadProxyRoundTripData
1071
      518
1071
   851991
1070
     0
  0
ACAD_PROXY_OBJECT
  5
598
330
0
100
AcDbProxyObject
 90
      499
 91
      574
 93
      108
310
00010142105350D3D35414D59010
330
506
 94
        0
1001
ACAD
1000
AcadProxyRoundTripData
1071
      518
1071
   851991
1070
     0
  0
ACAD_PROXY_OBJECT
  5
599
330
0
100
AcDbProxyObject
 90
      499
 91
      574
 93
      164
310
0001014290535410549514D4119600504CADFB0C20
330
506
 94
        0
1001
ACAD
1000
AcadProxyRoundTripData
1071
      539
1071
   851991
1070
     0
  0
ACAD_PROXY_OBJECT
  5
59A
330
0
100
AcDbProxyObject
 90
      499
 91
      574
 93
      220
310
0001014350535513D3D31093D11654119600508C2B0D9CEDEC3DEA80
330
506
 94
        0
1001
ACAD
1000
AcadProxyRoundTripData
1071
      539
1071
   851991
1070
     0
  0
ACAD_PROXY_OBJECT
  5
59B
330
0
100
AcDbProxyObject
 90
      499
 91
      574
 93
      116
310
000101425053511254D410D3D39010
330
506
 94
        0
1001
ACAD
1000
AcadProxyRoundTripData
1071
      518
1071
   851991
1070
     0
  0
ACAD_PROXY_OBJECT
  5
59C
330
0
100
AcDbProxyObject
 90
      499
 91
      574
 93
      108
310
00010142105350D3D39114D41010
330
506
 94
        0
1001
ACAD
1000
AcadProxyRoundTripData
1071
      518
1071
   851991
1070
     0
  0
ACAD_PROXY_OBJECT
  5
59D
330
0
100
AcDbProxyObject
 90
      499
 91
      574
 93
      124
310
0001014290535490511114D414D69190
330
506
 94
        0
1001
ACAD
1000
AcadProxyRoundTripData
1071
      518
1071
   851991
1070
     0
  0
ACAD_PROXY_OBJECT
  5
5A3
330
0
100
AcDbProxyObject
 90
      499
 91
      574
 93
      132
310
00010142D05050555513D4D3D315915010
330
506
 94
        0
1001
ACAD
1000
AcadProxyRoundTripData
1071
      518
1071
   851991
1070
     0
  0
ACAD_PROXY_OBJECT
  5
5A4
330
0
100
AcDbProxyObject
 90
      499
 91
      574
 93
      156
310
00010143905050555513D054D4D1535093115010
330
506
 94
        0
1001
ACAD
1000
AcadProxyRoundTripData
1071
      518
1071
   851991
1070
     0
  0
ACAD_PROXY_OBJECT
  5
5A5
330
0
100
AcDbProxyObject
 90
      499
 91
      574
 93
      148
310
00010143505055925155D49154D513D4915010
330
506
 94
        0
1001
ACAD
1000
AcadProxyRoundTripData
1071
      518
1071
   851991
1070
     0
  0
ACAD_PROXY_OBJECT
  5
5A6
330
0
100
AcDbProxyObject
 90
      499
 91
      574
 93
      124
310
00010142D050525394D15495105094E0
330
506
 94
        0
1001
ACAD
1000
AcadProxyRoundTripData
1071
      518
1071
   851991
1070
     0
  0
ACAD_PROXY_OBJECT
  5
5A7
330
0
100
AcDbProxyObject
 90
      499
 91
      574
 93
      148
310
00010143505054D0D153915554111055115010
330
506
 94
        0
1001
ACAD
1000
AcadProxyRoundTripData
1071
      518
1071
   851991
1070
     0
  0
ACAD_PROXY_OBJECT
  5
5A8
330
0
100
AcDbProxyObject
 90
      499
 91
      574
 93
      172
310
00010143105054D5509054D4D3541196005035355420
330
506
 94
        0
1001
ACAD
1000
AcadProxyRoundTripData
1071
      539
1071
   851991
1070
     0
  0
ACAD_PROXY_OBJECT
  5
5A9
330
0
100
AcDbProxyObject
 90
      499
 91
      574
 93
      172
310
00010142905054D0D15391541196005055343454E450
330
506
 94
        0
1001
ACAD
1000
AcadProxyRoundTripData
1071
      539
1071
   851991
1070
     0
  0
ACAD_PROXY_OBJECT
  5
5AA
330
0
100
AcDbProxyObject
 90
      499
 91
      574
 93
      148
310
00010143505350555513D313D0D2D4D0D39010
330
506
 94
        0
1001
ACAD
1000
AcadProxyRoundTripData
1071
      518
1071
   851991
1070
     0
  0
ACAD_PROXY_OBJECT
  5
5AF
330
0
100
AcDbProxyObject
 90
      499
 91
      574
 93
       32
310
0001000000
330
506
340
5AC
330
5B1
330
5AC
 94
        0
1001
ACAD
1000
AcadProxyRoundTripData
1071
      557
1071
   851991
1070
     0
  0
ACAD_PROXY_OBJECT
  5
5B0
330
0
100
AcDbProxyObject
 90
      499
 91
      574
 93
       18
310
0001A0
330
506
 94
        0
1001
ACAD
1000
AcadProxyRoundTripData
1071
      558
1071
   851991
1070
     0
  0
ACAD_PROXY_OBJECT
  5
5B1
330
0
100
AcDbProxyObject
 90
      499
 91
      574
 93
      111
310
0001014150D5930C0D5050055400
330
506
330
5AF
330
5B0
 94
        0
1001
ACAD
1000
AcadProxyRoundTripData
1071
      559
1071
   851991
1070
     0
  0
ACAD_PROXY_OBJECT
  5
5B2
330
0
100
AcDbProxyObject
 90
      499
 91
      574
 93
       40
310
000100AAAA00
330
506
330
5B1
 94
        0
1001
ACAD
1000
AcadProxyRoundTripData
1071
      560
1071
   851991
1070
     0
  0
ACAD_PROXY_OBJECT
  5
5B3
330
0
100
AcDbProxyObject
 90
      499
 91
      574
 93
      108
310
0001901422000000000000AAAAA4
330
506
330
5B4
330
5B4
330
5B4
330
5B4
330
5B4
330
0
 94
        0
1001
ACAD
1000
AcadProxyRoundTripData
1071
      561
1071
   851991
1070
     0
  0
ACAD_PROXY_OBJECT
  5
5B4
330
0
100
AcDbProxyObject
 90
      499
 91
      574
 93
       51
310
00010000AAAA98
330
506
330
5B3
330
5B1
 94
        0
1001
ACAD
1000
AcadProxyRoundTripData
1071
      562
1071
   851991
1070
     0
  0
ACAD_PROXY_OBJECT
  5
5C5
330
0
100
AcDbProxyObject
 90
      499
 91
      574
 93
      140
310
00010142105350D55494D5110050349534F0
330
506
 94
        0
1001
ACAD
1000
AcadProxyRoundTripData
1071
      539
1071
   851991
1070
     0
  0
DICTIONARY
  5
4FE
102
{ACAD_REACTORS
330
4FD
102
}
330
4FD
100
AcDbDictionary
  3
DWGSETTINGS
350
4FF
  0
ACAD_PROXY_OBJECT
  5
5C3
102
{ACAD_REACTORS
330
4FD
102
}
330
4FD
100
AcDbProxyObject
 90
      499
 91
      574
 93
    12938
310
41102491013041105357CC1074CA404C504414D5F31439329013241105357CC9054CA404CD04414D5F33419199013441105357CD103466404D504414D5F3540D199013641105357CD90248E404DD04414D5F37411199013841105357CE101466404E504414D5F397F641102324141505357CC4C1074CA408D10505414D5F31
310
3140D19902495041505357CC4C9074C902408C13905414D5F304E41D32902314E41505357CC5390E4CA408C93905414D5F324E41532902334E41505357CCD3906466408D13905414D5F344E40D19902354E41505357CD53903466408D93905414D5F364E40923902374E41505357CDD3904466408E13905414D5F384E40519
310
902394E41505357CE539FD90440CC9053906414D5F31304E41D3290334414E41905357CC4C5390346640D25413906414D5F31324E41D32409044B4C494E41505357D0D3101465094112539193D08414D5F50415245464111942D055241484D3541905357D093D49074C9094115925155D08414D5F56494557534051942D064
310
24548494E4441905357D253959FD90D415514905253105414D5F545240D194250348494441905357D212511074650940D59254D06414D5F56495341D324250650415244494D42505357D410549112535034650941949151911253509414D5F52454644494D4111942553411092139590139CFFFFFFFF415092139594D06424
310
548494E44CFFFFFFFF411093D48C9055241484D3540519411093D48CD055241484D3540923411093D48D5055241484D35CFFFFFFFF4110D0530C90134CFFFFFFFF4110D0530CD0134409234110D0530D5013441D324110D0530DD0134479464110D1539390137CFFFFFFFF4110D15395D0137CFFFFFFFF4110D312539044B4
310
C494ECFFFFFFFF4110D3D38C50130CFFFFFFFF4110D3D38C90131CFFFFFFFF4110D3D38CD0132CFFFFFFFF4110D3D38D10132CFFFFFFFF411111551050134CFFFFFFFF4111125051D0135CFFFFFFFF411112531250135CFFFFFFFF411112535410650415244494DCFFFFFFFF411112535490652454644494DCFFFFFFFF4111
310
91535390138CFFFFFFFF4151915354139013840CFFFFFFFF4151915354D41023441CFFFFFFFF4151915354D5102344140D1941519153559390132CFFFFFFFF4151915355951013240D194112105510D0138CFFFFFFFF411212511390133CFFFFFFFF4112125115D0133CFFFFFFFF411213125390134CFFFFFFFF411213D0D3
310
90137CFFFFFFFF411213D0D5D0137CFFFFFFFF4112539193D04494E464FCFFFFFFFF411311505110135CFFFFFFFF419397D0921395902394ECFFFFFFFF419397D0D3D38C502304ECFFFFFFFF419397D0D3D38C902314ECFFFFFFFF419397D0D3D38CD02324ECFFFFFFFF419397D0D3D38D102324ECFFFFFFFF419397D0D153
310
93902374ECFFFFFFFF419397D0D15395D02374ECFFFFFFFF419397D1125312502354ECFFFFFFFF419397D2105510D02384ECFFFFFFFF419397D2125113902334ECFFFFFFFF419397D2125115D02334ECFFFFFFFF419397D3115051102354ECFFFFFFFF419397D391D25410349504ECFFFFFFFF419397D412105390334414EC
310
FFFFFFFF419397D510D3D3902304ECFFFFFFFF419397D5121312502344ECFFFFFFFF419397D5131153902304ECFFFFFFFF419397D594131250332414ECFFFFFFFF411391D2541024950CFFFFFFFF411410530C9055241484D3540519411410530CD055241484D3540923411410530D5055241484D35CFFFFFFFF4114121053
310
9023441CFFFFFFFF411413D4D390135CFFFFFFFF411490D1D390137CFFFFFFFF411490D1D5D0137CFFFFFFFF4114D09492D0134CFFFFFFFF4114D150D510134CFFFFFFFF4114D6508CD013540923411354D6535013540923411510D3D390130CFFFFFFFF411512131250134CFFFFFFFF411512550C9055241484D354051941
310
1512550CD055241484D3540923411512550D5055241484D35CFFFFFFFF411513115390130CFFFFFFFF415514905253105545241494CCFFFFFFFF411514931250134CFFFFFFFF411516150C5013640D19411516150C9013640D19411516150CD0136CFFFFFFFF411516150D5013641D32411516150DD0136479464115925155
310
D0456494557CFFFFFFFF4115915112103484944CFFFFFFFF4115915115903564953CFFFFFFFF41159413125023241CFFFFFFFF411692569050134CFFFFFFFFAA9FD404FE4290E4C9074C906465054C904465034650248D014651E519FD80
340
16
340
16
340
16
340
5C6
340
16
340
16
340
16
340
5C7
340
16
340
16
340
5C7
340
5C8
340
16
340
16
340
16
340
16
340
5C6
340
16
340
16
340
16
340
5C7
340
16
340
16
340
5C7
340
5C8
340
16
340
5C9
340
16
340
16
340
16
340
16
340
16
340
5C6
340
16
340
16
340
16
340
15
340
15
340
15
340
15
340
15
340
15
340
15
340
15
340
15
340
5CA
340
15
340
15
340
15
340
15
340
15
340
15
340
15
340
15
340
15
340
15
340
15
340
15
340
15
340
16
340
15
340
15
340
15
340
15
340
5CB
340
15
340
15
340
5CA
340
15
340
15
340
15
340
15
340
15
340
15
340
15
340
15
340
5CA
340
15
340
15
340
15
340
5CB
340
15
340
15
340
15
340
15
340
15
340
15
340
15
340
15
340
15
340
15
340
15
340
15
340
15
340
15
340
5CA
340
15
340
15
340
15
340
15
340
15
340
15
340
15
340
15
340
15
340
15
340
15
340
15
340
15
340
15
340
15
340
15
340
15
340
15
340
15
340
15
340
15
340
15
340
5CE
 94
        0
1001
ACAD
1000
AcadProxyRoundTripData
1071
      570
1071
   851991
1070
     0
  0
ACAD_PROXY_OBJECT
  5
5D5
102
{ACAD_REACTORS
330
5D0
102
}
330
5D0
100
AcDbProxyObject
 90
      499
 91
      574
 93
      253
310
43D1444494D454E53494F4E2C414D44545F2A5F44494D404A9012A404A9012A8
 94
        0
1001
ACAD
1000
AcadProxyRoundTripData
1071
      571
1071
   851991
1070
     0
  0
ACAD_PROXY_OBJECT
  5
5D4
102
{ACAD_REACTORS
330
5D0
102
}
330
5D0
100
AcDbProxyObject
 90
      499
 91
      574
 93
      181
310
43D012A42D05357D191504B505357CA9012A404A9012A8
 94
        0
1001
ACAD
1000
AcadProxyRoundTripData
1071
      571
1071
   851991
1070
     0
  0
ACAD_PROXY_OBJECT
  5
5D1
102
{ACAD_REACTORS
330
5D0
102
}
330
5D0
100
AcDbProxyObject
 90
      499
 91
      574
 93
      133
310
43D054841544348404A9012A404A9012A8
 94
        0
1001
ACAD
1000
AcadProxyRoundTripData
1071
      571
1071
   851991
1070
     0
  0
ACAD_PROXY_OBJECT
  5
5D2
102
{ACAD_REACTORS
330
5D0
102
}
330
5D0
100
AcDbProxyObject
 90
      499
 91
      574
 93
      549
310
43D044C494E4549CE0B0E138B0A8B4E0B0A8B4E138B105357CE0B105357CE138B0A8B505357CE0B0A8B505357CE139012A404A910494E534552542C5354445041525432448
 94
        0
1001
ACAD
1000
AcadProxyRoundTripData
1071
      571
1071
   851991
1070
     0
  0
ACAD_PROXY_OBJECT
  5
5D6
102
{ACAD_REACTORS
330
5D0
102
}
330
5D0
100
AcDbProxyObject
 90
      499
 91
      574
 93
      181
310
43D0341524341105357CD5012A404C906494E534552540
 94
        0
1001
ACAD
1000
AcadProxyRoundTripData
1071
      571
1071
   851991
1070
     0
  0
ACAD_PROXY_OBJECT
  5
5D3
102
{ACAD_REACTORS
330
5D0
102
}
330
5D0
100
AcDbProxyObject
 90
      499
 91
      574
 93
     1053
310
43D7841434D46434652414D452C41434D444154554D5441524745542C41434D444154554D49442C41434D57454C4453594D2C41434D5355524653594D2C41434D4645415449442C41434D504152545245462C41434D42414C4C4F4F4E2C414D44544544474553594D2C414D47534352455743414C435441424C45404A9012A
310
404A9012A8
 94
        0
1001
ACAD
1000
AcadProxyRoundTripData
1071
      571
1071
   851991
1070
     0
  0
LAYER_INDEX
  5
5D8
102
{ACAD_REACTORS
330
5D7
102
}
330
5D7
100
AcDbIndex
 40
2454757.584193784
100
AcDbLayerIndex
  8
0
360
5D9
 90
        0
  8
10
360
5DA
 90
      273
  8
12
360
5DB
 90
       10
  8
16
360
5DC
 90
        4
  8
19
360
5DD
 90
        1
  8
DEFPOINTS
360
95B
 90
        0
  8
17
360
95C
 90
        6
  0
ACAD_PROXY_OBJECT
  5
5B8
102
{ACAD_REACTORS
330
5B7
102
}
330
5B7
100
AcDbProxyObject
 90
      499
 91
      574
 93
      187
310
057356C1D5C406406AA8FFFFFFFF0AE50543564C30354040
330
1F
330
0
330
5B1
 94
        0
1001
ACAD
1000
AcadProxyRoundTripData
1071
      564
1071
   851991
1070
     0
  0
ACAD_PROXY_OBJECT
  5
4FF
102
{ACAD_REACTORS
330
4FE
102
}
330
4FE
100
AcDbProxyObject
 90
      499
 91
      574
 93
     2270
310
4050B44574753455454494E4753A1286829C8E82A4A482B282A106660F8686AF86C608321A2A720A723A0A849A1ABE1C983E18999AA0C868A9C889282940000000000000488083A1A2A72224A0A9A0A8418983E19183E199820E868A9C8892A6A894000000000000010808321A2A72622A7250000000000000122020C868A9
310
C9E8C8C940000000000000488084A1A624A720A92920ACA0A8418983E19183E19982108698929C8AA8B2A082A0AB098929C8A84A22BA3AAA9A1A0A622A50A0E9882A6A89E849482A02608426A0A5A2AB24A2ABA7E8120CA0A68682988A0C00800010652455649534941501304154D0D0531150540CC4E8C50954494D455354
310
414D504A03D0A805197267341441ED115D1D4D15515125391D4D153911F4
 94
        0
1001
ACAD
1000
AcadProxyRoundTripData
1071
      512
1071
   851991
1070
     0
  0
IDBUFFER
  5
5D9
330
0
100
AcDbIdBuffer
  0
IDBUFFER
  5
5DA
330
0
100
AcDbIdBuffer
330
7B7
330
7BD
330
7BE
330
7BF
330
7C0
330
7C1
330
7C2
330
7C3
330
7C4
330
7C5
330
7C6
330
7C7
330
7C8
330
7C9
330
7CA
330
7CB
330
7CC
330
7CD
330
7CE
330
7CF
330
7D0
330
7D1
330
7D2
330
7D3
330
7D4
330
7D5
330
7D6
330
7D7
330
7D8
330
7D9
330
7DA
330
7DB
330
7DC
330
7DD
330
7DE
330
7DF
330
7E0
330
7E1
330
7E2
330
7E3
330
7E4
330
7E5
330
7E6
330
7E7
330
7E8
330
7E9
330
7EA
330
7EB
330
7EC
330
7ED
330
7EE
330
7F0
330
7F1
330
7F2
330
7F3
330
7F4
330
7F5
330
7F8
330
7F9
330
7FA
330
7FB
330
7FC
330
7FD
330
7FE
330
7FF
330
803
330
804
330
805
330
806
330
807
330
808
330
809
330
80A
330
80B
330
80C
330
80D
330
80E
330
80F
330
810
330
811
330
812
330
813
330
814
330
815
330
816
330
817
330
818
330
819
330
81A
330
81B
330
81C
330
81D
330
81E
330
81F
330
820
330
821
330
822
330
823
330
824
330
825
330
826
330
827
330
828
330
829
330
82A
330
82B
330
82C
330
82D
330
832
330
833
330
834
330
835
330
836
330
837
330
839
330
83A
330
83B
330
83C
330
83D
330
83E
330
83F
330
840
330
841
330
842
330
843
330
844
330
845
330
846
330
847
330
848
330
849
330
84A
330
84B
330
84C
330
84D
330
84E
330
84F
330
850
330
851
330
852
330
853
330
854
330
855
330
856
330
857
330
858
330
859
330
85A
330
85B
330
85C
330
85D
330
85E
330
85F
330
860
330
861
330
862
330
863
330
864
330
865
330
866
330
867
330
868
330
869
330
86A
330
86C
330
86D
330
86E
330
873
330
874
330
875
330
876
330
877
330
878
330
879
330
87A
330
87B
330
87C
330
87D
330
87E
330
87F
330
880
330
881
330
882
330
883
330
884
330
885
330
886
330
887
330
888
330
889
330
88A
330
88B
330
88C
330
88D
330
88E
330
88F
330
890
330
891
330
892
330
893
330
894
330
895
330
896
330
897
330
898
330
899
330
89A
330
89B
330
89C
330
89D
330
89E
330
89F
330
8A0
330
8A1
330
8A2
330
8A3
330
8A4
330
8A5
330
8A6
330
8A7
330
8A8
330
8A9
330
8AA
330
8AB
330
8AC
330
8AD
330
8AE
330
8AF
330
8B0
330
8B1
330
8B2
330
8B3
330
8C8
330
8C9
330
8CA
330
8CB
330
8CC
330
8CD
330
8CE
330
8CF
330
8D0
330
8D1
330
8D2
330
8D3
330
8D4
330
8D5
330
8D6
330
8D7
330
8D8
330
8D9
330
8DA
330
8DB
330
8DC
330
8DD
330
8DE
330
8DF
330
8E0
330
8E1
330
8E2
330
8E3
330
8E4
330
8E5
330
8E6
330
8E7
330
8E8
330
8E9
330
8EA
330
8EB
330
8EC
330
8ED
330
8EE
330
8EF
330
8F0
  0
IDBUFFER
  5
5DB
330
0
100
AcDbIdBuffer
330
82E
330
82F
330
830
330
831
330
838
330
86B
330
86F
330
870
330
871
330
872
  0
IDBUFFER
  5
5DC
330
0
100
AcDbIdBuffer
330
7B9
330
7BA
330
7BB
330
7BC
  0
IDBUFFER
  5
5DD
330
0
100
AcDbIdBuffer
330
5EB
  0
IDBUFFER
  5
95B
330
0
100
AcDbIdBuffer
  0
IDBUFFER
  5
95C
330
0
100
AcDbIdBuffer
330
7EF
330
7F6
330
7F7
330
800
330
801
330
802
  0
ENDSEC
  0
EOF
