  0
SECTION
  2
HEADER
  9
$ACADVER
  1
AC1014
  9
$ACADMAINTVER
 70
     9
  9
$DWGCODEPAGE
  3
ANSI_932
  9
$INSBASE
 10
0.0
 20
0.0
 30
0.0
  9
$EXTMIN
 10
46.38610943032676
 20
32.62033154002892
 30
-0.0000000349181948
  9
$EXTMAX
 10
377.2988900883344
 20
167.7830663369771
 30
0.0000000814935746
  9
$LIMMIN
 10
0.0
 20
0.0
  9
$LIMMAX
 10
420.0
 20
297.0
  9
$ORTHOMODE
 70
     0
  9
$REGENMODE
 70
     1
  9
$FILLMODE
 70
     1
  9
$QTEXTMODE
 70
     0
  9
$MIRRTEXT
 70
     1
  9
$DRAGMODE
 70
     2
  9
$LTSCALE
 40
1.0
  9
$OSMODE
 70
  2983
  9
$ATTMODE
 70
     1
  9
$TEXTSIZE
 40
2.5
  9
$TRACEWID
 40
1.0
  9
$TEXTSTYLE
  7
STANDARD
  9
$CLAYER
  8
0
  9
$CELTYPE
  6
BYLAYER
  9
$CECOLOR
 62
   256
  9
$CELTSCALE
 40
1.0
  9
$DELOBJ
 70
     1
  9
$DISPSILH
 70
     0
  9
$DIMSCALE
 40
1.0
  9
$DIMASZ
 40
2.5
  9
$DIMEXO
 40
0.625
  9
$DIMDLI
 40
3.75
  9
$DIMRND
 40
0.0
  9
$DIMDLE
 40
0.0
  9
$DIMEXE
 40
1.25
  9
$DIMTP
 40
0.0
  9
$DIMTM
 40
0.0
  9
$DIMTXT
 40
2.5
  9
$DIMCEN
 40
2.5
  9
$DIMTSZ
 40
0.0
  9
$DIMTOL
 70
     0
  9
$DIMLIM
 70
     0
  9
$DIMTIH
 70
     0
  9
$DIMTOH
 70
     0
  9
$DIMSE1
 70
     0
  9
$DIMSE2
 70
     0
  9
$DIMTAD
 70
     1
  9
$DIMZIN
 70
     8
  9
$DIMBLK
  1

  9
$DIMASO
 70
     1
  9
$DIMSHO
 70
     1
  9
$DIMPOST
  1

  9
$DIMAPOST
  1

  9
$DIMALT
 70
     0
  9
$DIMALTD
 70
     3
  9
$DIMALTF
 40
0.03937007874016
  9
$DIMLFAC
 40
1.0
  9
$DIMTOFL
 70
     1
  9
$DIMTVP
 40
0.0
  9
$DIMTIX
 70
     0
  9
$DIMSOXD
 70
     0
  9
$DIMSAH
 70
     0
  9
$DIMBLK1
  1

  9
$DIMBLK2
  1

  9
$DIMSTYLE
  2
ISO-25
  9
$DIMCLRD
 70
     0
  9
$DIMCLRE
 70
     0
  9
$DIMCLRT
 70
     0
  9
$DIMTFAC
 40
1.0
  9
$DIMGAP
 40
0.625
  9
$DIMJUST
 70
     0
  9
$DIMSD1
 70
     0
  9
$DIMSD2
 70
     0
  9
$DIMTOLJ
 70
     0
  9
$DIMTZIN
 70
     8
  9
$DIMALTZ
 70
     0
  9
$DIMALTTZ
 70
     0
  9
$DIMFIT
 70
     3
  9
$DIMUPT
 70
     0
  9
$DIMUNIT
 70
     2
  9
$DIMDEC
 70
     2
  9
$DIMTDEC
 70
     2
  9
$DIMALTU
 70
     2
  9
$DIMALTTD
 70
     3
  9
$DIMTXSTY
  7
STANDARD
  9
$DIMAUNIT
 70
     0
  9
$LUNITS
 70
     2
  9
$LUPREC
 70
     2
  9
$SKETCHINC
 40
1.0
  9
$FILLETRAD
 40
10.0
  9
$AUNITS
 70
     0
  9
$AUPREC
 70
     0
  9
$MENU
  1
.
  9
$ELEVATION
 40
0.0
  9
$PELEVATION
 40
0.0
  9
$THICKNESS
 40
0.0
  9
$LIMCHECK
 70
     0
  9
$BLIPMODE
 70
     0
  9
$CHAMFERA
 40
10.0
  9
$CHAMFERB
 40
10.0
  9
$CHAMFERC
 40
20.0
  9
$CHAMFERD
 40
0.0
  9
$SKPOLY
 70
     0
  9
$TDCREATE
 40
2454596.550355717
  9
$TDUPDATE
 40
2454890.889569039
  9
$TDINDWG
 40
0.0674309491
  9
$TDUSRTIMER
 40
0.0674303935
  9
$USRTIMER
 70
     1
  9
$ANGBASE
 50
0.0
  9
$ANGDIR
 70
     0
  9
$PDMODE
 70
     0
  9
$PDSIZE
 40
0.0
  9
$PLINEWID
 40
0.0
  9
$COORDS
 70
     0
  9
$SPLFRAME
 70
     0
  9
$SPLINETYPE
 70
     6
  9
$SPLINESEGS
 70
     8
  9
$ATTDIA
 70
     0
  9
$ATTREQ
 70
     1
  9
$HANDLING
 70
 22529
  9
$HANDSEED
  5
10A9
  9
$SURFTAB1
 70
     6
  9
$SURFTAB2
 70
     6
  9
$SURFTYPE
 70
     6
  9
$SURFU
 70
     6
  9
$SURFV
 70
     6
  9
$UCSNAME
  2

  9
$UCSORG
 10
0.0
 20
0.0
 30
0.0
  9
$UCSXDIR
 10
1.0
 20
0.0
 30
0.0
  9
$UCSYDIR
 10
0.0
 20
1.0
 30
0.0
  9
$PUCSNAME
  2

  9
$PUCSORG
 10
0.0
 20
0.0
 30
0.0
  9
$PUCSXDIR
 10
1.0
 20
0.0
 30
0.0
  9
$PUCSYDIR
 10
0.0
 20
1.0
 30
0.0
  9
$USERI1
 70
     0
  9
$USERI2
 70
     0
  9
$USERI3
 70
     0
  9
$USERI4
 70
     0
  9
$USERI5
 70
     0
  9
$USERR1
 40
0.0
  9
$USERR2
 40
0.0
  9
$USERR3
 40
0.0
  9
$USERR4
 40
0.0
  9
$USERR5
 40
0.0
  9
$WORLDVIEW
 70
     1
  9
$SHADEDGE
 70
     3
  9
$SHADEDIF
 70
    70
  9
$TILEMODE
 70
     1
  9
$MAXACTVP
 70
    48
  9
$PINSBASE
 10
0.0
 20
0.0
 30
0.0
  9
$PLIMCHECK
 70
     0
  9
$PEXTMIN
 10
28.5263154029846
 20
19.82258291244505
 30
0.0
  9
$PEXTMAX
 10
256.7368386268614
 20
178.4032462120055
 30
0.0
  9
$PLIMMIN
 10
-5.873748779296875
 20
-5.873749732971191
  9
$PLIMMAX
 10
291.1369018554686
 20
204.0995779037474
  9
$UNITMODE
 70
     0
  9
$VISRETAIN
 70
     1
  9
$PLINEGEN
 70
     0
  9
$PSLTSCALE
 70
     1
  9
$TREEDEPTH
 70
  3020
  9
$PICKSTYLE
 70
     1
  9
$CMLSTYLE
  2
STANDARD
  9
$CMLJUST
 70
     0
  9
$CMLSCALE
 40
20.0
  9
$PROXYGRAPHICS
 70
     1
  9
$MEASUREMENT
 70
     0
  0
ENDSEC
  0
SECTION
  2
CLASSES
  0
CLASS
  1
ACDBDICTIONARYWDFLT
  2
AcDbDictionaryWithDefault
  3
AutoCAD 2000
 90
        0
280
     0
281
     0
  0
CLASS
  1
ACDBPLACEHOLDER
  2
AcDbPlaceHolder
  3
AutoCAD 2000
 90
        0
280
     0
281
     0
  0
CLASS
  1
LAYOUT
  2
AcDbLayout
  3
AutoCAD 2000
 90
        0
280
     0
281
     0
  0
CLASS
  1
DICTIONARYVAR
  2
AcDbDictionaryVar
  3
AutoCAD 2000
 90
        0
280
     0
281
     0
  0
CLASS
  1
LONG_TRANSACTION
  2
AcDbLongTransaction
  3
AutoCAD 2000
 90
        0
280
     0
281
     0
  0
CLASS
  1
LWPOLYLINE
  2
AcDbPolyline
  3
AutoCAD 2000
 90
        0
280
     0
281
     1
  0
CLASS
  1
HATCH
  2
AcDbHatch
  3
AutoCAD 2000
 90
        0
280
     0
281
     1
  0
CLASS
  1
XRECORD
  2
AcDbXrecord
  3
AutoCAD 2000
 90
        0
280
     0
281
     0
  0
CLASS
  1
LONG_TRANSACTION
  2
AcDbLongTransaction
  3
AutoCAD 2000
 90
        0
280
     0
281
     0
  0
CLASS
  1
LWPOLYLINE
  2
AcDbPolyline
  3
AutoCAD 2000
 90
        0
280
     0
281
     1
  0
CLASS
  1
HATCH
  2
AcDbHatch
  3
AutoCAD 2000
 90
        0
280
     0
281
     1
  0
CLASS
  1
XRECORD
  2
AcDbXrecord
  3
AutoCAD 2000
 90
        0
280
     0
281
     0
  0
CLASS
  1
AMGSETTINGSOBJ
  2
AmgSettingsObj
  3
"AcadM|Product Description: AutoCAD Mechanical 2000|Company: Autodesk"
 90
        0
280
     0
281
     0
  0
CLASS
  1
ACME_DOCUMENT
  2
AcMeDbDoc
  3
AcMeServices
 90
        0
280
     0
281
     0
  0
CLASS
  1
ACMESCOPE
  2
AcMeScope
  3
AcMeServices
 90
        0
280
     0
281
     0
  0
CLASS
  1
ACMECOMMANDHISTORY
  2
AcMeCommandHistory
  3
AcMeServices
 90
        0
280
     0
281
     0
  0
CLASS
  1
ACIMSYSVARMAN
  2
AcImSysVarManager
  3
AcMeServices
 90
        0
280
     0
281
     0
  0
CLASS
  1
ACIMREALSYSVAR
  2
AcImRealSysVar
  3
AcMeServices
 90
        0
280
     0
281
     0
  0
CLASS
  1
ACIMINTSYSVAR
  2
AcImIntSysVar
  3
AcMeServices
 90
        0
280
     0
281
     0
  0
CLASS
  1
ACMEDRAWINGMAN
  2
AcMeDrawingMan
  3
AcMeServices
 90
        0
280
     0
281
     0
  0
CLASS
  1
ACMEVIEW
  2
AcMeView
  3
AcMeServices
 90
        0
280
     0
281
     0
  0
CLASS
  1
ACDBENTITYCACHE
  2
AcMeEntityCache
  3
AcMeServices
 90
        0
280
     0
281
     0
  0
CLASS
  1
GSMANAGER
  2
AcMeGSManager
  3
AcMeServices
 90
        0
280
     0
281
     0
  0
CLASS
  1
AMDTINTERNALREACTOR
  2
AmdtInternalReactor
  3
AcMeServices
 90
        0
280
     0
281
     0
  0
CLASS
  1
ACMESTATEMGR
  2
AcMeStateMgr
  3
AcMeServices
 90
        0
280
     0
281
     0
  0
CLASS
  1
ACGREFMASTER
  2
AcGrefMaster
  3
AcAttribServices
 90
        0
280
     0
281
     0
  0
CLASS
  1
AM_DRAWING_MGR
  2
AcDmDwgMgr
  3
AcMechDwgViewMgmt
 90
        0
280
     0
281
     0
  0
CLASS
  1
AM_DWG_DOCUMENT
  2
AcDmDwgDocument
  3
AcMechDwgViewMgmt
 90
        0
280
     0
281
     0
  0
CLASS
  1
AM_DWG_SHEET
  2
AcDmSheet
  3
AcMechDwgViewMgmt
 90
        0
280
     0
281
     0
  0
CLASS
  1
AM_VIEWDIMPARMAP
  2
AcDmViewDimParMap
  3
AcMechDwgViewMgmt
 90
        0
280
     0
281
     0
  0
CLASS
  1
AM_DWGMGR_NAME
  2
AcDmDwgMgrName
  3
AcMechDwgViewMgmt
 90
        0
280
     0
281
     0
  0
CLASS
  1
ACME_DATABASE
  2
AcMeDbDatabase
  3
AcMeServices
 90
        0
280
     0
281
     0
  0
CLASS
  1
ACRFINSADJUSTERMGR
  2
AcRfInsAdjusterMgr
  3
AcMeServices
 90
        0
280
     0
281
     0
  0
CLASS
  1
ACGREFACADMASTER
  2
AcGrefacadMaster
  3
AcGrefServices
 90
        0
280
     0
281
     0
  0
CLASS
  1
AMDTMENUSTATEMGR
  2
AmdtMenuStateMgr
  3
McadcomServices
 90
        0
280
     0
281
     0
  0
CLASS
  1
AMDTMCOMMENUSTATE
  2
AmdtMcomMenuState
  3
McadcomServices
 90
        0
280
     0
281
     0
  0
CLASS
  1
AMIMASTER
  2
AmiMaster
  3
AmiServices
 90
        0
280
     0
281
     0
  0
CLASS
  1
ASAPP
  2
AcAsAppObject
  3
AutoSurfServices
 90
        0
280
     0
281
     0
  0
CLASS
  1
IM_STATIC_MAN
  2
AcImStaticVarManager
  3
AcMeServices
 90
        0
280
     0
281
     0
  0
CLASS
  1
ACIMSTRSYSVAR
  2
AcImStrSysVar
  3
AcMeServices
 90
        0
280
     0
281
     0
  0
CLASS
  1
ACIMDBLSTATICVAR
  2
AcImDblStaticVar
  3
AcMeServices
 90
        0
280
     0
281
     0
  0
CLASS
  1
ACIMSTRSTATICVAR
  2
AcImStrStaticVar
  3
AcMeServices
 90
        0
280
     0
281
     0
  0
CLASS
  1
ACIMINTSTATICVAR
  2
AcImIntStaticVar
  3
AcMeServices
 90
        0
280
     0
281
     0
  0
CLASS
  1
ACASGREFMASTER
  2
AcAsGrefMaster
  3
AutoSurfResolverServices
 90
        0
280
     0
281
     0
  0
CLASS
  1
ACADGREFMODULE
  2
AcAdGrefModule
  3
AdGrefServices
 90
        0
280
     0
281
     0
  0
CLASS
  1
AMDTMAPISURFMOUDULE
  2
AmdtMApiSurfModule
  3
MApiSurfServices
 90
        0
280
     0
281
     0
  0
CLASS
  1
MAPIAMMOUDLE
  2
MApiAmModule
  3
MApiAmServices
 90
        0
280
     0
281
     0
  0
CLASS
  1
AMDTADMENUSTATE
  2
AmdtAdMenuState
  3
DesignerServices
 90
        0
280
     0
281
     0
  0
CLASS
  1
ADAPPL
  2
AcAdAppl
  3
DesignerServices
 90
        0
280
     0
281
     0
  0
CLASS
  1
DEPMGR
  2
AcAdDepMgr
  3
DesignerServices
 90
        0
280
     0
281
     0
  0
CLASS
  1
PARAMMGR
  2
AcAdParamMgr
  3
DesignerServices
 90
        0
280
     0
281
     0
  0
CLASS
  1
PARAMSCOPE
  2
AcAdParamScope
  3
DesignerServices
 90
        0
280
     0
281
     0
  0
CLASS
  1
NAMEDAPPL
  2
AcAdNamedAppl
  3
DesignerServices
 90
        0
280
     0
281
     0
  0
CLASS
  1
AMDTDMMENUSTATE
  2
AmdtDmMenuState
  3
AcMechDwgViewMgmt
 90
        0
280
     0
281
     0
  0
CLASS
  1
MAPIADMODULE
  2
MApiAdModule
  3
MApiAdServices
 90
        0
280
     0
281
     0
  0
CLASS
  1
AMDTAMMENUSTATE
  2
AmdtAmMenuState
  3
DesignerAssemblies
 90
        0
280
     0
281
     0
  0
CLASS
  1
ACAMPROJECT
  2
AcAmProject
  3
DesignerAssemblies
 90
        0
280
     0
281
     0
  0
CLASS
  1
ACAMGRCOMPDEF
  2
AcAmGrCompDef
  3
DesignerAssemblies
 90
        0
280
     0
281
     0
  0
CLASS
  1
ACCMCONTEXT
  2
AcCmContext
  3
DesignerAssemblies
 90
        0
280
     0
281
     0
  0
CLASS
  1
ACAMCOMPDEF
  2
AcAmCompDef
  3
DesignerAssemblies
 90
        0
280
     0
281
     0
  0
CLASS
  1
ACAMCOMPDEFMGR
  2
AcAmCompDefMgr
  3
DesignerAssemblies
 90
        0
280
     0
281
     0
  0
CLASS
  1
AMCONTEXTMGR
  2
AcAmContextMgr
  3
DesignerAssemblies
 90
        0
280
     0
281
     0
  0
CLASS
  1
ACAMCONTEXTMODELER
  2
AcAmContextModeler
  3
DesignerAssemblies
 90
        0
280
     0
281
     0
  0
CLASS
  1
ACMDATADICTIONARY
  2
AcmDataDictionary
  3
"AcmSymBB|Product Description: AutoCAD Mechanical 2000|Company: Autodesk"
 90
        0
280
     0
281
     0
  0
CLASS
  1
ACMDATAENTRYBLOCK
  2
AcmDataEntryBlock
  3
"AcmSymBB|Product Description: AutoCAD Mechanical 2000|Company: Autodesk"
 90
        0
280
     0
281
     0
  0
CLASS
  1
CATALOGSTATE
  2
AcAmCatalogState
  3
DesignerAssemblies
 90
        0
280
     0
281
     0
  0
CLASS
  1
ACAMGRCOMPDEFSET
  2
AcAmGrCompDefSet
  3
DesignerAssemblies
 90
        0
280
     0
281
     0
  0
CLASS
  1
AMDTBROWSERDBTAB
  2
AmdtBrowserDbTab
  3
McadcomServices
 90
        0
280
     0
281
     0
  0
CLASS
  1
CBROWSERAPPOBJECT
  2
CBrowserAppObject
  3
McadcomServices
 90
        0
280
     0
281
     0
  0
CLASS
  1
DM_PLACEHOLDER
  2
AcDmSelsetPlaceholder
  3
AcMechDwgViewMgmt
 90
        0
280
     0
281
     0
  0
CLASS
  1
AMGOBJPROPCFG
  2
AmgObjPropCfg
  3
"AmgLay|Product Description: AutoCAD Mechanical 2000|Company: Autodesk"
 90
        1
280
     0
281
     0
  0
CLASS
  1
ACAMGFILTERDAT
  2
AcAmgFilterDat
  3
"AcadM|Product Description: AutoCAD Mechanical 2000|Company: Autodesk"
 90
        0
280
     0
281
     0
  0
CLASS
  1
LAYER_INDEX
  2
AcDbLayerIndex
  3
AutoCAD 2000
 90
        0
280
     0
281
     0
  0
CLASS
  1
IDBUFFER
  2
AcDbIdBuffer
  3
AutoCAD 2000
 90
        0
280
     0
281
     0
  0
CLASS
  1
ACAD_PROXY_OBJECT_WRAPPER
  2
AcDbProxyObjectWrapper
  3
AutoCAD 2000
 90
        0
280
     0
281
     0
  0
CLASS
  1
LONG_TRANSACTION
  2
AcDbLongTransaction
  3
AutoCAD 2000
 90
        0
280
     0
281
     0
  0
CLASS
  1
LWPOLYLINE
  2
AcDbPolyline
  3
AutoCAD 2000
 90
        0
280
     0
281
     1
  0
CLASS
  1
HATCH
  2
AcDbHatch
  3
AutoCAD 2000
 90
        0
280
     0
281
     1
  0
CLASS
  1
XRECORD
  2
AcDbXrecord
  3
AutoCAD 2000
 90
        0
280
     0
281
     0
  0
CLASS
  1
LONG_TRANSACTION
  2
AcDbLongTransaction
  3
AutoCAD 2000
 90
        0
280
     0
281
     0
  0
CLASS
  1
LWPOLYLINE
  2
AcDbPolyline
  3
AutoCAD 2000
 90
        0
280
     0
281
     1
  0
CLASS
  1
HATCH
  2
AcDbHatch
  3
AutoCAD 2000
 90
        0
280
     0
281
     1
  0
CLASS
  1
XRECORD
  2
AcDbXrecord
  3
AutoCAD 2000
 90
        0
280
     0
281
     0
  0
CLASS
  1
LONG_TRANSACTION
  2
AcDbLongTransaction
  3
AutoCAD 2000
 90
        0
280
     0
281
     0
  0
CLASS
  1
LWPOLYLINE
  2
AcDbPolyline
  3
AutoCAD 2000
 90
        0
280
     0
281
     1
  0
CLASS
  1
HATCH
  2
AcDbHatch
  3
AutoCAD 2000
 90
        0
280
     0
281
     1
  0
CLASS
  1
XRECORD
  2
AcDbXrecord
  3
AutoCAD 2000
 90
        0
280
     0
281
     0
  0
CLASS
  1
LONG_TRANSACTION
  2
AcDbLongTransaction
  3
AutoCAD 2000
 90
        0
280
     0
281
     0
  0
CLASS
  1
LWPOLYLINE
  2
AcDbPolyline
  3
AutoCAD 2000
 90
        0
280
     0
281
     1
  0
CLASS
  1
HATCH
  2
AcDbHatch
  3
AutoCAD 2000
 90
        0
280
     0
281
     1
  0
CLASS
  1
XRECORD
  2
AcDbXrecord
  3
AutoCAD 2000
 90
        0
280
     0
281
     0
  0
CLASS
  1
LONG_TRANSACTION
  2
AcDbLongTransaction
  3
AutoCAD 2000
 90
        0
280
     0
281
     0
  0
CLASS
  1
LWPOLYLINE
  2
AcDbPolyline
  3
AutoCAD 2000
 90
        0
280
     0
281
     1
  0
CLASS
  1
HATCH
  2
AcDbHatch
  3
AutoCAD 2000
 90
        0
280
     0
281
     1
  0
CLASS
  1
XRECORD
  2
AcDbXrecord
  3
AutoCAD 2000
 90
        0
280
     0
281
     0
  0
CLASS
  1
LONG_TRANSACTION
  2
AcDbLongTransaction
  3
AutoCAD 2000
 90
        0
280
     0
281
     0
  0
CLASS
  1
LWPOLYLINE
  2
AcDbPolyline
  3
AutoCAD 2000
 90
        0
280
     0
281
     1
  0
CLASS
  1
HATCH
  2
AcDbHatch
  3
AutoCAD 2000
 90
        0
280
     0
281
     1
  0
CLASS
  1
XRECORD
  2
AcDbXrecord
  3
AutoCAD 2000
 90
        0
280
     0
281
     0
  0
CLASS
  1
LONG_TRANSACTION
  2
AcDbLongTransaction
  3
AutoCAD 2000
 90
        0
280
     0
281
     0
  0
CLASS
  1
LWPOLYLINE
  2
AcDbPolyline
  3
AutoCAD 2000
 90
        0
280
     0
281
     1
  0
CLASS
  1
HATCH
  2
AcDbHatch
  3
AutoCAD 2000
 90
        0
280
     0
281
     1
  0
CLASS
  1
XRECORD
  2
AcDbXrecord
  3
AutoCAD 2000
 90
        0
280
     0
281
     0
  0
CLASS
  1
LONG_TRANSACTION
  2
AcDbLongTransaction
  3
AutoCAD 2000
 90
        0
280
     0
281
     0
  0
CLASS
  1
LWPOLYLINE
  2
AcDbPolyline
  3
AutoCAD 2000
 90
        0
280
     0
281
     1
  0
CLASS
  1
HATCH
  2
AcDbHatch
  3
AutoCAD 2000
 90
        0
280
     0
281
     1
  0
CLASS
  1
XRECORD
  2
AcDbXrecord
  3
AutoCAD 2000
 90
        0
280
     0
281
     0
  0
CLASS
  1
LONG_TRANSACTION
  2
AcDbLongTransaction
  3
AutoCAD 2000
 90
        0
280
     0
281
     0
  0
CLASS
  1
LWPOLYLINE
  2
AcDbPolyline
  3
AutoCAD 2000
 90
        0
280
     0
281
     1
  0
CLASS
  1
HATCH
  2
AcDbHatch
  3
AutoCAD 2000
 90
        0
280
     0
281
     1
  0
CLASS
  1
XRECORD
  2
AcDbXrecord
  3
AutoCAD 2000
 90
        0
280
     0
281
     0
  0
CLASS
  1
LONG_TRANSACTION
  2
AcDbLongTransaction
  3
AutoCAD 2000
 90
        0
280
     0
281
     0
  0
CLASS
  1
LWPOLYLINE
  2
AcDbPolyline
  3
AutoCAD 2000
 90
        0
280
     0
281
     1
  0
CLASS
  1
HATCH
  2
AcDbHatch
  3
AutoCAD 2000
 90
        0
280
     0
281
     1
  0
CLASS
  1
XRECORD
  2
AcDbXrecord
  3
AutoCAD 2000
 90
        0
280
     0
281
     0
  0
CLASS
  1
LONG_TRANSACTION
  2
AcDbLongTransaction
  3
AutoCAD 2000
 90
        0
280
     0
281
     0
  0
CLASS
  1
LWPOLYLINE
  2
AcDbPolyline
  3
AutoCAD 2000
 90
        0
280
     0
281
     1
  0
CLASS
  1
HATCH
  2
AcDbHatch
  3
AutoCAD 2000
 90
        0
280
     0
281
     1
  0
CLASS
  1
XRECORD
  2
AcDbXrecord
  3
AutoCAD 2000
 90
        0
280
     0
281
     0
  0
CLASS
  1
LONG_TRANSACTION
  2
AcDbLongTransaction
  3
AutoCAD 2000
 90
        0
280
     0
281
     0
  0
CLASS
  1
LWPOLYLINE
  2
AcDbPolyline
  3
AutoCAD 2000
 90
        0
280
     0
281
     1
  0
CLASS
  1
HATCH
  2
AcDbHatch
  3
AutoCAD 2000
 90
        0
280
     0
281
     1
  0
CLASS
  1
XRECORD
  2
AcDbXrecord
  3
AutoCAD 2000
 90
        0
280
     0
281
     0
  0
CLASS
  1
LONG_TRANSACTION
  2
AcDbLongTransaction
  3
AutoCAD 2000
 90
        0
280
     0
281
     0
  0
CLASS
  1
LWPOLYLINE
  2
AcDbPolyline
  3
AutoCAD 2000
 90
        0
280
     0
281
     1
  0
CLASS
  1
HATCH
  2
AcDbHatch
  3
AutoCAD 2000
 90
        0
280
     0
281
     1
  0
CLASS
  1
XRECORD
  2
AcDbXrecord
  3
AutoCAD 2000
 90
        0
280
     0
281
     0
  0
ENDSEC
  0
SECTION
  2
TABLES
  0
TABLE
  2
VPORT
  5
8
330
0
100
AcDbSymbolTable
 70
     3
  0
VPORT
  5
1086
330
8
100
AcDbSymbolTableRecord
100
AcDbViewportTableRecord
  2
*ACTIVE
 70
     0
 10
0.0
 20
0.0
 11
1.0
 21
1.0
 12
-929.1066668218585
 22
-452.3744755039431
 13
0.0
 23
0.0
 14
10.0
 24
10.0
 15
10.0
 25
10.0
 16
0.0
 26
0.0
 36
1.0
 17
1140.949166581189
 27
552.5761744424462
 37
0.0
 40
205.1535095452024
 41
1.621212121212121
 42
50.0
 43
0.0
 44
0.0
 50
0.0
 51
0.0
 71
     0
 72
   100
 73
     1
 74
     3
 75
     0
 76
     0
 77
     0
 78
     0
  0
ENDTAB
  0
TABLE
  2
LTYPE
  5
5
330
0
100
AcDbSymbolTable
 70
    10
  0
LTYPE
  5
14
330
5
100
AcDbSymbolTableRecord
100
AcDbLinetypeTableRecord
  2
BYBLOCK
 70
     0
  3

 72
    65
 73
     0
 40
0.0
  0
LTYPE
  5
15
330
5
100
AcDbSymbolTableRecord
100
AcDbLinetypeTableRecord
  2
BYLAYER
 70
     0
  3

 72
    65
 73
     0
 40
0.0
  0
LTYPE
  5
16
330
5
100
AcDbSymbolTableRecord
100
AcDbLinetypeTableRecord
  2
CONTINUOUS
 70
     0
  3
Solid line
 72
    65
 73
     0
 40
0.0
  0
LTYPE
  5
5C6
330
5
100
AcDbSymbolTableRecord
100
AcDbLinetypeTableRecord
  2
AM_ISO02W050
 70
     0
  3
__ __ __ __ __ __ __ __ __ __ __ __ __ __ __
 72
    65
 73
     2
 40
7.5
 49
6.0
 74
     0
 49
-1.5
 74
     0
  0
LTYPE
  5
5C7
330
5
100
AcDbSymbolTableRecord
100
AcDbLinetypeTableRecord
  2
AM_ISO08W050
 70
     0
  3
____ . ____ . ____ . ____ . ____ . ____ . ____
 72
    65
 73
     4
 40
18.0
 49
12.0
 74
     0
 49
-1.5
 74
     0
 49
3.0
 74
     0
 49
-1.5
 74
     0
  0
LTYPE
  5
5C8
330
5
100
AcDbSymbolTableRecord
100
AcDbLinetypeTableRecord
  2
AM_ISO09W050
 70
     0
  3
_____ . . _____ . . _____ . . ____ .. ____
 72
    65
 73
     6
 40
22.5
 49
12.0
 74
     0
 49
-1.5
 74
     0
 49
3.0
 74
     0
 49
-1.5
 74
     0
 49
3.0
 74
     0
 49
-1.5
 74
     0
  0
LTYPE
  5
5C9
330
5
100
AcDbSymbolTableRecord
100
AcDbLinetypeTableRecord
  2
AMCONSTR
 70
     0
  3
_______________________
 72
    65
 73
     2
 40
9999.0
 49
9999.0
 74
     0
 49
0.0
 74
     0
  0
LTYPE
  5
5CA
330
5
100
AcDbSymbolTableRecord
100
AcDbLinetypeTableRecord
  2
AM_ISO08W050X2
 70
     0
  3
__ . __ . __ . __ . __ . __
 72
    65
 73
     4
 40
9.0
 49
6.0
 74
     0
 49
-0.75
 74
     0
 49
1.5
 74
     0
 49
-0.75
 74
     0
  0
LTYPE
  5
5CB
330
5
100
AcDbSymbolTableRecord
100
AcDbLinetypeTableRecord
  2
AM_ISO02W050X2
 70
     0
  3
 _ _ _ _ _ _ _ _ _ _ _ _
 72
    65
 73
     2
 40
3.75
 49
3.0
 74
     0
 49
-0.75
 74
     0
  0
LTYPE
  5
5CE
330
5
100
AcDbSymbolTableRecord
100
AcDbLinetypeTableRecord
  2
AMZIGZAG
 70
     0
  3
/\/-/\/-/\/-/\/-/\/-/\/
 72
    65
 73
     2
 40
11.00009999999999
 49
0.0001
 74
     4
 75
   135
340
5CD
 46
0.04
 50
0.0
 44
0.0
 45
0.0
 49
-11.0
 74
     0
  0
LTYPE
  5
BFF
330
5
100
AcDbSymbolTableRecord
100
AcDbLinetypeTableRecord
  2
CENTER
 70
     0
  3
Center ____ _ ____ _ ____ _ ____ _ ____ _ ____
 72
    65
 73
     4
 40
2.0
 49
1.25
 74
     0
 49
-0.25
 74
     0
 49
0.25
 74
     0
 49
-0.25
 74
     0
  0
LTYPE
  5
C99
330
5
100
AcDbSymbolTableRecord
100
AcDbLinetypeTableRecord
  2
PHANTOM2
 70
     0
  3
Phantom (.5x) ___ _ _ ___ _ _ ___ _ _ ___ _ _
 72
    65
 73
     6
 40
31.75
 49
15.875
 74
     0
 49
-3.174999999999998
 74
     0
 49
3.174999999999998
 74
     0
 49
-3.174999999999998
 74
     0
 49
3.174999999999998
 74
     0
 49
-3.174999999999998
 74
     0
  0
ENDTAB
  0
TABLE
  2
LAYER
  5
2
102
{ACAD_XDICTIONARY
360
41
102
}
330
0
100
AcDbSymbolTable
 70
     7
  0
LAYER
  5
10
330
2
100
AcDbSymbolTableRecord
100
AcDbLayerTableRecord
  2
0
 70
     0
 62
     7
  6
CONTINUOUS
  0
LAYER
  5
35
330
2
100
AcDbSymbolTableRecord
100
AcDbLayerTableRecord
  2
10
 70
     0
 62
     4
  6
CONTINUOUS
  0
LAYER
  5
36
330
2
100
AcDbSymbolTableRecord
100
AcDbLayerTableRecord
  2
12
 70
     0
 62
     3
  6
CENTER
  0
LAYER
  5
37
330
2
100
AcDbSymbolTableRecord
100
AcDbLayerTableRecord
  2
16
 70
     0
 62
     4
  6
CENTER
  0
LAYER
  5
38
330
2
100
AcDbSymbolTableRecord
100
AcDbLayerTableRecord
  2
19
 70
     0
 62
     7
  6
CONTINUOUS
  0
LAYER
  5
636
330
2
100
AcDbSymbolTableRecord
100
AcDbLayerTableRecord
  2
DEFPOINTS
 70
     0
 62
     7
  6
CONTINUOUS
  0
LAYER
  5
B79
330
2
100
AcDbSymbolTableRecord
100
AcDbLayerTableRecord
  2
17
 70
     0
 62
     2
  6
CENTER
  0
ENDTAB
  0
TABLE
  2
STYLE
  5
3
330
0
100
AcDbSymbolTable
 70
     3
  0
STYLE
  5
11
330
3
100
AcDbSymbolTableRecord
100
AcDbTextStyleTableRecord
  2
STANDARD
 70
     0
 40
0.0
 41
1.0
 50
0.0
 71
     0
 42
2.5
  3
txt
  4

  0
STYLE
  5
3A
330
3
100
AcDbSymbolTableRecord
100
AcDbTextStyleTableRecord
  2
STANDARD1X3
 70
     0
 40
9.599999999999999
 41
0.7
 50
0.0
 71
     0
 42
9.599999999999999
  3
romans.shx
  4
extfont.shx
  0
STYLE
  5
5CD
330
3
100
AcDbSymbolTableRecord
100
AcDbTextStyleTableRecord
  2

 70
     1
 40
0.0
 41
1.0
 50
0.0
 71
     0
 42
2.5
  3
ltypeshp.shx
  4

  0
ENDTAB
  0
TABLE
  2
VIEW
  5
6
330
0
100
AcDbSymbolTable
 70
     0
  0
ENDTAB
  0
TABLE
  2
UCS
  5
7
330
0
100
AcDbSymbolTable
 70
     0
  0
ENDTAB
  0
TABLE
  2
APPID
  5
9
330
0
100
AcDbSymbolTable
 70
    23
  0
APPID
  5
12
330
9
100
AcDbSymbolTableRecord
100
AcDbRegAppTableRecord
  2
ACAD
 70
     0
  0
APPID
  5
3C
330
9
100
AcDbSymbolTableRecord
100
AcDbRegAppTableRecord
  2
ACAD_PSEXT
 70
     0
  0
APPID
  5
3D
330
9
100
AcDbSymbolTableRecord
100
AcDbRegAppTableRecord
  2
ACAD_DSTYLE_DIMEXT_LENGTH
 70
     0
  0
APPID
  5
3E
330
9
100
AcDbSymbolTableRecord
100
AcDbRegAppTableRecord
  2
ACAD_DSTYLE_DIMEXT_ENABLED
 70
     0
  0
APPID
  5
3F
330
9
100
AcDbSymbolTableRecord
100
AcDbRegAppTableRecord
  2
ACAD_DSTYLE_DIMJOGGED_JOGA
 70
     0
  0
APPID
  5
40
330
9
100
AcDbSymbolTableRecord
100
AcDbRegAppTableRecord
  2
ACAD_DSTYLE_DIMARC_LENGTH_
 70
     0
  0
APPID
  5
500
330
9
100
AcDbSymbolTableRecord
100
AcDbRegAppTableRecord
  2
GENIUS_GENDIM_13
 70
     0
  0
APPID
  5
501
330
9
100
AcDbSymbolTableRecord
100
AcDbRegAppTableRecord
  2
GENIUS_GENDTOL_13
 70
     0
  0
APPID
  5
502
330
9
100
AcDbSymbolTableRecord
100
AcDbRegAppTableRecord
  2
GENIUS_GE3DTOL_13
 70
     0
  0
APPID
  5
504
330
9
100
AcDbSymbolTableRecord
100
AcDbRegAppTableRecord
  2
MCAD_NO_VIS
 70
     0
  0
APPID
  5
505
330
9
100
AcDbSymbolTableRecord
100
AcDbRegAppTableRecord
  2
ACAD_TEMP_GRAPHIC
 70
     0
  0
APPID
  5
537
330
9
100
AcDbSymbolTableRecord
100
AcDbRegAppTableRecord
  2
AD_DRAW
 70
     0
  0
APPID
  5
53A
330
9
100
AcDbSymbolTableRecord
100
AcDbRegAppTableRecord
  2
ACATTRIBSERVICES
 70
     0
  0
APPID
  5
586
330
9
100
AcDbSymbolTableRecord
100
AcDbRegAppTableRecord
  2
ASURF_PCURVE_APPNAME
 70
     0
  0
APPID
  5
5B5
330
9
100
AcDbSymbolTableRecord
100
AcDbRegAppTableRecord
  2
DESIGNERASSEMBLIES
 70
     0
  0
APPID
  5
5BD
330
9
100
AcDbSymbolTableRecord
100
AcDbRegAppTableRecord
  2
ACADM_DIM_EDIT
 70
     0
  0
APPID
  5
5BE
330
9
100
AcDbSymbolTableRecord
100
AcDbRegAppTableRecord
  2
AMDT_DM_ADJ
 70
     0
  0
APPID
  5
642
330
9
100
AcDbSymbolTableRecord
100
AcDbRegAppTableRecord
  2
ACAECLAYERSTANDARD
 70
     0
  0
APPID
  5
CAF
330
9
100
AcDbSymbolTableRecord
100
AcDbRegAppTableRecord
  2
GENIUS_GENREC_14
 70
     0
  0
APPID
  5
CB0
330
9
100
AcDbSymbolTableRecord
100
AcDbRegAppTableRecord
  2
GENIUS_GENODEF_13
 70
     0
  0
APPID
  5
CB1
330
9
100
AcDbSymbolTableRecord
100
AcDbRegAppTableRecord
  2
GENIUS_GENOBJ-N-REC_13
 70
     0
  0
APPID
  5
CB2
330
9
100
AcDbSymbolTableRecord
100
AcDbRegAppTableRecord
  2
GENIUS_GENOREF_13
 70
     0
  0
APPID
  5
CB3
330
9
100
AcDbSymbolTableRecord
100
AcDbRegAppTableRecord
  2
GENIUS_GENOBJ-N-CEN_13
 70
     0
  0
ENDTAB
  0
TABLE
  2
DIMSTYLE
  5
A
330
0
100
AcDbSymbolTable
 70
     2
  0
DIMSTYLE
105
27
330
A
100
AcDbSymbolTableRecord
100
AcDbDimStyleTableRecord
  2
ISO-25
 70
     0
  3

  4

  5

  6

  7

 40
1.0
 41
2.5
 42
0.625
 43
3.75
 44
1.25
 45
0.0
 46
0.0
 47
0.0
 48
0.0
140
2.5
141
2.5
142
0.0
143
0.03937007874016
144
1.0
145
0.0
146
1.0
147
0.625
 71
     0
 72
     0
 73
     0
 74
     0
 75
     0
 76
     0
 77
     1
 78
     8
170
     0
171
     3
172
     1
173
     0
174
     0
175
     0
176
     0
177
     0
178
     0
270
     2
271
     2
272
     2
273
     2
274
     3
340
11
275
     0
280
     0
281
     0
282
     0
283
     0
284
     8
285
     0
286
     0
287
     3
288
     0
  0
DIMSTYLE
105
CAE
330
A
100
AcDbSymbolTableRecord
100
AcDbDimStyleTableRecord
  2
AM_ISO
 70
     0
  3

  4
"
  5

  6

  7

 40
1.0
 41
2.5
 42
1.0
 43
10.0
 44
1.0
 45
0.0
 46
0.0
 47
0.1
 48
0.1
140
3.5
141
0.0
142
0.0
143
0.0393701
144
1.0
145
0.0
146
0.71
147
1.5
 71
     0
 72
     0
 73
     0
 74
     0
 75
     0
 76
     0
 77
     1
 78
     8
170
     0
171
     2
172
     1
173
     0
174
     0
175
     0
176
   256
177
   256
178
     2
270
     2
271
     2
272
     3
273
     2
274
     4
340
11
275
     0
280
     0
281
     0
282
     0
283
     0
284
     8
285
     0
286
     0
287
     3
288
     0
  0
ENDTAB
  0
TABLE
  2
BLOCK_RECORD
  5
1
330
0
100
AcDbSymbolTable
 70
     1
  0
BLOCK_RECORD
  5
1F
102
{ACAD_XDICTIONARY
360
438
102
}
330
1
100
AcDbSymbolTableRecord
100
AcDbBlockTableRecord
  2
*MODEL_SPACE
  0
BLOCK_RECORD
  5
23
102
{ACAD_XDICTIONARY
360
43A
102
}
330
1
100
AcDbSymbolTableRecord
100
AcDbBlockTableRecord
  2
*PAPER_SPACE
  0
BLOCK_RECORD
  5
5AC
330
1
100
AcDbSymbolTableRecord
100
AcDbBlockTableRecord
  2
*U0
  0
ENDTAB
  0
ENDSEC
  0
SECTION
  2
BLOCKS
  0
BLOCK
  5
20
330
1F
100
AcDbEntity
  8
0
100
AcDbBlockBegin
  2
*MODEL_SPACE
 70
     0
 10
0.0
 20
0.0
 30
0.0
  3
*MODEL_SPACE
  1

  0
ENDBLK
  5
21
330
1F
100
AcDbEntity
  8
0
100
AcDbBlockEnd
  0
BLOCK
  5
24
330
23
100
AcDbEntity
 67
     1
  8
0
100
AcDbBlockBegin
  2
*PAPER_SPACE
 70
     0
 10
0.0
 20
0.0
 30
0.0
  3
*PAPER_SPACE
  1

  0
ENDBLK
  5
25
330
23
100
AcDbEntity
 67
     1
  8
0
100
AcDbBlockEnd
  0
BLOCK
  5
5AD
330
5AC
100
AcDbEntity
  8
0
100
AcDbBlockBegin
  2
*U0
 70
     1
 10
0.0
 20
0.0
 30
0.0
  3
*U0
  1

  0
ENDBLK
  5
5AE
330
5AC
100
AcDbEntity
  8
0
100
AcDbBlockEnd
  0
ENDSEC
  0
SECTION
  2
ENTITIES
  0
MTEXT
  5
ABA
330
1F
100
AcDbEntity
  8
19
100
AcDbMText
 10
338.1192671124049
 20
52.45676698414911
 30
0.0
 40
5.0
 41
70.16
 71
     1
 72
     5
  1
HELH07\PFR-HEL-H7.5K
  7
STANDARD1X3
1001
ACAD
1000
MTEXTBEGIN
1070
    73
1070
     1
1070
    44
1040
1.0
1070
    74
1070
     0
1000
MTEXTEND
  0
LINE
  5
E6D
330
1F
100
AcDbEntity
  8
16
100
AcDbLine
 10
94.40685926887637
 20
166.723793643614
 30
0.0
 11
94.40685926887637
 21
35.33548405820329
 31
0.0
1001
GENIUS_GENODEF_13
1002
{
1000
HIER
1070
     0
1002
}
1002
{
1000
MANEDIT
1070
     0
1002
}
1002
{
1000
NOSEL
1070
     0
1002
}
1002
{
1000
BEHIND
1070
     0
1002
}
1002
{
1000
OTHER
1070
     0
1002
}
1002
{
1000
REACTOR
1002
}
1001
GENIUS_GENOBJ-N-CEN_13
1002
{
1000
OWNER
1000
GEN
1002
}
  0
LINE
  5
E6E
330
1F
100
AcDbEntity
  8
16
100
AcDbLine
 10
257.4451127723914
 20
167.7701844955563
 30
0.0
 11
257.4451127723914
 21
32.62541359701936
 31
0.0
1001
GENIUS_GENODEF_13
1002
{
1000
HIER
1070
     0
1002
}
1002
{
1000
MANEDIT
1070
     0
1002
}
1002
{
1000
NOSEL
1070
     0
1002
}
1002
{
1000
BEHIND
1070
     0
1002
}
1002
{
1000
OTHER
1070
     0
1002
}
1002
{
1000
REACTOR
1002
}
1001
GENIUS_GENOBJ-N-CEN_13
1002
{
1000
OWNER
1000
GEN
1002
}
  0
CIRCLE
  5
E6F
330
1F
100
AcDbEntity
  8
10
100
AcDbCircle
 10
54.90685926887636
 20
53.26719197680905
 30
0.0
 40
6.0
1001
GENIUS_GENOREF_13
1005
0
1005
0
1005
0
  0
CIRCLE
  5
E70
330
1F
100
AcDbEntity
  8
10
100
AcDbCircle
 10
133.9068592688763
 20
53.26719197680905
 30
0.0
 40
6.0
1001
GENIUS_GENOREF_13
1005
0
1005
0
1005
0
  0
LINE
  5
E71
330
1F
100
AcDbEntity
  8
10
100
AcDbLine
 10
222.6451127723912
 20
116.227191976809
 30
0.0
 11
222.1745277723893
 21
116.227191976809
 31
0.0
  0
LINE
  5
E72
330
1F
100
AcDbEntity
  8
10
100
AcDbLine
 10
222.6451127723912
 20
120.2271919768081
 30
0.0
 11
222.1745277723893
 21
120.2271919768081
 31
0.0
  0
LINE
  5
E73
330
1F
100
AcDbEntity
  8
10
100
AcDbLine
 10
222.1745277723893
 20
116.227191976809
 30
0.0
 11
221.7451127723898
 21
116.6566069768095
 31
0.0
  0
LINE
  5
E74
330
1F
100
AcDbEntity
  8
10
100
AcDbLine
 10
222.1745277723893
 20
120.2271919768081
 30
0.0
 11
221.7451127723898
 21
119.7977769768094
 31
0.0
  0
LINE
  5
E75
330
1F
100
AcDbEntity
  8
10
100
AcDbLine
 10
222.1745277723893
 20
116.227191976809
 30
0.0
 11
222.1745277723893
 21
120.2271919768081
 31
0.0
  0
LINE
  5
E76
330
1F
100
AcDbEntity
  8
10
100
AcDbLine
 10
221.7451127723898
 20
116.6566069768095
 30
0.0
 11
221.7451127723898
 21
119.7977769768094
 31
0.0
  0
ARC
  5
E77
330
1F
100
AcDbEntity
  8
10
100
AcDbCircle
 10
224.432182092376
 20
115.1953169768094
 30
0.0
 40
1.787069319986959
100
AcDbArc
 50
145.5615305952118
 51
205.5615305954624
  0
ARC
  5
E78
330
1F
100
AcDbEntity
  8
10
100
AcDbCircle
 10
224.0580434524026
 20
115.1953169768094
 30
0.0
 40
1.787069319986959
100
AcDbArc
 50
334.4384694045375
 51
34.43846940478816
  0
LINE
  5
E79
330
1F
100
AcDbEntity
  8
10
100
AcDbLine
 10
222.6451127723912
 20
114.727191976809
 30
0.0
 11
222.6451127723912
 21
121.727191976809
 31
0.0
  0
LINE
  5
E7A
330
1F
100
AcDbEntity
  8
10
100
AcDbLine
 10
225.845112772391
 20
114.727191976809
 30
0.0
 11
225.845112772391
 21
121.727191976809
 31
0.0
  0
ARC
  5
E7B
330
1F
100
AcDbEntity
  8
10
100
AcDbCircle
 10
224.4321820923796
 20
121.2590669768078
 30
0.0
 40
1.787069319990415
100
AcDbArc
 50
154.4384694047476
 51
214.4384694047158
  0
ARC
  5
E7C
330
1F
100
AcDbEntity
  8
10
100
AcDbCircle
 10
229.3235712707764
 20
118.2271919768099
 30
0.0
 40
6.678458498386547
100
AcDbArc
 50
162.3830311595616
 51
197.6169688404383
  0
ARC
  5
E7D
330
1F
100
AcDbEntity
  8
10
100
AcDbCircle
 10
219.166654274004
 20
118.2271919768099
 30
0.0
 40
6.678458498386565
100
AcDbArc
 50
342.3830311595616
 51
17.61696884043842
  0
ARC
  5
E7E
330
1F
100
AcDbEntity
  8
10
100
AcDbCircle
 10
224.0580434524026
 20
121.2590669768069
 30
0.0
 40
1.787069319986959
100
AcDbArc
 50
325.5615305952118
 51
25.56153059564856
  0
LINE
  5
E7F
330
1F
100
AcDbEntity
  8
10
100
AcDbLine
 10
222.9583252934253
 20
122.2696919768095
 30
0.0
 11
222.6451127723912
 21
121.727191976809
 31
0.0
  0
LINE
  5
E80
330
1F
100
AcDbEntity
  8
10
100
AcDbLine
 10
225.531900251356
 20
116.2059419768093
 30
0.0
 11
222.9583252934253
 21
116.2059419768093
 31
0.0
  0
LINE
  5
E81
330
1F
100
AcDbEntity
  8
10
100
AcDbLine
 10
225.531900251356
 20
122.2696919768095
 30
0.0
 11
225.845112772391
 21
121.727191976809
 31
0.0
  0
LINE
  5
E82
330
1F
100
AcDbEntity
  8
10
100
AcDbLine
 10
225.531900251356
 20
122.2696919768095
 30
0.0
 11
222.9583252934253
 21
122.2696919768095
 31
0.0
  0
LINE
  5
E83
330
1F
100
AcDbEntity
  8
10
100
AcDbLine
 10
225.531900251356
 20
120.2484419768088
 30
0.0
 11
222.9583252934253
 21
120.2484419768088
 31
0.0
  0
LINE
  5
E84
330
1F
100
AcDbEntity
  8
10
100
AcDbLine
 10
222.9583252934253
 20
114.1846919768095
 30
0.0
 11
222.6451127723912
 21
114.727191976809
 31
0.0
  0
LINE
  5
E85
330
1F
100
AcDbEntity
  8
10
100
AcDbLine
 10
225.531900251356
 20
114.1846919768095
 30
0.0
 11
225.845112772391
 21
114.727191976809
 31
0.0
  0
LINE
  5
E86
330
1F
100
AcDbEntity
  8
10
100
AcDbLine
 10
225.531900251356
 20
114.1846919768095
 30
0.0
 11
222.9583252934253
 21
114.1846919768095
 31
0.0
  0
LINE
  5
E87
330
1F
100
AcDbEntity
  8
10
100
AcDbLine
 10
226.6451127723894
 20
113.727191976809
 30
0.0
 11
226.6451127723894
 21
122.7271919768099
 31
0.0
  0
LINE
  5
E88
330
1F
100
AcDbEntity
  8
10
100
AcDbLine
 10
225.845112772391
 20
122.7271919768099
 30
0.0
 11
225.845112772391
 21
121.727191976809
 31
0.0
  0
LINE
  5
E89
330
1F
100
AcDbEntity
  8
10
100
AcDbLine
 10
225.845112772391
 20
114.727191976809
 30
0.0
 11
225.845112772391
 21
113.727191976809
 31
0.0
  0
LINE
  5
E8A
330
1F
100
AcDbEntity
  8
10
100
AcDbLine
 10
226.6451127723894
 20
122.7271919768099
 30
0.0
 11
225.845112772391
 21
122.7271919768099
 31
0.0
  0
LINE
  5
E8B
330
1F
100
AcDbEntity
  8
10
100
AcDbLine
 10
225.845112772391
 20
113.727191976809
 30
0.0
 11
226.6451127723894
 21
113.727191976809
 31
0.0
  0
LINE
  5
E8C
330
1F
100
AcDbEntity
  8
10
100
AcDbLine
 10
228.6451127723894
 20
112.227191976809
 30
0.0
 11
226.6451127723894
 21
112.227191976809
 31
0.0
  0
LINE
  5
E8D
330
1F
100
AcDbEntity
  8
10
100
AcDbLine
 10
226.6451127723894
 20
112.227191976809
 30
0.0
 11
226.6451127723894
 21
124.227191976809
 31
0.0
  0
LINE
  5
E8E
330
1F
100
AcDbEntity
  8
10
100
AcDbLine
 10
226.6451127723894
 20
124.227191976809
 30
0.0
 11
228.6451127723894
 21
124.227191976809
 31
0.0
  0
LINE
  5
E8F
330
1F
100
AcDbEntity
  8
10
100
AcDbLine
 10
287.8040502845187
 20
114.3198370045029
 30
0.0
 11
286.7451127723906
 21
114.227191976809
 31
0.0
  0
LINE
  5
E90
330
1F
100
AcDbEntity
  8
10
100
AcDbLine
 10
287.8040502845187
 20
122.1345469491143
 30
0.0
 11
286.7451127723906
 21
122.227191976809
 31
0.0
  0
ARC
  5
E91
330
1F
100
AcDbEntity
  8
10
100
AcDbCircle
 10
283.345112772392
 20
118.2271919768099
 30
0.0
 40
6.5
100
AcDbArc
 50
331.8272658681199
 51
28.17273413188009
  0
ARC
  5
E92
330
1F
100
AcDbEntity
  8
10
100
AcDbCircle
 10
287.6646010961212
 20
120.5406354321703
 30
0.0
 40
1.6
100
AcDbArc
 50
28.17273413188009
 51
84.99999999997568
  0
ARC
  5
E93
330
1F
100
AcDbEntity
  8
10
100
AcDbCircle
 10
287.6646010961212
 20
115.9137485214487
 30
0.0
 40
1.6
100
AcDbArc
 50
275.0000000000243
 51
331.8272658681199
  0
LINE
  5
E94
330
1F
100
AcDbEntity
  8
10
100
AcDbLine
 10
286.7451127723906
 20
116.4419419768091
 30
0.0
 11
286.7451127723906
 21
114.227191976809
 31
0.0
  0
LINE
  5
E95
330
1F
100
AcDbEntity
  8
10
100
AcDbLine
 10
286.7451127723906
 20
122.227191976809
 30
0.0
 11
286.7451127723906
 21
120.0124419768089
 31
0.0
  0
LINE
  5
E96
330
1F
100
AcDbEntity
  8
10
100
AcDbLine
 10
286.7451127723906
 20
120.0124419768089
 30
0.0
 11
286.7451127723906
 21
116.4419419768091
 31
0.0
  0
LINE
  5
E97
330
1F
100
AcDbEntity
  8
10
100
AcDbLine
 10
285.9451127723896
 20
122.7271919768099
 30
0.0
 11
285.9451127723896
 21
113.727191976809
 31
0.0
  0
LINE
  5
E98
330
1F
100
AcDbEntity
  8
10
100
AcDbLine
 10
286.7451127723906
 20
113.727191976809
 30
0.0
 11
286.7451127723906
 21
122.7271919768099
 31
0.0
  0
LINE
  5
E99
330
1F
100
AcDbEntity
  8
10
100
AcDbLine
 10
285.9451127723896
 20
113.727191976809
 30
0.0
 11
286.7451127723906
 21
113.727191976809
 31
0.0
  0
LINE
  5
E9A
330
1F
100
AcDbEntity
  8
10
100
AcDbLine
 10
286.7451127723906
 20
122.7271919768099
 30
0.0
 11
285.9451127723896
 21
122.7271919768099
 31
0.0
  0
LINE
  5
E9B
330
1F
100
AcDbEntity
  8
10
100
AcDbLine
 10
286.7451127723906
 20
57.76719197680904
 30
0.0
 11
285.9451127723896
 21
57.76719197680904
 31
0.0
  0
LINE
  5
E9C
330
1F
100
AcDbEntity
  8
10
100
AcDbLine
 10
285.9451127723896
 20
48.76719197680905
 30
0.0
 11
286.7451127723906
 21
48.76719197680905
 31
0.0
  0
LINE
  5
E9D
330
1F
100
AcDbEntity
  8
10
100
AcDbLine
 10
286.7451127723906
 20
48.76719197680905
 30
0.0
 11
286.7451127723906
 21
57.76719197680904
 31
0.0
  0
LINE
  5
E9E
330
1F
100
AcDbEntity
  8
10
100
AcDbLine
 10
285.9451127723896
 20
57.76719197680904
 30
0.0
 11
285.9451127723896
 21
48.76719197680905
 31
0.0
  0
LINE
  5
E9F
330
1F
100
AcDbEntity
  8
10
100
AcDbLine
 10
286.7451127723906
 20
55.05244197680895
 30
0.0
 11
286.7451127723906
 21
51.48194197680914
 31
0.0
  0
LINE
  5
EA0
330
1F
100
AcDbEntity
  8
10
100
AcDbLine
 10
286.7451127723906
 20
57.26719197680904
 30
0.0
 11
286.7451127723906
 21
55.05244197680895
 31
0.0
  0
LINE
  5
EA1
330
1F
100
AcDbEntity
  8
10
100
AcDbLine
 10
286.7451127723906
 20
51.48194197680914
 30
0.0
 11
286.7451127723906
 21
49.26719197680904
 31
0.0
  0
ARC
  5
EA2
330
1F
100
AcDbEntity
  8
10
100
AcDbCircle
 10
287.6646010961212
 20
50.95374852144868
 30
0.0
 40
1.6
100
AcDbArc
 50
275.0000000000243
 51
331.8272658681199
  0
ARC
  5
EA3
330
1F
100
AcDbEntity
  8
10
100
AcDbCircle
 10
287.6646010961212
 20
55.58063543217031
 30
0.0
 40
1.6
100
AcDbArc
 50
28.17273413188009
 51
84.99999999997568
  0
ARC
  5
EA4
330
1F
100
AcDbEntity
  8
10
100
AcDbCircle
 10
283.345112772392
 20
53.26719197680905
 30
0.0
 40
6.5
100
AcDbArc
 50
331.8272658681199
 51
28.17273413188009
  0
LINE
  5
EA5
330
1F
100
AcDbEntity
  8
10
100
AcDbLine
 10
287.8040502845187
 20
57.1745469491143
 30
0.0
 11
286.7451127723906
 21
57.26719197680904
 31
0.0
  0
LINE
  5
EA6
330
1F
100
AcDbEntity
  8
10
100
AcDbLine
 10
287.8040502845187
 20
49.35983700450288
 30
0.0
 11
286.7451127723906
 21
49.26719197680904
 31
0.0
  0
LINE
  5
EA7
330
1F
100
AcDbEntity
  8
10
100
AcDbLine
 10
228.9451127723896
 20
59.26719197680904
 30
0.0
 11
230.9451127723896
 21
59.26719197680904
 31
0.0
  0
LINE
  5
EA8
330
1F
100
AcDbEntity
  8
10
100
AcDbLine
 10
228.9451127723896
 20
47.26719197680904
 30
0.0
 11
228.9451127723896
 21
59.26719197680904
 31
0.0
  0
LINE
  5
EA9
330
1F
100
AcDbEntity
  8
10
100
AcDbLine
 10
230.9451127723896
 20
47.26719197680904
 30
0.0
 11
228.9451127723896
 21
47.26719197680904
 31
0.0
  0
LINE
  5
EAA
330
1F
100
AcDbEntity
  8
10
100
AcDbLine
 10
228.1451127723912
 20
48.76719197680905
 30
0.0
 11
228.9451127723896
 21
48.76719197680905
 31
0.0
  0
LINE
  5
EAB
330
1F
100
AcDbEntity
  8
10
100
AcDbLine
 10
228.9451127723896
 20
57.76719197680904
 30
0.0
 11
228.1451127723912
 21
57.76719197680904
 31
0.0
  0
LINE
  5
EAC
330
1F
100
AcDbEntity
  8
10
100
AcDbLine
 10
228.1451127723912
 20
49.76719197680904
 30
0.0
 11
228.1451127723912
 21
48.76719197680905
 31
0.0
  0
LINE
  5
EAD
330
1F
100
AcDbEntity
  8
10
100
AcDbLine
 10
228.1451127723912
 20
57.76719197680904
 30
0.0
 11
228.1451127723912
 21
56.76719197680904
 31
0.0
  0
LINE
  5
EAE
330
1F
100
AcDbEntity
  8
10
100
AcDbLine
 10
228.9451127723896
 20
48.76719197680905
 30
0.0
 11
228.9451127723896
 21
57.76719197680904
 31
0.0
  0
LINE
  5
EAF
330
1F
100
AcDbEntity
  8
10
100
AcDbLine
 10
227.8319002513562
 20
49.22469197680948
 30
0.0
 11
225.2583252934255
 21
49.22469197680948
 31
0.0
  0
LINE
  5
EB0
330
1F
100
AcDbEntity
  8
10
100
AcDbLine
 10
227.8319002513562
 20
49.22469197680948
 30
0.0
 11
228.1451127723912
 21
49.76719197680904
 31
0.0
  0
LINE
  5
EB1
330
1F
100
AcDbEntity
  8
10
100
AcDbLine
 10
225.2583252934255
 20
49.22469197680948
 30
0.0
 11
224.9451127723896
 21
49.76719197680904
 31
0.0
  0
LINE
  5
EB2
330
1F
100
AcDbEntity
  8
10
100
AcDbLine
 10
227.8319002513562
 20
55.28844197680882
 30
0.0
 11
225.2583252934255
 21
55.28844197680882
 31
0.0
  0
LINE
  5
EB3
330
1F
100
AcDbEntity
  8
10
100
AcDbLine
 10
227.8319002513562
 20
57.30969197680952
 30
0.0
 11
225.2583252934255
 21
57.30969197680952
 31
0.0
  0
LINE
  5
EB4
330
1F
100
AcDbEntity
  8
10
100
AcDbLine
 10
227.8319002513562
 20
57.30969197680952
 30
0.0
 11
228.1451127723912
 21
56.76719197680904
 31
0.0
  0
LINE
  5
EB5
330
1F
100
AcDbEntity
  8
10
100
AcDbLine
 10
227.8319002513562
 20
51.24594197680926
 30
0.0
 11
225.2583252934255
 21
51.24594197680926
 31
0.0
  0
LINE
  5
EB6
330
1F
100
AcDbEntity
  8
10
100
AcDbLine
 10
225.2583252934255
 20
57.30969197680952
 30
0.0
 11
224.9451127723896
 21
56.76719197680904
 31
0.0
  0
ARC
  5
EB7
330
1F
100
AcDbEntity
  8
10
100
AcDbCircle
 10
226.3580434524037
 20
56.2990669768078
 30
0.0
 40
1.787069319986959
100
AcDbArc
 50
325.5615305952118
 51
25.56153059564856
  0
ARC
  5
EB8
330
1F
100
AcDbEntity
  8
10
100
AcDbCircle
 10
221.4666542740051
 20
53.26719197680905
 30
0.0
 40
6.678458498386565
100
AcDbArc
 50
342.3830311595616
 51
17.61696884043842
  0
ARC
  5
EB9
330
1F
100
AcDbEntity
  8
10
100
AcDbCircle
 10
231.6235712707766
 20
53.26719197680905
 30
0.0
 40
6.678458498386547
100
AcDbArc
 50
162.3830311595616
 51
197.6169688404383
  0
ARC
  5
EBA
330
1F
100
AcDbEntity
  8
10
100
AcDbCircle
 10
226.7321820923807
 20
56.2990669768078
 30
0.0
 40
1.787069319990415
100
AcDbArc
 50
154.4384694047476
 51
214.4384694047158
  0
LINE
  5
EBB
330
1F
100
AcDbEntity
  8
10
100
AcDbLine
 10
228.1451127723912
 20
49.76719197680904
 30
0.0
 11
228.1451127723912
 21
56.76719197680904
 31
0.0
  0
LINE
  5
EBC
330
1F
100
AcDbEntity
  8
10
100
AcDbLine
 10
224.9451127723896
 20
49.76719197680904
 30
0.0
 11
224.9451127723896
 21
56.76719197680904
 31
0.0
  0
ARC
  5
EBD
330
1F
100
AcDbEntity
  8
10
100
AcDbCircle
 10
226.3580434524037
 20
50.23531697680937
 30
0.0
 40
1.787069319986959
100
AcDbArc
 50
334.4384694045375
 51
34.43846940478816
  0
ARC
  5
EBE
330
1F
100
AcDbEntity
  8
10
100
AcDbCircle
 10
226.7321820923771
 20
50.23531697680937
 30
0.0
 40
1.787069319986959
100
AcDbArc
 50
145.5615305952118
 51
205.5615305954624
  0
LINE
  5
EBF
330
1F
100
AcDbEntity
  8
10
100
AcDbLine
 10
221.7451127723898
 20
51.69660697680956
 30
0.0
 11
221.7451127723898
 21
54.83777697680944
 31
0.0
  0
LINE
  5
EC0
330
1F
100
AcDbEntity
  8
10
100
AcDbLine
 10
222.1745277723893
 20
51.26719197680905
 30
0.0
 11
222.1745277723893
 21
55.26719197680904
 31
0.0
  0
LINE
  5
EC1
330
1F
100
AcDbEntity
  8
10
100
AcDbLine
 10
222.1745277723893
 20
55.26719197680904
 30
0.0
 11
221.7451127723898
 21
54.83777697680944
 31
0.0
  0
LINE
  5
EC2
330
1F
100
AcDbEntity
  8
10
100
AcDbLine
 10
222.1745277723893
 20
51.26719197680905
 30
0.0
 11
221.7451127723898
 21
51.69660697680956
 31
0.0
  0
LINE
  5
EC3
330
1F
100
AcDbEntity
  8
10
100
AcDbLine
 10
224.9451127723896
 20
55.26719197680904
 30
0.0
 11
222.1745277723893
 21
55.26719197680904
 31
0.0
  0
LINE
  5
EC4
330
1F
100
AcDbEntity
  8
10
100
AcDbLine
 10
224.9451127723896
 20
51.26719197680905
 30
0.0
 11
222.1745277723893
 21
51.26719197680905
 31
0.0
  0
LINE
  5
EC5
330
1F
100
AcDbEntity
  8
10
100
AcDbLine
 10
120.3318592688765
 20
149.5271919768092
 30
0.0
 11
120.3318592688765
 21
150.5271919768092
 31
0.0
1001
GENIUS_GENOREF_13
1005
0
1005
0
1005
0
  0
LINE
  5
EC6
330
1F
100
AcDbEntity
  8
10
100
AcDbLine
 10
115.9678890346103
 20
150.5271919768092
 30
0.0
 11
112.7318592688761
 21
150.5271919768092
 31
0.0
1001
GENIUS_GENOREF_13
1005
0
1005
0
1005
0
  0
LINE
  5
EC7
330
1F
100
AcDbEntity
  8
10
100
AcDbLine
 10
116.7318592688761
 20
149.5271919768092
 30
0.0
 11
116.36788903461
 21
150.5271919768092
 31
0.0
1001
GENIUS_GENOREF_13
1005
0
1005
0
1005
0
  0
LINE
  5
EC8
330
1F
100
AcDbEntity
  8
10
100
AcDbLine
 10
116.3318592688765
 20
149.5271919768092
 30
0.0
 11
115.9678890346103
 21
150.5271919768092
 31
0.0
1001
GENIUS_GENOREF_13
1005
0
1005
0
1005
0
  0
LINE
  5
EC9
330
1F
100
AcDbEntity
  8
10
100
AcDbLine
 10
112.7318592688761
 20
150.5271919768092
 30
0.0
 11
112.7318592688761
 21
149.5271919768092
 31
0.0
1001
GENIUS_GENOREF_13
1005
0
1005
0
1005
0
  0
LINE
  5
ECA
330
1F
100
AcDbEntity
  8
10
100
AcDbLine
 10
120.3318592688765
 20
150.5271919768092
 30
0.0
 11
116.36788903461
 21
150.5271919768092
 31
0.0
1001
GENIUS_GENOREF_13
1005
0
1005
0
1005
0
  0
LINE
  5
ECB
330
1F
100
AcDbEntity
  8
10
100
AcDbLine
 10
121.0318592688763
 20
148.7271919768099
 30
0.0
 11
121.0318592688763
 21
149.5271919768092
 31
0.0
1001
GENIUS_GENOREF_13
1005
0
1005
0
  0
LINE
  5
ECC
330
1F
100
AcDbEntity
  8
10
100
AcDbLine
 10
112.0318592688763
 20
149.5271919768092
 30
0.0
 11
112.0318592688763
 21
148.7271919768099
 31
0.0
1001
GENIUS_GENOREF_13
1005
0
1005
0
  0
LINE
  5
ECD
330
1F
100
AcDbEntity
  8
10
100
AcDbLine
 10
112.0318592688763
 20
148.7271919768099
 30
0.0
 11
121.0318592688763
 21
148.7271919768099
 31
0.0
1001
GENIUS_GENOREF_13
1005
0
1005
0
  0
LINE
  5
ECE
330
1F
100
AcDbEntity
  8
10
100
AcDbLine
 10
121.0318592688763
 20
149.5271919768092
 30
0.0
 11
112.0318592688763
 21
149.5271919768092
 31
0.0
1001
GENIUS_GENOREF_13
1005
0
1005
0
  0
LINE
  5
ECF
330
1F
100
AcDbEntity
  8
10
100
AcDbLine
 10
115.9678890346103
 20
150.5271919768092
 30
0.0
 11
116.36788903461
 21
150.5271919768092
 31
0.0
1001
GENIUS_GENOREF_13
1005
0
1005
0
1005
0
1005
0
1005
0
  0
LINE
  5
ED0
330
1F
100
AcDbEntity
  8
10
100
AcDbLine
 10
112.5318592688763
 20
150.5271919768092
 30
0.0
 11
112.7318592688761
 21
150.5271919768092
 31
0.0
1001
GENIUS_GENOREF_13
1005
0
1005
0
1005
0
1005
0
1005
0
  0
LINE
  5
ED1
330
1F
100
AcDbEntity
  8
10
100
AcDbLine
 10
120.3318592688765
 20
150.5271919768092
 30
0.0
 11
120.5318592688763
 21
150.5271919768092
 31
0.0
1001
GENIUS_GENOREF_13
1005
0
1005
0
1005
0
1005
0
1005
0
  0
ARC
  5
ED2
330
1F
100
AcDbEntity
  8
10
100
AcDbCircle
 10
118.8453027242358
 20
151.4466803005397
 30
0.0
 40
1.6
100
AcDbArc
 50
4.999999999972428
 51
61.82726586811955
1001
GENIUS_GENOREF_13
1005
0
1005
0
1005
0
1005
0
1005
0
  0
ARC
  5
ED3
330
1F
100
AcDbEntity
  8
10
100
AcDbCircle
 10
114.2184158135169
 20
151.4466803005397
 30
0.0
 40
1.6
100
AcDbArc
 50
118.1727341318804
 51
175.0000000000275
1001
GENIUS_GENOREF_13
1005
0
1005
0
1005
0
1005
0
1005
0
  0
ARC
  5
ED4
330
1F
100
AcDbEntity
  8
10
100
AcDbCircle
 10
116.5318592688763
 20
147.1271919768096
 30
0.0
 40
6.5
100
AcDbArc
 50
61.82726586811955
 51
118.1727341318804
1001
GENIUS_GENOREF_13
1005
0
1005
0
1005
0
1005
0
1005
0
  0
LINE
  5
ED5
330
1F
100
AcDbEntity
  8
10
100
AcDbLine
 10
112.6245042965702
 20
151.5861294889355
 30
0.0
 11
112.5318592688763
 21
150.5271919768092
 31
0.0
1001
GENIUS_GENOREF_13
1005
0
1005
0
1005
0
1005
0
1005
0
  0
LINE
  5
ED6
330
1F
100
AcDbEntity
  8
10
100
AcDbLine
 10
120.4392142411834
 20
151.5861294889355
 30
0.0
 11
120.5318592688763
 21
150.5271919768092
 31
0.0
1001
GENIUS_GENOREF_13
1005
0
1005
0
1005
0
1005
0
1005
0
  0
LINE
  5
ED7
330
1F
100
AcDbEntity
  8
10
100
AcDbLine
 10
76.08185926887563
 20
149.5271919768092
 30
0.0
 11
76.08185926887563
 21
150.5271919768092
 31
0.0
1001
GENIUS_GENOREF_13
1005
0
1005
0
1005
0
  0
LINE
  5
ED8
330
1F
100
AcDbEntity
  8
10
100
AcDbLine
 10
71.71788903461038
 20
150.5271919768092
 30
0.0
 11
68.48185926887618
 21
150.5271919768092
 31
0.0
1001
GENIUS_GENOREF_13
1005
0
1005
0
1005
0
  0
LINE
  5
ED9
330
1F
100
AcDbEntity
  8
10
100
AcDbLine
 10
72.48185926887709
 20
149.5271919768092
 30
0.0
 11
72.1178890346091
 21
150.5271919768092
 31
0.0
1001
GENIUS_GENOREF_13
1005
0
1005
0
1005
0
  0
LINE
  5
EDA
330
1F
100
AcDbEntity
  8
10
100
AcDbLine
 10
72.08185926887654
 20
149.5271919768092
 30
0.0
 11
71.71788903461038
 21
150.5271919768092
 31
0.0
1001
GENIUS_GENOREF_13
1005
0
1005
0
1005
0
  0
LINE
  5
EDB
330
1F
100
AcDbEntity
  8
10
100
AcDbLine
 10
68.48185926887618
 20
150.5271919768092
 30
0.0
 11
68.48185926887618
 21
149.5271919768092
 31
0.0
1001
GENIUS_GENOREF_13
1005
0
1005
0
1005
0
  0
LINE
  5
EDC
330
1F
100
AcDbEntity
  8
10
100
AcDbLine
 10
76.08185926887563
 20
150.5271919768092
 30
0.0
 11
72.1178890346091
 21
150.5271919768092
 31
0.0
1001
GENIUS_GENOREF_13
1005
0
1005
0
1005
0
  0
LINE
  5
EDD
330
1F
100
AcDbEntity
  8
10
100
AcDbLine
 10
76.78185926887636
 20
148.7271919768099
 30
0.0
 11
76.78185926887636
 21
149.5271919768092
 31
0.0
1001
GENIUS_GENOREF_13
1005
0
1005
0
  0
LINE
  5
EDE
330
1F
100
AcDbEntity
  8
10
100
AcDbLine
 10
67.78185926887636
 20
149.5271919768092
 30
0.0
 11
67.78185926887636
 21
148.7271919768099
 31
0.0
1001
GENIUS_GENOREF_13
1005
0
1005
0
  0
LINE
  5
EDF
330
1F
100
AcDbEntity
  8
10
100
AcDbLine
 10
67.78185926887636
 20
148.7271919768099
 30
0.0
 11
76.78185926887636
 21
148.7271919768099
 31
0.0
1001
GENIUS_GENOREF_13
1005
0
1005
0
  0
LINE
  5
EE0
330
1F
100
AcDbEntity
  8
10
100
AcDbLine
 10
76.78185926887636
 20
149.5271919768092
 30
0.0
 11
67.78185926887636
 21
149.5271919768092
 31
0.0
1001
GENIUS_GENOREF_13
1005
0
1005
0
  0
LINE
  5
EE1
330
1F
100
AcDbEntity
  8
10
100
AcDbLine
 10
71.71788903461038
 20
150.5271919768092
 30
0.0
 11
72.1178890346091
 21
150.5271919768092
 31
0.0
1001
GENIUS_GENOREF_13
1005
0
1005
0
1005
0
1005
0
1005
0
  0
LINE
  5
EE2
330
1F
100
AcDbEntity
  8
10
100
AcDbLine
 10
68.28185926887636
 20
150.5271919768092
 30
0.0
 11
68.48185926887618
 21
150.5271919768092
 31
0.0
1001
GENIUS_GENOREF_13
1005
0
1005
0
1005
0
1005
0
1005
0
  0
LINE
  5
EE3
330
1F
100
AcDbEntity
  8
10
100
AcDbLine
 10
76.08185926887563
 20
150.5271919768092
 30
0.0
 11
76.28185926887636
 21
150.5271919768092
 31
0.0
1001
GENIUS_GENOREF_13
1005
0
1005
0
1005
0
1005
0
1005
0
  0
ARC
  5
EE4
330
1F
100
AcDbEntity
  8
10
100
AcDbCircle
 10
74.59530272423581
 20
151.4466803005397
 30
0.0
 40
1.6
100
AcDbArc
 50
4.999999999972428
 51
61.82726586811955
1001
GENIUS_GENOREF_13
1005
0
1005
0
1005
0
1005
0
1005
0
  0
ARC
  5
EE5
330
1F
100
AcDbEntity
  8
10
100
AcDbCircle
 10
69.96841581351782
 20
151.4466803005397
 30
0.0
 40
1.6
100
AcDbArc
 50
118.1727341318804
 51
175.0000000000275
1001
GENIUS_GENOREF_13
1005
0
1005
0
1005
0
1005
0
1005
0
  0
ARC
  5
EE6
330
1F
100
AcDbEntity
  8
10
100
AcDbCircle
 10
72.28185926887636
 20
147.1271919768096
 30
0.0
 40
6.5
100
AcDbArc
 50
61.82726586811955
 51
118.1727341318804
1001
GENIUS_GENOREF_13
1005
0
1005
0
1005
0
1005
0
1005
0
  0
LINE
  5
EE7
330
1F
100
AcDbEntity
  8
10
100
AcDbLine
 10
68.3745042965711
 20
151.5861294889355
 30
0.0
 11
68.28185926887636
 21
150.5271919768092
 31
0.0
1001
GENIUS_GENOREF_13
1005
0
1005
0
1005
0
1005
0
1005
0
  0
LINE
  5
EE8
330
1F
100
AcDbEntity
  8
10
100
AcDbLine
 10
76.18921424118344
 20
151.5861294889355
 30
0.0
 11
76.28185926887636
 21
150.5271919768092
 31
0.0
1001
GENIUS_GENOREF_13
1005
0
1005
0
1005
0
1005
0
1005
0
  0
LINE
  5
EE9
330
1F
100
AcDbEntity
  8
10
100
AcDbLine
 10
231.1451127723894
 20
148.7271919768099
 30
0.0
 11
240.1451127723894
 21
148.7271919768099
 31
0.0
1001
GENIUS_GENOREF_13
1005
0
1005
0
  0
LINE
  5
EEA
330
1F
100
AcDbEntity
  8
10
100
AcDbLine
 10
237.2156977723898
 20
136.5271919768101
 30
0.0
 11
234.0745277723899
 21
136.5271919768101
 31
0.0
1001
GENIUS_GENOREF_13
1005
0
1005
0
1005
0
1005
0
1005
0
  0
LINE
  5
EEB
330
1F
100
AcDbEntity
  8
10
100
AcDbLine
 10
237.6451127723912
 20
136.9566069768088
 30
0.0
 11
233.6451127723912
 21
136.9566069768088
 31
0.0
1001
GENIUS_GENOREF_13
1005
0
1005
0
1005
0
1005
0
1005
0
  0
LINE
  5
EEC
330
1F
100
AcDbEntity
  8
10
100
AcDbLine
 10
233.6451127723912
 20
138.4271919768089
 30
0.0
 11
233.6451127723912
 21
136.9566069768088
 31
0.0
1001
GENIUS_GENOREF_13
1005
0
1005
0
1005
0
1005
0
1005
0
  0
LINE
  5
EED
330
1F
100
AcDbEntity
  8
10
100
AcDbLine
 10
237.6451127723912
 20
138.4271919768089
 30
0.0
 11
237.6451127723912
 21
136.9566069768088
 31
0.0
1001
GENIUS_GENOREF_13
1005
0
1005
0
1005
0
1005
0
1005
0
  0
LINE
  5
EEE
330
1F
100
AcDbEntity
  8
10
100
AcDbLine
 10
233.6451127723912
 20
136.9566069768088
 30
0.0
 11
234.0745277723899
 21
136.5271919768101
 31
0.0
1001
GENIUS_GENOREF_13
1005
0
1005
0
1005
0
1005
0
1005
0
  0
LINE
  5
EEF
330
1F
100
AcDbEntity
  8
10
100
AcDbLine
 10
237.6451127723912
 20
136.9566069768088
 30
0.0
 11
237.2156977723898
 21
136.5271919768101
 31
0.0
1001
GENIUS_GENOREF_13
1005
0
1005
0
1005
0
1005
0
1005
0
  0
LINE
  5
EF4
330
1F
100
AcDbEntity
  8
10
100
AcDbLine
 10
110.4068592688763
 20
62.72719197680908
 30
0.0
 11
126.4068592688763
 21
62.72719197680908
 31
0.0
1001
GENIUS_GENREC_14
1002
{
1000
PYDIR
1011
110.4068592688763
1021
62.22719197680908
1031
0.0
1002
}
1002
{
1000
PXDIR
1011
126.4068592688763
1021
62.72719197680908
1031
0.0
1002
}
1002
{
1000
PORI
1011
110.4068592688763
1021
62.72719197680908
1031
0.0
1002
}
1002
{
1000
PINS
1011
110.4068592688763
1021
62.72719197680908
1031
0.0
1002
}
1002
{
1000
PINS2
1011
126.4068592688763
1021
62.22719197680908
1031
0.0
1002
}
1002
{
1000
C
1070
     1
1002
}
1001
GENIUS_GENODEF_13
1002
{
1000
HIER
1070
     0
1002
}
1002
{
1000
MANEDIT
1070
     0
1002
}
1002
{
1000
NOSEL
1070
     0
1002
}
1002
{
1000
BEHIND
1070
     0
1002
}
1002
{
1000
OTHER
1070
     0
1002
}
1002
{
1000
REACTOR
1002
}
1001
GENIUS_GENOBJ-N-REC_13
1002
{
1000
OWNER
1000
GEN
1002
}
  0
LINE
  5
EF5
330
1F
100
AcDbEntity
  8
10
100
AcDbLine
 10
126.4068592688763
 20
62.72719197680908
 30
0.0
 11
126.4068592688763
 21
62.22719197680908
 31
0.0
1001
GENIUS_GENREC_14
1002
{
1000
PYDIR
1011
110.4068592688763
1021
62.22719197680908
1031
0.0
1002
}
1002
{
1000
PXDIR
1011
126.4068592688763
1021
62.72719197680908
1031
0.0
1002
}
1002
{
1000
PORI
1011
110.4068592688763
1021
62.72719197680908
1031
0.0
1002
}
1002
{
1000
PINS
1011
110.4068592688763
1021
62.72719197680908
1031
0.0
1002
}
1002
{
1000
PINS2
1011
126.4068592688763
1021
62.22719197680908
1031
0.0
1002
}
1002
{
1000
C
1070
     1
1002
}
1001
GENIUS_GENODEF_13
1002
{
1000
HIER
1070
     0
1002
}
1002
{
1000
MANEDIT
1070
     0
1002
}
1002
{
1000
NOSEL
1070
     0
1002
}
1002
{
1000
BEHIND
1070
     0
1002
}
1002
{
1000
OTHER
1070
     0
1002
}
1002
{
1000
REACTOR
1002
}
1001
GENIUS_GENOBJ-N-REC_13
1002
{
1000
OWNER
1000
GEN
1002
}
  0
LINE
  5
EF6
330
1F
100
AcDbEntity
  8
10
100
AcDbLine
 10
126.4068592688763
 20
62.22719197680908
 30
0.0
 11
110.4068592688763
 21
62.22719197680908
 31
0.0
1001
GENIUS_GENREC_14
1002
{
1000
PYDIR
1011
110.4068592688763
1021
62.22719197680908
1031
0.0
1002
}
1002
{
1000
PXDIR
1011
126.4068592688763
1021
62.72719197680908
1031
0.0
1002
}
1002
{
1000
PORI
1011
110.4068592688763
1021
62.72719197680908
1031
0.0
1002
}
1002
{
1000
PINS
1011
110.4068592688763
1021
62.72719197680908
1031
0.0
1002
}
1002
{
1000
PINS2
1011
126.4068592688763
1021
62.22719197680908
1031
0.0
1002
}
1002
{
1000
C
1070
     1
1002
}
1001
GENIUS_GENODEF_13
1002
{
1000
HIER
1070
     0
1002
}
1002
{
1000
MANEDIT
1070
     0
1002
}
1002
{
1000
NOSEL
1070
     0
1002
}
1002
{
1000
BEHIND
1070
     0
1002
}
1002
{
1000
OTHER
1070
     0
1002
}
1002
{
1000
REACTOR
1002
}
1001
GENIUS_GENOBJ-N-REC_13
1002
{
1000
OWNER
1000
GEN
1002
}
  0
LINE
  5
EF7
330
1F
100
AcDbEntity
  8
10
100
AcDbLine
 10
110.4068592688763
 20
62.22719197680908
 30
0.0
 11
110.4068592688763
 21
62.72719197680908
 31
0.0
1001
GENIUS_GENREC_14
1002
{
1000
PYDIR
1011
110.4068592688763
1021
62.22719197680908
1031
0.0
1002
}
1002
{
1000
PXDIR
1011
126.4068592688763
1021
62.72719197680908
1031
0.0
1002
}
1002
{
1000
PORI
1011
110.4068592688763
1021
62.72719197680908
1031
0.0
1002
}
1002
{
1000
PINS
1011
110.4068592688763
1021
62.72719197680908
1031
0.0
1002
}
1002
{
1000
PINS2
1011
126.4068592688763
1021
62.22719197680908
1031
0.0
1002
}
1002
{
1000
C
1070
     1
1002
}
1001
GENIUS_GENODEF_13
1002
{
1000
HIER
1070
     0
1002
}
1002
{
1000
MANEDIT
1070
     0
1002
}
1002
{
1000
NOSEL
1070
     0
1002
}
1002
{
1000
BEHIND
1070
     0
1002
}
1002
{
1000
OTHER
1070
     0
1002
}
1002
{
1000
REACTOR
1002
}
1001
GENIUS_GENOBJ-N-REC_13
1002
{
1000
OWNER
1000
GEN
1002
}
  0
LINE
  5
EF8
330
1F
100
AcDbEntity
  8
10
100
AcDbLine
 10
78.40685926887636
 20
62.72719197680908
 30
0.0
 11
62.40685926887636
 21
62.72719197680908
 31
0.0
1001
GENIUS_GENREC_14
1002
{
1000
PYDIR
1011
78.40685926887636
1021
62.22719197680908
1031
0.0
1002
}
1002
{
1000
PXDIR
1011
62.40685926887636
1021
62.72719197680908
1031
0.0
1002
}
1002
{
1000
PORI
1011
78.40685926887636
1021
62.72719197680908
1031
0.0
1002
}
1002
{
1000
PINS
1011
78.40685926887636
1021
62.72719197680908
1031
0.0
1002
}
1002
{
1000
PINS2
1011
62.40685926887636
1021
62.22719197680908
1031
0.0
1002
}
1002
{
1000
C
1070
     1
1002
}
1001
GENIUS_GENOBJ-N-REC_13
1002
{
1000
OWNER
1000
GEN
1002
}
1001
GENIUS_GENODEF_13
1002
{
1000
HIER
1070
     0
1002
}
1002
{
1000
MANEDIT
1070
     0
1002
}
1002
{
1000
NOSEL
1070
     0
1002
}
1002
{
1000
BEHIND
1070
     0
1002
}
1002
{
1000
OTHER
1070
     0
1002
}
1002
{
1000
REACTOR
1002
}
  0
LINE
  5
EF9
330
1F
100
AcDbEntity
  8
10
100
AcDbLine
 10
62.40685926887636
 20
62.72719197680908
 30
0.0
 11
62.40685926887636
 21
62.22719197680908
 31
0.0
1001
GENIUS_GENREC_14
1002
{
1000
PYDIR
1011
78.40685926887636
1021
62.22719197680908
1031
0.0
1002
}
1002
{
1000
PXDIR
1011
62.40685926887636
1021
62.72719197680908
1031
0.0
1002
}
1002
{
1000
PORI
1011
78.40685926887636
1021
62.72719197680908
1031
0.0
1002
}
1002
{
1000
PINS
1011
78.40685926887636
1021
62.72719197680908
1031
0.0
1002
}
1002
{
1000
PINS2
1011
62.40685926887636
1021
62.22719197680908
1031
0.0
1002
}
1002
{
1000
C
1070
     1
1002
}
1001
GENIUS_GENOBJ-N-REC_13
1002
{
1000
OWNER
1000
GEN
1002
}
1001
GENIUS_GENODEF_13
1002
{
1000
HIER
1070
     0
1002
}
1002
{
1000
MANEDIT
1070
     0
1002
}
1002
{
1000
NOSEL
1070
     0
1002
}
1002
{
1000
BEHIND
1070
     0
1002
}
1002
{
1000
OTHER
1070
     0
1002
}
1002
{
1000
REACTOR
1002
}
  0
LINE
  5
EFA
330
1F
100
AcDbEntity
  8
10
100
AcDbLine
 10
62.40685926887636
 20
62.22719197680908
 30
0.0
 11
78.40685926887636
 21
62.22719197680908
 31
0.0
1001
GENIUS_GENREC_14
1002
{
1000
PYDIR
1011
78.40685926887636
1021
62.22719197680908
1031
0.0
1002
}
1002
{
1000
PXDIR
1011
62.40685926887636
1021
62.72719197680908
1031
0.0
1002
}
1002
{
1000
PORI
1011
78.40685926887636
1021
62.72719197680908
1031
0.0
1002
}
1002
{
1000
PINS
1011
78.40685926887636
1021
62.72719197680908
1031
0.0
1002
}
1002
{
1000
PINS2
1011
62.40685926887636
1021
62.22719197680908
1031
0.0
1002
}
1002
{
1000
C
1070
     1
1002
}
1001
GENIUS_GENOBJ-N-REC_13
1002
{
1000
OWNER
1000
GEN
1002
}
1001
GENIUS_GENODEF_13
1002
{
1000
HIER
1070
     0
1002
}
1002
{
1000
MANEDIT
1070
     0
1002
}
1002
{
1000
NOSEL
1070
     0
1002
}
1002
{
1000
BEHIND
1070
     0
1002
}
1002
{
1000
OTHER
1070
     0
1002
}
1002
{
1000
REACTOR
1002
}
  0
LINE
  5
EFB
330
1F
100
AcDbEntity
  8
10
100
AcDbLine
 10
78.40685926887636
 20
62.22719197680908
 30
0.0
 11
78.40685926887636
 21
62.72719197680908
 31
0.0
1001
GENIUS_GENREC_14
1002
{
1000
PYDIR
1011
78.40685926887636
1021
62.22719197680908
1031
0.0
1002
}
1002
{
1000
PXDIR
1011
62.40685926887636
1021
62.72719197680908
1031
0.0
1002
}
1002
{
1000
PORI
1011
78.40685926887636
1021
62.72719197680908
1031
0.0
1002
}
1002
{
1000
PINS
1011
78.40685926887636
1021
62.72719197680908
1031
0.0
1002
}
1002
{
1000
PINS2
1011
62.40685926887636
1021
62.22719197680908
1031
0.0
1002
}
1002
{
1000
C
1070
     1
1002
}
1001
GENIUS_GENOBJ-N-REC_13
1002
{
1000
OWNER
1000
GEN
1002
}
1001
GENIUS_GENODEF_13
1002
{
1000
HIER
1070
     0
1002
}
1002
{
1000
MANEDIT
1070
     0
1002
}
1002
{
1000
NOSEL
1070
     0
1002
}
1002
{
1000
BEHIND
1070
     0
1002
}
1002
{
1000
OTHER
1070
     0
1002
}
1002
{
1000
REACTOR
1002
}
  0
LINE
  5
EFC
330
1F
100
AcDbEntity
  8
10
100
AcDbLine
 10
78.40685926887636
 20
109.727191976809
 30
0.0
 11
62.40685926887636
 21
109.727191976809
 31
0.0
1001
GENIUS_GENREC_14
1002
{
1000
PYDIR
1011
78.40685926887636
1021
110.2271919768099
1031
0.0
1002
}
1002
{
1000
PXDIR
1011
62.40685926887636
1021
109.727191976809
1031
0.0
1002
}
1002
{
1000
PORI
1011
78.40685926887636
1021
109.727191976809
1031
0.0
1002
}
1002
{
1000
PINS
1011
78.40685926887636
1021
109.727191976809
1031
0.0
1002
}
1002
{
1000
PINS2
1011
62.40685926887636
1021
110.2271919768099
1031
0.0
1002
}
1002
{
1000
C
1070
     1
1002
}
1001
GENIUS_GENOBJ-N-REC_13
1002
{
1000
OWNER
1000
GEN
1002
}
1001
GENIUS_GENODEF_13
1002
{
1000
HIER
1070
     0
1002
}
1002
{
1000
MANEDIT
1070
     0
1002
}
1002
{
1000
NOSEL
1070
     0
1002
}
1002
{
1000
BEHIND
1070
     0
1002
}
1002
{
1000
OTHER
1070
     0
1002
}
1002
{
1000
REACTOR
1002
}
  0
LINE
  5
EFD
330
1F
100
AcDbEntity
  8
10
100
AcDbLine
 10
62.40685926887636
 20
109.727191976809
 30
0.0
 11
62.40685926887636
 21
110.2271919768099
 31
0.0
1001
GENIUS_GENREC_14
1002
{
1000
PYDIR
1011
78.40685926887636
1021
110.2271919768099
1031
0.0
1002
}
1002
{
1000
PXDIR
1011
62.40685926887636
1021
109.727191976809
1031
0.0
1002
}
1002
{
1000
PORI
1011
78.40685926887636
1021
109.727191976809
1031
0.0
1002
}
1002
{
1000
PINS
1011
78.40685926887636
1021
109.727191976809
1031
0.0
1002
}
1002
{
1000
PINS2
1011
62.40685926887636
1021
110.2271919768099
1031
0.0
1002
}
1002
{
1000
C
1070
     1
1002
}
1001
GENIUS_GENOBJ-N-REC_13
1002
{
1000
OWNER
1000
GEN
1002
}
1001
GENIUS_GENODEF_13
1002
{
1000
HIER
1070
     0
1002
}
1002
{
1000
MANEDIT
1070
     0
1002
}
1002
{
1000
NOSEL
1070
     0
1002
}
1002
{
1000
BEHIND
1070
     0
1002
}
1002
{
1000
OTHER
1070
     0
1002
}
1002
{
1000
REACTOR
1002
}
  0
LINE
  5
EFE
330
1F
100
AcDbEntity
  8
10
100
AcDbLine
 10
62.40685926887636
 20
110.2271919768099
 30
0.0
 11
78.40685926887636
 21
110.2271919768099
 31
0.0
1001
GENIUS_GENREC_14
1002
{
1000
PYDIR
1011
78.40685926887636
1021
110.2271919768099
1031
0.0
1002
}
1002
{
1000
PXDIR
1011
62.40685926887636
1021
109.727191976809
1031
0.0
1002
}
1002
{
1000
PORI
1011
78.40685926887636
1021
109.727191976809
1031
0.0
1002
}
1002
{
1000
PINS
1011
78.40685926887636
1021
109.727191976809
1031
0.0
1002
}
1002
{
1000
PINS2
1011
62.40685926887636
1021
110.2271919768099
1031
0.0
1002
}
1002
{
1000
C
1070
     1
1002
}
1001
GENIUS_GENOBJ-N-REC_13
1002
{
1000
OWNER
1000
GEN
1002
}
1001
GENIUS_GENODEF_13
1002
{
1000
HIER
1070
     0
1002
}
1002
{
1000
MANEDIT
1070
     0
1002
}
1002
{
1000
NOSEL
1070
     0
1002
}
1002
{
1000
BEHIND
1070
     0
1002
}
1002
{
1000
OTHER
1070
     0
1002
}
1002
{
1000
REACTOR
1002
}
  0
LINE
  5
EFF
330
1F
100
AcDbEntity
  8
10
100
AcDbLine
 10
78.40685926887636
 20
110.2271919768099
 30
0.0
 11
78.40685926887636
 21
109.727191976809
 31
0.0
1001
GENIUS_GENREC_14
1002
{
1000
PYDIR
1011
78.40685926887636
1021
110.2271919768099
1031
0.0
1002
}
1002
{
1000
PXDIR
1011
62.40685926887636
1021
109.727191976809
1031
0.0
1002
}
1002
{
1000
PORI
1011
78.40685926887636
1021
109.727191976809
1031
0.0
1002
}
1002
{
1000
PINS
1011
78.40685926887636
1021
109.727191976809
1031
0.0
1002
}
1002
{
1000
PINS2
1011
62.40685926887636
1021
110.2271919768099
1031
0.0
1002
}
1002
{
1000
C
1070
     1
1002
}
1001
GENIUS_GENOBJ-N-REC_13
1002
{
1000
OWNER
1000
GEN
1002
}
1001
GENIUS_GENODEF_13
1002
{
1000
HIER
1070
     0
1002
}
1002
{
1000
MANEDIT
1070
     0
1002
}
1002
{
1000
NOSEL
1070
     0
1002
}
1002
{
1000
BEHIND
1070
     0
1002
}
1002
{
1000
OTHER
1070
     0
1002
}
1002
{
1000
REACTOR
1002
}
  0
LINE
  5
F00
330
1F
100
AcDbEntity
  8
10
100
AcDbLine
 10
110.4068592688763
 20
109.727191976809
 30
0.0
 11
126.4068592688763
 21
109.727191976809
 31
0.0
1001
GENIUS_GENREC_14
1002
{
1000
PYDIR
1011
110.4068592688763
1021
110.2271919768099
1031
0.0
1002
}
1002
{
1000
PXDIR
1011
126.4068592688763
1021
109.727191976809
1031
0.0
1002
}
1002
{
1000
PORI
1011
110.4068592688763
1021
109.727191976809
1031
0.0
1002
}
1002
{
1000
PINS
1011
110.4068592688763
1021
109.727191976809
1031
0.0
1002
}
1002
{
1000
PINS2
1011
126.4068592688763
1021
110.2271919768099
1031
0.0
1002
}
1002
{
1000
C
1070
     1
1002
}
1001
GENIUS_GENOBJ-N-REC_13
1002
{
1000
OWNER
1000
GEN
1002
}
1001
GENIUS_GENODEF_13
1002
{
1000
HIER
1070
     0
1002
}
1002
{
1000
MANEDIT
1070
     0
1002
}
1002
{
1000
NOSEL
1070
     0
1002
}
1002
{
1000
BEHIND
1070
     0
1002
}
1002
{
1000
OTHER
1070
     0
1002
}
1002
{
1000
REACTOR
1002
}
  0
LINE
  5
F01
330
1F
100
AcDbEntity
  8
10
100
AcDbLine
 10
126.4068592688763
 20
109.727191976809
 30
0.0
 11
126.4068592688763
 21
110.2271919768099
 31
0.0
1001
GENIUS_GENREC_14
1002
{
1000
PYDIR
1011
110.4068592688763
1021
110.2271919768099
1031
0.0
1002
}
1002
{
1000
PXDIR
1011
126.4068592688763
1021
109.727191976809
1031
0.0
1002
}
1002
{
1000
PORI
1011
110.4068592688763
1021
109.727191976809
1031
0.0
1002
}
1002
{
1000
PINS
1011
110.4068592688763
1021
109.727191976809
1031
0.0
1002
}
1002
{
1000
PINS2
1011
126.4068592688763
1021
110.2271919768099
1031
0.0
1002
}
1002
{
1000
C
1070
     1
1002
}
1001
GENIUS_GENOBJ-N-REC_13
1002
{
1000
OWNER
1000
GEN
1002
}
1001
GENIUS_GENODEF_13
1002
{
1000
HIER
1070
     0
1002
}
1002
{
1000
MANEDIT
1070
     0
1002
}
1002
{
1000
NOSEL
1070
     0
1002
}
1002
{
1000
BEHIND
1070
     0
1002
}
1002
{
1000
OTHER
1070
     0
1002
}
1002
{
1000
REACTOR
1002
}
  0
LINE
  5
F02
330
1F
100
AcDbEntity
  8
10
100
AcDbLine
 10
126.4068592688763
 20
110.2271919768099
 30
0.0
 11
110.4068592688763
 21
110.2271919768099
 31
0.0
1001
GENIUS_GENREC_14
1002
{
1000
PYDIR
1011
110.4068592688763
1021
110.2271919768099
1031
0.0
1002
}
1002
{
1000
PXDIR
1011
126.4068592688763
1021
109.727191976809
1031
0.0
1002
}
1002
{
1000
PORI
1011
110.4068592688763
1021
109.727191976809
1031
0.0
1002
}
1002
{
1000
PINS
1011
110.4068592688763
1021
109.727191976809
1031
0.0
1002
}
1002
{
1000
PINS2
1011
126.4068592688763
1021
110.2271919768099
1031
0.0
1002
}
1002
{
1000
C
1070
     1
1002
}
1001
GENIUS_GENOBJ-N-REC_13
1002
{
1000
OWNER
1000
GEN
1002
}
1001
GENIUS_GENODEF_13
1002
{
1000
HIER
1070
     0
1002
}
1002
{
1000
MANEDIT
1070
     0
1002
}
1002
{
1000
NOSEL
1070
     0
1002
}
1002
{
1000
BEHIND
1070
     0
1002
}
1002
{
1000
OTHER
1070
     0
1002
}
1002
{
1000
REACTOR
1002
}
  0
LINE
  5
F03
330
1F
100
AcDbEntity
  8
10
100
AcDbLine
 10
110.4068592688763
 20
110.2271919768099
 30
0.0
 11
110.4068592688763
 21
109.727191976809
 31
0.0
1001
GENIUS_GENREC_14
1002
{
1000
PYDIR
1011
110.4068592688763
1021
110.2271919768099
1031
0.0
1002
}
1002
{
1000
PXDIR
1011
126.4068592688763
1021
109.727191976809
1031
0.0
1002
}
1002
{
1000
PORI
1011
110.4068592688763
1021
109.727191976809
1031
0.0
1002
}
1002
{
1000
PINS
1011
110.4068592688763
1021
109.727191976809
1031
0.0
1002
}
1002
{
1000
PINS2
1011
126.4068592688763
1021
110.2271919768099
1031
0.0
1002
}
1002
{
1000
C
1070
     1
1002
}
1001
GENIUS_GENOBJ-N-REC_13
1002
{
1000
OWNER
1000
GEN
1002
}
1001
GENIUS_GENODEF_13
1002
{
1000
HIER
1070
     0
1002
}
1002
{
1000
MANEDIT
1070
     0
1002
}
1002
{
1000
NOSEL
1070
     0
1002
}
1002
{
1000
BEHIND
1070
     0
1002
}
1002
{
1000
OTHER
1070
     0
1002
}
1002
{
1000
REACTOR
1002
}
  0
LINE
  5
F04
330
1F
100
AcDbEntity
  8
10
100
AcDbLine
 10
255.4451127723914
 20
149.5271919768101
 30
0.0
 11
255.4451127723914
 21
150.5271919768101
 31
0.0
1001
GENIUS_GENOREF_13
1005
0
1005
0
1005
0
  0
LINE
  5
F05
330
1F
100
AcDbEntity
  8
10
100
AcDbLine
 10
251.0811425381252
 20
150.5271919768101
 30
0.0
 11
247.845112772391
 21
150.5271919768101
 31
0.0
1001
GENIUS_GENOREF_13
1005
0
1005
0
1005
0
  0
LINE
  5
F06
330
1F
100
AcDbEntity
  8
10
100
AcDbLine
 10
251.845112772391
 20
149.5271919768101
 30
0.0
 11
251.4811425381249
 21
150.5271919768101
 31
0.0
1001
GENIUS_GENOREF_13
1005
0
1005
0
1005
0
  0
LINE
  5
F07
330
1F
100
AcDbEntity
  8
10
100
AcDbLine
 10
251.4451127723914
 20
149.5271919768101
 30
0.0
 11
251.0811425381252
 21
150.5271919768101
 31
0.0
1001
GENIUS_GENOREF_13
1005
0
1005
0
1005
0
  0
LINE
  5
F08
330
1F
100
AcDbEntity
  8
10
100
AcDbLine
 10
247.845112772391
 20
150.5271919768101
 30
0.0
 11
247.845112772391
 21
149.5271919768101
 31
0.0
1001
GENIUS_GENOREF_13
1005
0
1005
0
1005
0
  0
LINE
  5
F09
330
1F
100
AcDbEntity
  8
10
100
AcDbLine
 10
255.4451127723914
 20
150.5271919768101
 30
0.0
 11
251.4811425381249
 21
150.5271919768101
 31
0.0
1001
GENIUS_GENOREF_13
1005
0
1005
0
1005
0
  0
LINE
  5
F0A
330
1F
100
AcDbEntity
  8
10
100
AcDbLine
 10
256.1451127723912
 20
148.7271919768099
 30
0.0
 11
256.1451127723912
 21
149.5271919768101
 31
0.0
1001
GENIUS_GENOREF_13
1005
0
1005
0
  0
LINE
  5
F0B
330
1F
100
AcDbEntity
  8
10
100
AcDbLine
 10
247.1451127723912
 20
149.5271919768101
 30
0.0
 11
247.1451127723912
 21
148.7271919768099
 31
0.0
1001
GENIUS_GENOREF_13
1005
0
1005
0
  0
LINE
  5
F0C
330
1F
100
AcDbEntity
  8
10
100
AcDbLine
 10
247.1451127723912
 20
148.7271919768099
 30
0.0
 11
256.1451127723912
 21
148.7271919768099
 31
0.0
1001
GENIUS_GENOREF_13
1005
0
1005
0
  0
LINE
  5
F0D
330
1F
100
AcDbEntity
  8
10
100
AcDbLine
 10
256.1451127723912
 20
149.5271919768101
 30
0.0
 11
247.1451127723912
 21
149.5271919768101
 31
0.0
1001
GENIUS_GENOREF_13
1005
0
1005
0
  0
LINE
  5
F0E
330
1F
100
AcDbEntity
  8
10
100
AcDbLine
 10
251.0811425381252
 20
150.5271919768101
 30
0.0
 11
251.4811425381249
 21
150.5271919768101
 31
0.0
1001
GENIUS_GENOREF_13
1005
0
1005
0
1005
0
1005
0
1005
0
  0
LINE
  5
F0F
330
1F
100
AcDbEntity
  8
10
100
AcDbLine
 10
247.6451127723912
 20
150.5271919768101
 30
0.0
 11
247.845112772391
 21
150.5271919768101
 31
0.0
1001
GENIUS_GENOREF_13
1005
0
1005
0
1005
0
1005
0
1005
0
  0
LINE
  5
F10
330
1F
100
AcDbEntity
  8
10
100
AcDbLine
 10
255.4451127723914
 20
150.5271919768101
 30
0.0
 11
255.6451127723912
 21
150.5271919768101
 31
0.0
1001
GENIUS_GENOREF_13
1005
0
1005
0
1005
0
1005
0
1005
0
  0
ARC
  5
F11
330
1F
100
AcDbEntity
  8
10
100
AcDbCircle
 10
253.9585562277506
 20
151.4466803005416
 30
0.0
 40
1.6
100
AcDbArc
 50
4.999999999972428
 51
61.82726586811955
1001
GENIUS_GENOREF_13
1005
0
1005
0
1005
0
1005
0
1005
0
  0
ARC
  5
F12
330
1F
100
AcDbEntity
  8
10
100
AcDbCircle
 10
249.3316693170318
 20
151.4466803005416
 30
0.0
 40
1.6
100
AcDbArc
 50
118.1727341318804
 51
175.0000000000275
1001
GENIUS_GENOREF_13
1005
0
1005
0
1005
0
1005
0
1005
0
  0
ARC
  5
F13
330
1F
100
AcDbEntity
  8
10
100
AcDbCircle
 10
251.6451127723912
 20
147.1271919768096
 30
0.0
 40
6.5
100
AcDbArc
 50
61.82726586811955
 51
118.1727341318804
1001
GENIUS_GENOREF_13
1005
0
1005
0
1005
0
1005
0
1005
0
  0
LINE
  5
F14
330
1F
100
AcDbEntity
  8
10
100
AcDbLine
 10
247.737757800085
 20
151.5861294889382
 30
0.0
 11
247.6451127723912
 21
150.5271919768101
 31
0.0
1001
GENIUS_GENOREF_13
1005
0
1005
0
1005
0
1005
0
1005
0
  0
LINE
  5
F15
330
1F
100
AcDbEntity
  8
10
100
AcDbLine
 10
255.5524677446974
 20
151.5861294889382
 30
0.0
 11
255.6451127723912
 21
150.5271919768101
 31
0.0
1001
GENIUS_GENOREF_13
1005
0
1005
0
1005
0
1005
0
1005
0
  0
LINE
  5
F16
330
1F
100
AcDbEntity
  8
10
100
AcDbLine
 10
253.2156977723916
 20
136.5271919768101
 30
0.0
 11
250.0745277723908
 21
136.5271919768101
 31
0.0
1001
GENIUS_GENOREF_13
1005
0
1005
0
1005
0
1005
0
1005
0
  0
LINE
  5
F17
330
1F
100
AcDbEntity
  8
10
100
AcDbLine
 10
253.6451127723912
 20
136.9566069768097
 30
0.0
 11
249.6451127723912
 21
136.9566069768097
 31
0.0
1001
GENIUS_GENOREF_13
1005
0
1005
0
1005
0
1005
0
1005
0
  0
LINE
  5
F18
330
1F
100
AcDbEntity
  8
10
100
AcDbLine
 10
249.6451127723912
 20
138.4271919768107
 30
0.0
 11
249.6451127723912
 21
136.9566069768097
 31
0.0
1001
GENIUS_GENOREF_13
1005
0
1005
0
1005
0
1005
0
1005
0
  0
LINE
  5
F19
330
1F
100
AcDbEntity
  8
10
100
AcDbLine
 10
253.6451127723912
 20
138.4271919768107
 30
0.0
 11
253.6451127723912
 21
136.9566069768097
 31
0.0
1001
GENIUS_GENOREF_13
1005
0
1005
0
1005
0
1005
0
1005
0
  0
LINE
  5
F1A
330
1F
100
AcDbEntity
  8
10
100
AcDbLine
 10
249.6451127723912
 20
136.9566069768097
 30
0.0
 11
250.0745277723908
 21
136.5271919768101
 31
0.0
1001
GENIUS_GENOREF_13
1005
0
1005
0
1005
0
1005
0
1005
0
  0
LINE
  5
F1B
330
1F
100
AcDbEntity
  8
10
100
AcDbLine
 10
253.6451127723912
 20
136.9566069768097
 30
0.0
 11
253.2156977723916
 21
136.5271919768101
 31
0.0
1001
GENIUS_GENOREF_13
1005
0
1005
0
1005
0
1005
0
1005
0
  0
LINE
  5
F1C
330
1F
100
AcDbEntity
  8
10
100
AcDbLine
 10
283.9451127723914
 20
109.727191976809
 30
0.0
 11
289.9451127723914
 21
109.727191976809
 31
0.0
1001
GENIUS_GENREC_14
1002
{
1000
PYDIR
1011
283.9451127723914
1021
110.2271919768099
1031
0.0
1002
}
1002
{
1000
PXDIR
1011
289.9451127723914
1021
109.727191976809
1031
0.0
1002
}
1002
{
1000
PORI
1011
283.9451127723914
1021
109.727191976809
1031
0.0
1002
}
1002
{
1000
PINS
1011
283.9451127723914
1021
109.727191976809
1031
0.0
1002
}
1002
{
1000
PINS2
1011
289.9451127723914
1021
110.2271919768099
1031
0.0
1002
}
1002
{
1000
C
1070
     1
1002
}
1001
GENIUS_GENODEF_13
1002
{
1000
HIER
1070
     0
1002
}
1002
{
1000
MANEDIT
1070
     0
1002
}
1002
{
1000
NOSEL
1070
     0
1002
}
1002
{
1000
BEHIND
1070
     0
1002
}
1002
{
1000
OTHER
1070
     0
1002
}
1002
{
1000
REACTOR
1002
}
1001
GENIUS_GENOBJ-N-REC_13
1002
{
1000
OWNER
1000
GEN
1002
}
  0
LINE
  5
F1D
330
1F
100
AcDbEntity
  8
10
100
AcDbLine
 10
289.9451127723914
 20
109.727191976809
 30
0.0
 11
289.9451127723914
 21
110.2271919768099
 31
0.0
1001
GENIUS_GENREC_14
1002
{
1000
PYDIR
1011
283.9451127723914
1021
110.2271919768099
1031
0.0
1002
}
1002
{
1000
PXDIR
1011
289.9451127723914
1021
109.727191976809
1031
0.0
1002
}
1002
{
1000
PORI
1011
283.9451127723914
1021
109.727191976809
1031
0.0
1002
}
1002
{
1000
PINS
1011
283.9451127723914
1021
109.727191976809
1031
0.0
1002
}
1002
{
1000
PINS2
1011
289.9451127723914
1021
110.2271919768099
1031
0.0
1002
}
1002
{
1000
C
1070
     1
1002
}
1001
GENIUS_GENODEF_13
1002
{
1000
HIER
1070
     0
1002
}
1002
{
1000
MANEDIT
1070
     0
1002
}
1002
{
1000
NOSEL
1070
     0
1002
}
1002
{
1000
BEHIND
1070
     0
1002
}
1002
{
1000
OTHER
1070
     0
1002
}
1002
{
1000
REACTOR
1002
}
1001
GENIUS_GENOBJ-N-REC_13
1002
{
1000
OWNER
1000
GEN
1002
}
  0
LINE
  5
F1E
330
1F
100
AcDbEntity
  8
10
100
AcDbLine
 10
289.9451127723914
 20
110.2271919768099
 30
0.0
 11
283.9451127723914
 21
110.2271919768099
 31
0.0
1001
GENIUS_GENREC_14
1002
{
1000
PYDIR
1011
283.9451127723914
1021
110.2271919768099
1031
0.0
1002
}
1002
{
1000
PXDIR
1011
289.9451127723914
1021
109.727191976809
1031
0.0
1002
}
1002
{
1000
PORI
1011
283.9451127723914
1021
109.727191976809
1031
0.0
1002
}
1002
{
1000
PINS
1011
283.9451127723914
1021
109.727191976809
1031
0.0
1002
}
1002
{
1000
PINS2
1011
289.9451127723914
1021
110.2271919768099
1031
0.0
1002
}
1002
{
1000
C
1070
     1
1002
}
1001
GENIUS_GENODEF_13
1002
{
1000
HIER
1070
     0
1002
}
1002
{
1000
MANEDIT
1070
     0
1002
}
1002
{
1000
NOSEL
1070
     0
1002
}
1002
{
1000
BEHIND
1070
     0
1002
}
1002
{
1000
OTHER
1070
     0
1002
}
1002
{
1000
REACTOR
1002
}
1001
GENIUS_GENOBJ-N-REC_13
1002
{
1000
OWNER
1000
GEN
1002
}
  0
LINE
  5
F1F
330
1F
100
AcDbEntity
  8
10
100
AcDbLine
 10
283.9451127723914
 20
110.2271919768099
 30
0.0
 11
283.9451127723914
 21
109.727191976809
 31
0.0
1001
GENIUS_GENREC_14
1002
{
1000
PYDIR
1011
283.9451127723914
1021
110.2271919768099
1031
0.0
1002
}
1002
{
1000
PXDIR
1011
289.9451127723914
1021
109.727191976809
1031
0.0
1002
}
1002
{
1000
PORI
1011
283.9451127723914
1021
109.727191976809
1031
0.0
1002
}
1002
{
1000
PINS
1011
283.9451127723914
1021
109.727191976809
1031
0.0
1002
}
1002
{
1000
PINS2
1011
289.9451127723914
1021
110.2271919768099
1031
0.0
1002
}
1002
{
1000
C
1070
     1
1002
}
1001
GENIUS_GENODEF_13
1002
{
1000
HIER
1070
     0
1002
}
1002
{
1000
MANEDIT
1070
     0
1002
}
1002
{
1000
NOSEL
1070
     0
1002
}
1002
{
1000
BEHIND
1070
     0
1002
}
1002
{
1000
OTHER
1070
     0
1002
}
1002
{
1000
REACTOR
1002
}
1001
GENIUS_GENOBJ-N-REC_13
1002
{
1000
OWNER
1000
GEN
1002
}
  0
LINE
  5
F20
330
1F
100
AcDbEntity
  8
10
100
AcDbLine
 10
283.9451127723914
 20
62.72719197680908
 30
0.0
 11
289.9451127723914
 21
62.72719197680908
 31
0.0
1001
GENIUS_GENREC_14
1002
{
1000
PYDIR
1011
283.9451127723914
1021
62.22719197680908
1031
0.0
1002
}
1002
{
1000
PXDIR
1011
289.9451127723914
1021
62.72719197680908
1031
0.0
1002
}
1002
{
1000
PORI
1011
283.9451127723914
1021
62.72719197680908
1031
0.0
1002
}
1002
{
1000
PINS
1011
283.9451127723914
1021
62.72719197680908
1031
0.0
1002
}
1002
{
1000
PINS2
1011
289.9451127723914
1021
62.22719197680908
1031
0.0
1002
}
1002
{
1000
C
1070
     1
1002
}
1001
GENIUS_GENOBJ-N-REC_13
1002
{
1000
OWNER
1000
GEN
1002
}
1001
GENIUS_GENODEF_13
1002
{
1000
HIER
1070
     0
1002
}
1002
{
1000
MANEDIT
1070
     0
1002
}
1002
{
1000
NOSEL
1070
     0
1002
}
1002
{
1000
BEHIND
1070
     0
1002
}
1002
{
1000
OTHER
1070
     0
1002
}
1002
{
1000
REACTOR
1002
}
  0
LINE
  5
F21
330
1F
100
AcDbEntity
  8
10
100
AcDbLine
 10
289.9451127723914
 20
62.72719197680908
 30
0.0
 11
289.9451127723914
 21
62.22719197680908
 31
0.0
1001
GENIUS_GENREC_14
1002
{
1000
PYDIR
1011
283.9451127723914
1021
62.22719197680908
1031
0.0
1002
}
1002
{
1000
PXDIR
1011
289.9451127723914
1021
62.72719197680908
1031
0.0
1002
}
1002
{
1000
PORI
1011
283.9451127723914
1021
62.72719197680908
1031
0.0
1002
}
1002
{
1000
PINS
1011
283.9451127723914
1021
62.72719197680908
1031
0.0
1002
}
1002
{
1000
PINS2
1011
289.9451127723914
1021
62.22719197680908
1031
0.0
1002
}
1002
{
1000
C
1070
     1
1002
}
1001
GENIUS_GENOBJ-N-REC_13
1002
{
1000
OWNER
1000
GEN
1002
}
1001
GENIUS_GENODEF_13
1002
{
1000
HIER
1070
     0
1002
}
1002
{
1000
MANEDIT
1070
     0
1002
}
1002
{
1000
NOSEL
1070
     0
1002
}
1002
{
1000
BEHIND
1070
     0
1002
}
1002
{
1000
OTHER
1070
     0
1002
}
1002
{
1000
REACTOR
1002
}
  0
LINE
  5
F22
330
1F
100
AcDbEntity
  8
10
100
AcDbLine
 10
289.9451127723914
 20
62.22719197680908
 30
0.0
 11
283.9451127723914
 21
62.22719197680908
 31
0.0
1001
GENIUS_GENREC_14
1002
{
1000
PYDIR
1011
283.9451127723914
1021
62.22719197680908
1031
0.0
1002
}
1002
{
1000
PXDIR
1011
289.9451127723914
1021
62.72719197680908
1031
0.0
1002
}
1002
{
1000
PORI
1011
283.9451127723914
1021
62.72719197680908
1031
0.0
1002
}
1002
{
1000
PINS
1011
283.9451127723914
1021
62.72719197680908
1031
0.0
1002
}
1002
{
1000
PINS2
1011
289.9451127723914
1021
62.22719197680908
1031
0.0
1002
}
1002
{
1000
C
1070
     1
1002
}
1001
GENIUS_GENOBJ-N-REC_13
1002
{
1000
OWNER
1000
GEN
1002
}
1001
GENIUS_GENODEF_13
1002
{
1000
HIER
1070
     0
1002
}
1002
{
1000
MANEDIT
1070
     0
1002
}
1002
{
1000
NOSEL
1070
     0
1002
}
1002
{
1000
BEHIND
1070
     0
1002
}
1002
{
1000
OTHER
1070
     0
1002
}
1002
{
1000
REACTOR
1002
}
  0
LINE
  5
F23
330
1F
100
AcDbEntity
  8
10
100
AcDbLine
 10
283.9451127723914
 20
62.22719197680908
 30
0.0
 11
283.9451127723914
 21
62.72719197680908
 31
0.0
1001
GENIUS_GENREC_14
1002
{
1000
PYDIR
1011
283.9451127723914
1021
62.22719197680908
1031
0.0
1002
}
1002
{
1000
PXDIR
1011
289.9451127723914
1021
62.72719197680908
1031
0.0
1002
}
1002
{
1000
PORI
1011
283.9451127723914
1021
62.72719197680908
1031
0.0
1002
}
1002
{
1000
PINS
1011
283.9451127723914
1021
62.72719197680908
1031
0.0
1002
}
1002
{
1000
PINS2
1011
289.9451127723914
1021
62.22719197680908
1031
0.0
1002
}
1002
{
1000
C
1070
     1
1002
}
1001
GENIUS_GENOBJ-N-REC_13
1002
{
1000
OWNER
1000
GEN
1002
}
1001
GENIUS_GENODEF_13
1002
{
1000
HIER
1070
     0
1002
}
1002
{
1000
MANEDIT
1070
     0
1002
}
1002
{
1000
NOSEL
1070
     0
1002
}
1002
{
1000
BEHIND
1070
     0
1002
}
1002
{
1000
OTHER
1070
     0
1002
}
1002
{
1000
REACTOR
1002
}
  0
LINE
  5
F24
330
1F
100
AcDbEntity
  8
10
100
AcDbLine
 10
230.9451127723896
 20
62.72719197680908
 30
0.0
 11
224.9451127723896
 21
62.72719197680908
 31
0.0
1001
GENIUS_GENREC_14
1002
{
1000
PYDIR
1011
230.9451127723896
1021
62.22719197680908
1031
0.0
1002
}
1002
{
1000
PXDIR
1011
224.9451127723896
1021
62.72719197680908
1031
0.0
1002
}
1002
{
1000
PORI
1011
230.9451127723896
1021
62.72719197680908
1031
0.0
1002
}
1002
{
1000
PINS
1011
230.9451127723896
1021
62.72719197680908
1031
0.0
1002
}
1002
{
1000
PINS2
1011
224.9451127723896
1021
62.22719197680908
1031
0.0
1002
}
1002
{
1000
C
1070
     1
1002
}
1001
GENIUS_GENOBJ-N-REC_13
1002
{
1000
OWNER
1000
GEN
1002
}
1001
GENIUS_GENODEF_13
1002
{
1000
HIER
1070
     0
1002
}
1002
{
1000
MANEDIT
1070
     0
1002
}
1002
{
1000
NOSEL
1070
     0
1002
}
1002
{
1000
BEHIND
1070
     0
1002
}
1002
{
1000
OTHER
1070
     0
1002
}
1002
{
1000
REACTOR
1002
}
  0
LINE
  5
F25
330
1F
100
AcDbEntity
  8
10
100
AcDbLine
 10
224.9451127723896
 20
62.72719197680908
 30
0.0
 11
224.9451127723896
 21
62.22719197680908
 31
0.0
1001
GENIUS_GENREC_14
1002
{
1000
PYDIR
1011
230.9451127723896
1021
62.22719197680908
1031
0.0
1002
}
1002
{
1000
PXDIR
1011
224.9451127723896
1021
62.72719197680908
1031
0.0
1002
}
1002
{
1000
PORI
1011
230.9451127723896
1021
62.72719197680908
1031
0.0
1002
}
1002
{
1000
PINS
1011
230.9451127723896
1021
62.72719197680908
1031
0.0
1002
}
1002
{
1000
PINS2
1011
224.9451127723896
1021
62.22719197680908
1031
0.0
1002
}
1002
{
1000
C
1070
     1
1002
}
1001
GENIUS_GENOBJ-N-REC_13
1002
{
1000
OWNER
1000
GEN
1002
}
1001
GENIUS_GENODEF_13
1002
{
1000
HIER
1070
     0
1002
}
1002
{
1000
MANEDIT
1070
     0
1002
}
1002
{
1000
NOSEL
1070
     0
1002
}
1002
{
1000
BEHIND
1070
     0
1002
}
1002
{
1000
OTHER
1070
     0
1002
}
1002
{
1000
REACTOR
1002
}
  0
LINE
  5
F26
330
1F
100
AcDbEntity
  8
10
100
AcDbLine
 10
224.9451127723896
 20
62.22719197680908
 30
0.0
 11
230.9451127723896
 21
62.22719197680908
 31
0.0
1001
GENIUS_GENREC_14
1002
{
1000
PYDIR
1011
230.9451127723896
1021
62.22719197680908
1031
0.0
1002
}
1002
{
1000
PXDIR
1011
224.9451127723896
1021
62.72719197680908
1031
0.0
1002
}
1002
{
1000
PORI
1011
230.9451127723896
1021
62.72719197680908
1031
0.0
1002
}
1002
{
1000
PINS
1011
230.9451127723896
1021
62.72719197680908
1031
0.0
1002
}
1002
{
1000
PINS2
1011
224.9451127723896
1021
62.22719197680908
1031
0.0
1002
}
1002
{
1000
C
1070
     1
1002
}
1001
GENIUS_GENOBJ-N-REC_13
1002
{
1000
OWNER
1000
GEN
1002
}
1001
GENIUS_GENODEF_13
1002
{
1000
HIER
1070
     0
1002
}
1002
{
1000
MANEDIT
1070
     0
1002
}
1002
{
1000
NOSEL
1070
     0
1002
}
1002
{
1000
BEHIND
1070
     0
1002
}
1002
{
1000
OTHER
1070
     0
1002
}
1002
{
1000
REACTOR
1002
}
  0
LINE
  5
F27
330
1F
100
AcDbEntity
  8
10
100
AcDbLine
 10
230.9451127723896
 20
62.22719197680908
 30
0.0
 11
230.9451127723896
 21
62.72719197680908
 31
0.0
1001
GENIUS_GENREC_14
1002
{
1000
PYDIR
1011
230.9451127723896
1021
62.22719197680908
1031
0.0
1002
}
1002
{
1000
PXDIR
1011
224.9451127723896
1021
62.72719197680908
1031
0.0
1002
}
1002
{
1000
PORI
1011
230.9451127723896
1021
62.72719197680908
1031
0.0
1002
}
1002
{
1000
PINS
1011
230.9451127723896
1021
62.72719197680908
1031
0.0
1002
}
1002
{
1000
PINS2
1011
224.9451127723896
1021
62.22719197680908
1031
0.0
1002
}
1002
{
1000
C
1070
     1
1002
}
1001
GENIUS_GENOBJ-N-REC_13
1002
{
1000
OWNER
1000
GEN
1002
}
1001
GENIUS_GENODEF_13
1002
{
1000
HIER
1070
     0
1002
}
1002
{
1000
MANEDIT
1070
     0
1002
}
1002
{
1000
NOSEL
1070
     0
1002
}
1002
{
1000
BEHIND
1070
     0
1002
}
1002
{
1000
OTHER
1070
     0
1002
}
1002
{
1000
REACTOR
1002
}
  0
LINE
  5
F28
330
1F
100
AcDbEntity
  8
10
100
AcDbLine
 10
230.9451127723896
 20
109.727191976809
 30
0.0
 11
224.9451127723896
 21
109.727191976809
 31
0.0
1001
GENIUS_GENREC_14
1002
{
1000
PYDIR
1011
230.9451127723896
1021
110.2271919768099
1031
0.0
1002
}
1002
{
1000
PXDIR
1011
224.9451127723896
1021
109.727191976809
1031
0.0
1002
}
1002
{
1000
PORI
1011
230.9451127723896
1021
109.727191976809
1031
0.0
1002
}
1002
{
1000
PINS
1011
230.9451127723896
1021
109.727191976809
1031
0.0
1002
}
1002
{
1000
PINS2
1011
224.9451127723896
1021
110.2271919768099
1031
0.0
1002
}
1002
{
1000
C
1070
     1
1002
}
1001
GENIUS_GENODEF_13
1002
{
1000
HIER
1070
     0
1002
}
1002
{
1000
MANEDIT
1070
     0
1002
}
1002
{
1000
NOSEL
1070
     0
1002
}
1002
{
1000
BEHIND
1070
     0
1002
}
1002
{
1000
OTHER
1070
     0
1002
}
1002
{
1000
REACTOR
1002
}
1001
GENIUS_GENOBJ-N-REC_13
1002
{
1000
OWNER
1000
GEN
1002
}
  0
LINE
  5
F29
330
1F
100
AcDbEntity
  8
10
100
AcDbLine
 10
224.9451127723896
 20
109.727191976809
 30
0.0
 11
224.9451127723896
 21
110.2271919768099
 31
0.0
1001
GENIUS_GENREC_14
1002
{
1000
PYDIR
1011
230.9451127723896
1021
110.2271919768099
1031
0.0
1002
}
1002
{
1000
PXDIR
1011
224.9451127723896
1021
109.727191976809
1031
0.0
1002
}
1002
{
1000
PORI
1011
230.9451127723896
1021
109.727191976809
1031
0.0
1002
}
1002
{
1000
PINS
1011
230.9451127723896
1021
109.727191976809
1031
0.0
1002
}
1002
{
1000
PINS2
1011
224.9451127723896
1021
110.2271919768099
1031
0.0
1002
}
1002
{
1000
C
1070
     1
1002
}
1001
GENIUS_GENODEF_13
1002
{
1000
HIER
1070
     0
1002
}
1002
{
1000
MANEDIT
1070
     0
1002
}
1002
{
1000
NOSEL
1070
     0
1002
}
1002
{
1000
BEHIND
1070
     0
1002
}
1002
{
1000
OTHER
1070
     0
1002
}
1002
{
1000
REACTOR
1002
}
1001
GENIUS_GENOBJ-N-REC_13
1002
{
1000
OWNER
1000
GEN
1002
}
  0
LINE
  5
F2A
330
1F
100
AcDbEntity
  8
10
100
AcDbLine
 10
224.9451127723896
 20
110.2271919768099
 30
0.0
 11
230.9451127723896
 21
110.2271919768099
 31
0.0
1001
GENIUS_GENREC_14
1002
{
1000
PYDIR
1011
230.9451127723896
1021
110.2271919768099
1031
0.0
1002
}
1002
{
1000
PXDIR
1011
224.9451127723896
1021
109.727191976809
1031
0.0
1002
}
1002
{
1000
PORI
1011
230.9451127723896
1021
109.727191976809
1031
0.0
1002
}
1002
{
1000
PINS
1011
230.9451127723896
1021
109.727191976809
1031
0.0
1002
}
1002
{
1000
PINS2
1011
224.9451127723896
1021
110.2271919768099
1031
0.0
1002
}
1002
{
1000
C
1070
     1
1002
}
1001
GENIUS_GENODEF_13
1002
{
1000
HIER
1070
     0
1002
}
1002
{
1000
MANEDIT
1070
     0
1002
}
1002
{
1000
NOSEL
1070
     0
1002
}
1002
{
1000
BEHIND
1070
     0
1002
}
1002
{
1000
OTHER
1070
     0
1002
}
1002
{
1000
REACTOR
1002
}
1001
GENIUS_GENOBJ-N-REC_13
1002
{
1000
OWNER
1000
GEN
1002
}
  0
LINE
  5
F2B
330
1F
100
AcDbEntity
  8
10
100
AcDbLine
 10
230.9451127723896
 20
110.2271919768099
 30
0.0
 11
230.9451127723896
 21
109.727191976809
 31
0.0
1001
GENIUS_GENREC_14
1002
{
1000
PYDIR
1011
230.9451127723896
1021
110.2271919768099
1031
0.0
1002
}
1002
{
1000
PXDIR
1011
224.9451127723896
1021
109.727191976809
1031
0.0
1002
}
1002
{
1000
PORI
1011
230.9451127723896
1021
109.727191976809
1031
0.0
1002
}
1002
{
1000
PINS
1011
230.9451127723896
1021
109.727191976809
1031
0.0
1002
}
1002
{
1000
PINS2
1011
224.9451127723896
1021
110.2271919768099
1031
0.0
1002
}
1002
{
1000
C
1070
     1
1002
}
1001
GENIUS_GENODEF_13
1002
{
1000
HIER
1070
     0
1002
}
1002
{
1000
MANEDIT
1070
     0
1002
}
1002
{
1000
NOSEL
1070
     0
1002
}
1002
{
1000
BEHIND
1070
     0
1002
}
1002
{
1000
OTHER
1070
     0
1002
}
1002
{
1000
REACTOR
1002
}
1001
GENIUS_GENOBJ-N-REC_13
1002
{
1000
OWNER
1000
GEN
1002
}
  0
LINE
  5
F2C
330
1F
100
AcDbEntity
  8
10
100
AcDbLine
 10
283.9451127723914
 20
59.26719197680904
 30
0.0
 11
285.9451127723896
 21
59.26719197680904
 31
0.0
1001
GENIUS_GENOREF_13
1005
0
  0
LINE
  5
F2D
330
1F
100
AcDbEntity
  8
10
100
AcDbLine
 10
285.9451127723896
 20
59.26719197680904
 30
0.0
 11
285.9451127723896
 21
57.76719197680904
 31
0.0
1001
GENIUS_GENOREF_13
1005
0
  0
LINE
  5
F2E
330
1F
100
AcDbEntity
  8
10
100
AcDbLine
 10
285.9451127723896
 20
48.76719197680905
 30
0.0
 11
285.9451127723896
 21
47.26719197680904
 31
0.0
1001
GENIUS_GENOREF_13
1005
0
  0
LINE
  5
F2F
330
1F
100
AcDbEntity
  8
10
100
AcDbLine
 10
285.9451127723896
 20
47.26719197680904
 30
0.0
 11
283.9451127723914
 21
47.26719197680904
 31
0.0
1001
GENIUS_GENOREF_13
1005
0
  0
LINE
  5
F30
330
1F
100
AcDbEntity
  8
10
100
AcDbLine
 10
285.9451127723896
 20
113.727191976809
 30
0.0
 11
285.9451127723896
 21
112.227191976809
 31
0.0
1001
GENIUS_GENOREF_13
1005
0
  0
LINE
  5
F31
330
1F
100
AcDbEntity
  8
10
100
AcDbLine
 10
285.9451127723896
 20
112.227191976809
 30
0.0
 11
283.9451127723914
 21
112.227191976809
 31
0.0
1001
GENIUS_GENOREF_13
1005
0
  0
LINE
  5
F32
330
1F
100
AcDbEntity
  8
10
100
AcDbLine
 10
283.9451127723914
 20
124.227191976809
 30
0.0
 11
285.9451127723896
 21
124.227191976809
 31
0.0
1001
GENIUS_GENOREF_13
1005
0
  0
LINE
  5
F33
330
1F
100
AcDbEntity
  8
10
100
AcDbLine
 10
285.9451127723896
 20
124.227191976809
 30
0.0
 11
285.9451127723896
 21
122.7271919768099
 31
0.0
1001
GENIUS_GENOREF_13
1005
0
  0
CIRCLE
  5
F34
330
1F
100
AcDbEntity
  8
10
100
AcDbCircle
 10
54.90685926887636
 20
118.2271919768099
 30
0.0
 40
4.5
  0
LINE
  5
F35
330
1F
100
AcDbEntity
  8
12
100
AcDbLine
 10
47.40685926887636
 20
118.2271919768099
 30
0.0
 11
62.40685926887636
 21
118.2271919768099
 31
0.0
  0
LINE
  5
F36
330
1F
100
AcDbEntity
  8
12
100
AcDbLine
 10
54.90685926887636
 20
125.727191976809
 30
0.0
 11
54.90685926887636
 21
110.727191976809
 31
0.0
  0
LINE
  5
F37
330
1F
100
AcDbEntity
  8
12
100
AcDbLine
 10
47.86540738454823
 20
118.2271919768099
 30
0.0
 11
61.94831115320266
 21
118.2271919768099
 31
0.0
  0
LINE
  5
F38
330
1F
100
AcDbEntity
  8
10
100
AcDbLine
 10
51.40685926887636
 20
116.2064660346459
 30
0.0
 11
54.90685926887636
 21
114.1857400924818
 31
0.0
  0
LINE
  5
F39
330
1F
100
AcDbEntity
  8
10
100
AcDbLine
 10
54.90685926887636
 20
114.1857400924818
 30
0.0
 11
58.40685926887636
 21
116.2064660346459
 31
0.0
  0
LINE
  5
F3A
330
1F
100
AcDbEntity
  8
10
100
AcDbLine
 10
58.40685926887636
 20
116.2064660346459
 30
0.0
 11
58.40685926887636
 21
120.2479179189731
 31
0.0
  0
LINE
  5
F3B
330
1F
100
AcDbEntity
  8
10
100
AcDbLine
 10
58.40685926887636
 20
120.2479179189731
 30
0.0
 11
54.90685926887636
 21
122.2686438611362
 31
0.0
  0
LINE
  5
F3C
330
1F
100
AcDbEntity
  8
10
100
AcDbLine
 10
54.90685926887636
 20
122.2686438611362
 30
0.0
 11
51.40685926887636
 21
120.2479179189731
 31
0.0
  0
LINE
  5
F3D
330
1F
100
AcDbEntity
  8
10
100
AcDbLine
 10
51.40685926887636
 20
120.2479179189731
 30
0.0
 11
51.40685926887636
 21
116.2064660346459
 31
0.0
  0
CIRCLE
  5
F3E
330
1F
100
AcDbEntity
  8
10
100
AcDbCircle
 10
54.90685926887636
 20
118.2271919768099
 30
0.0
 40
3.5
  0
LINE
  5
F3F
330
1F
100
AcDbEntity
  8
12
100
AcDbLine
 10
54.90685926887636
 20
125.2686438611362
 30
0.0
 11
54.90685926887636
 21
111.1857400924818
 31
0.0
  0
CIRCLE
  5
F40
330
1F
100
AcDbEntity
  8
10
100
AcDbCircle
 10
54.90685926887636
 20
118.2271919768099
 30
0.0
 40
1.999999999999999
  0
LINE
  5
F41
330
1F
100
AcDbEntity
  8
12
100
AcDbLine
 10
49.90685926887636
 20
118.2271919768099
 30
0.0
 11
59.90685926887636
 21
118.2271919768099
 31
0.0
  0
LINE
  5
F42
330
1F
100
AcDbEntity
  8
12
100
AcDbLine
 10
54.90685926887636
 20
123.227191976809
 30
0.0
 11
54.90685926887636
 21
113.227191976809
 31
0.0
  0
CIRCLE
  5
F43
330
1F
100
AcDbEntity
  8
10
100
AcDbCircle
 10
133.9068592688763
 20
118.2271919768099
 30
0.0
 40
4.5
  0
LINE
  5
F44
330
1F
100
AcDbEntity
  8
12
100
AcDbLine
 10
126.4068592688763
 20
118.2271919768099
 30
0.0
 11
141.4068592688763
 21
118.2271919768099
 31
0.0
  0
LINE
  5
F45
330
1F
100
AcDbEntity
  8
12
100
AcDbLine
 10
133.9068592688763
 20
125.727191976809
 30
0.0
 11
133.9068592688763
 21
110.727191976809
 31
0.0
  0
LINE
  5
F46
330
1F
100
AcDbEntity
  8
12
100
AcDbLine
 10
126.8654073845482
 20
118.2271919768099
 30
0.0
 11
140.9483111532044
 21
118.2271919768099
 31
0.0
  0
LINE
  5
F47
330
1F
100
AcDbEntity
  8
10
100
AcDbLine
 10
130.4068592688763
 20
116.2064660346459
 30
0.0
 11
133.9068592688763
 21
114.1857400924818
 31
0.0
  0
LINE
  5
F48
330
1F
100
AcDbEntity
  8
10
100
AcDbLine
 10
133.9068592688763
 20
114.1857400924818
 30
0.0
 11
137.4068592688763
 21
116.2064660346459
 31
0.0
  0
LINE
  5
F49
330
1F
100
AcDbEntity
  8
10
100
AcDbLine
 10
137.4068592688763
 20
116.2064660346459
 30
0.0
 11
137.4068592688763
 21
120.2479179189731
 31
0.0
  0
LINE
  5
F4A
330
1F
100
AcDbEntity
  8
10
100
AcDbLine
 10
137.4068592688763
 20
120.2479179189731
 30
0.0
 11
133.9068592688763
 21
122.2686438611362
 31
0.0
  0
LINE
  5
F4B
330
1F
100
AcDbEntity
  8
10
100
AcDbLine
 10
133.9068592688763
 20
122.2686438611362
 30
0.0
 11
130.4068592688763
 21
120.2479179189731
 31
0.0
  0
LINE
  5
F4C
330
1F
100
AcDbEntity
  8
10
100
AcDbLine
 10
130.4068592688763
 20
120.2479179189731
 30
0.0
 11
130.4068592688763
 21
116.2064660346459
 31
0.0
  0
CIRCLE
  5
F4D
330
1F
100
AcDbEntity
  8
10
100
AcDbCircle
 10
133.9068592688763
 20
118.2271919768099
 30
0.0
 40
3.5
  0
LINE
  5
F4E
330
1F
100
AcDbEntity
  8
12
100
AcDbLine
 10
133.9068592688763
 20
125.2686438611362
 30
0.0
 11
133.9068592688763
 21
111.1857400924818
 31
0.0
  0
CIRCLE
  5
F4F
330
1F
100
AcDbEntity
  8
10
100
AcDbCircle
 10
133.9068592688763
 20
118.2271919768099
 30
0.0
 40
1.999999999999999
  0
LINE
  5
F50
330
1F
100
AcDbEntity
  8
12
100
AcDbLine
 10
128.9068592688763
 20
118.2271919768099
 30
0.0
 11
138.9068592688763
 21
118.2271919768099
 31
0.0
  0
LINE
  5
F51
330
1F
100
AcDbEntity
  8
12
100
AcDbLine
 10
133.9068592688763
 20
123.227191976809
 30
0.0
 11
133.9068592688763
 21
113.227191976809
 31
0.0
  0
CIRCLE
  5
F52
330
1F
100
AcDbEntity
  8
10
100
AcDbCircle
 10
133.9068592688763
 20
53.26719197680905
 30
0.0
 40
4.5
  0
LINE
  5
F53
330
1F
100
AcDbEntity
  8
12
100
AcDbLine
 10
126.4068592688763
 20
53.26719197680905
 30
0.0
 11
141.4068592688763
 21
53.26719197680905
 31
0.0
  0
LINE
  5
F54
330
1F
100
AcDbEntity
  8
12
100
AcDbLine
 10
133.9068592688763
 20
60.76719197680905
 30
0.0
 11
133.9068592688763
 21
45.76719197680904
 31
0.0
  0
LINE
  5
F55
330
1F
100
AcDbEntity
  8
12
100
AcDbLine
 10
126.8654073845482
 20
53.26719197680905
 30
0.0
 11
140.9483111532044
 21
53.26719197680905
 31
0.0
  0
LINE
  5
F56
330
1F
100
AcDbEntity
  8
10
100
AcDbLine
 10
130.4068592688763
 20
51.24646603464589
 30
0.0
 11
133.9068592688763
 21
49.22574009248092
 31
0.0
  0
LINE
  5
F57
330
1F
100
AcDbEntity
  8
10
100
AcDbLine
 10
133.9068592688763
 20
49.22574009248092
 30
0.0
 11
137.4068592688763
 21
51.24646603464589
 31
0.0
  0
LINE
  5
F58
330
1F
100
AcDbEntity
  8
10
100
AcDbLine
 10
137.4068592688763
 20
51.24646603464589
 30
0.0
 11
137.4068592688763
 21
55.28791791897401
 31
0.0
  0
LINE
  5
F59
330
1F
100
AcDbEntity
  8
10
100
AcDbLine
 10
137.4068592688763
 20
55.28791791897401
 30
0.0
 11
133.9068592688763
 21
57.30864386113717
 31
0.0
  0
LINE
  5
F5A
330
1F
100
AcDbEntity
  8
10
100
AcDbLine
 10
133.9068592688763
 20
57.30864386113717
 30
0.0
 11
130.4068592688763
 21
55.28791791897401
 31
0.0
  0
LINE
  5
F5B
330
1F
100
AcDbEntity
  8
10
100
AcDbLine
 10
130.4068592688763
 20
55.28791791897401
 30
0.0
 11
130.4068592688763
 21
51.24646603464589
 31
0.0
  0
CIRCLE
  5
F5C
330
1F
100
AcDbEntity
  8
10
100
AcDbCircle
 10
133.9068592688763
 20
53.26719197680905
 30
0.0
 40
3.5
  0
LINE
  5
F5D
330
1F
100
AcDbEntity
  8
12
100
AcDbLine
 10
133.9068592688763
 20
60.30864386113717
 30
0.0
 11
133.9068592688763
 21
46.22574009248182
 31
0.0
  0
CIRCLE
  5
F5E
330
1F
100
AcDbEntity
  8
10
100
AcDbCircle
 10
133.9068592688763
 20
53.26719197680905
 30
0.0
 40
1.999999999999999
  0
LINE
  5
F5F
330
1F
100
AcDbEntity
  8
12
100
AcDbLine
 10
128.9068592688763
 20
53.26719197680905
 30
0.0
 11
138.9068592688763
 21
53.26719197680905
 31
0.0
  0
LINE
  5
F60
330
1F
100
AcDbEntity
  8
12
100
AcDbLine
 10
133.9068592688763
 20
58.26719197680905
 30
0.0
 11
133.9068592688763
 21
48.26719197680905
 31
0.0
  0
CIRCLE
  5
F61
330
1F
100
AcDbEntity
  8
10
100
AcDbCircle
 10
54.90685926887636
 20
53.26719197680905
 30
0.0
 40
4.5
  0
LINE
  5
F62
330
1F
100
AcDbEntity
  8
12
100
AcDbLine
 10
47.40685926887636
 20
53.26719197680905
 30
0.0
 11
62.40685926887636
 21
53.26719197680905
 31
0.0
  0
LINE
  5
F63
330
1F
100
AcDbEntity
  8
12
100
AcDbLine
 10
54.90685926887636
 20
60.76719197680905
 30
0.0
 11
54.90685926887636
 21
45.76719197680904
 31
0.0
  0
LINE
  5
F64
330
1F
100
AcDbEntity
  8
12
100
AcDbLine
 10
47.86540738454823
 20
53.26719197680905
 30
0.0
 11
61.94831115320266
 21
53.26719197680905
 31
0.0
  0
LINE
  5
F65
330
1F
100
AcDbEntity
  8
10
100
AcDbLine
 10
51.40685926887636
 20
51.24646603464589
 30
0.0
 11
54.90685926887636
 21
49.22574009248092
 31
0.0
  0
LINE
  5
F66
330
1F
100
AcDbEntity
  8
10
100
AcDbLine
 10
54.90685926887636
 20
49.22574009248092
 30
0.0
 11
58.40685926887636
 21
51.24646603464589
 31
0.0
  0
LINE
  5
F67
330
1F
100
AcDbEntity
  8
10
100
AcDbLine
 10
58.40685926887636
 20
51.24646603464589
 30
0.0
 11
58.40685926887636
 21
55.28791791897401
 31
0.0
  0
LINE
  5
F68
330
1F
100
AcDbEntity
  8
10
100
AcDbLine
 10
58.40685926887636
 20
55.28791791897401
 30
0.0
 11
54.90685926887636
 21
57.30864386113717
 31
0.0
  0
LINE
  5
F69
330
1F
100
AcDbEntity
  8
10
100
AcDbLine
 10
54.90685926887636
 20
57.30864386113717
 30
0.0
 11
51.40685926887636
 21
55.28791791897401
 31
0.0
  0
LINE
  5
F6A
330
1F
100
AcDbEntity
  8
10
100
AcDbLine
 10
51.40685926887636
 20
55.28791791897401
 30
0.0
 11
51.40685926887636
 21
51.24646603464589
 31
0.0
  0
CIRCLE
  5
F6B
330
1F
100
AcDbEntity
  8
10
100
AcDbCircle
 10
54.90685926887636
 20
53.26719197680905
 30
0.0
 40
3.5
  0
LINE
  5
F6C
330
1F
100
AcDbEntity
  8
12
100
AcDbLine
 10
54.90685926887636
 20
60.30864386113717
 30
0.0
 11
54.90685926887636
 21
46.22574009248182
 31
0.0
  0
CIRCLE
  5
F6D
330
1F
100
AcDbEntity
  8
10
100
AcDbCircle
 10
54.90685926887636
 20
53.26719197680905
 30
0.0
 40
1.999999999999999
  0
LINE
  5
F6E
330
1F
100
AcDbEntity
  8
12
100
AcDbLine
 10
49.90685926887636
 20
53.26719197680905
 30
0.0
 11
59.90685926887636
 21
53.26719197680905
 31
0.0
  0
LINE
  5
F6F
330
1F
100
AcDbEntity
  8
12
100
AcDbLine
 10
54.90685926887636
 20
58.26719197680905
 30
0.0
 11
54.90685926887636
 21
48.26719197680905
 31
0.0
  0
LINE
  5
F70
330
1F
100
AcDbEntity
  8
12
100
AcDbLine
 10
64.40685926887636
 20
41.86892566656843
 30
0.0
 11
64.40685926887636
 21
37.01491978661215
 31
0.0
  0
LINE
  5
F71
330
1F
100
AcDbEntity
  8
12
100
AcDbLine
 10
124.4068592688763
 20
41.86892566656843
 30
0.0
 11
124.4068592688763
 21
37.01491978661215
 31
0.0
  0
LINE
  5
F72
330
1F
100
AcDbEntity
  8
10
100
AcDbLine
 10
260.6451127723894
 20
153.2271919768099
 30
0.0
 11
285.9102589307713
 21
153.2271919768099
 31
0.0
  0
ARC
  5
F73
330
1F
100
AcDbEntity
  8
10
100
AcDbCircle
 10
285.9102589307713
 20
133.2271919768099
 30
0.0
 40
20.0
100
AcDbArc
 50
0.0
 51
90.0
  0
LINE
  5
F74
330
1F
100
AcDbEntity
  8
10
100
AcDbLine
 10
305.9102589307713
 20
133.2271919768099
 30
0.0
 11
305.9102589307713
 21
109.727191976809
 31
0.0
  0
LINE
  5
F75
330
1F
100
AcDbEntity
  8
10
100
AcDbLine
 10
254.6451127723912
 20
138.4271919768089
 30
0.0
 11
230.9451127723896
 21
138.4271919768089
 31
0.0
  0
LINE
  5
F76
330
1F
100
AcDbEntity
  8
10
100
AcDbLine
 10
230.9451127723896
 20
138.4271919768089
 30
0.0
 11
230.9451127723896
 21
111.227191976809
 31
0.0
  0
LINE
  5
F77
330
1F
100
AcDbEntity
  8
10
100
AcDbLine
 10
230.9451127723896
 20
111.227191976809
 30
0.0
 11
228.6451127723894
 21
111.227191976809
 31
0.0
  0
LINE
  5
F78
330
1F
100
AcDbEntity
  8
10
100
AcDbLine
 10
228.6451127723894
 20
111.227191976809
 30
0.0
 11
228.6451127723894
 21
140.7271919768099
 31
0.0
  0
LINE
  5
F79
330
1F
100
AcDbEntity
  8
10
100
AcDbLine
 10
228.6451127723894
 20
140.7271919768099
 30
0.0
 11
254.6451127723912
 21
140.7271919768099
 31
0.0
  0
LINE
  5
F7A
330
1F
100
AcDbEntity
  8
10
100
AcDbLine
 10
254.6451127723912
 20
140.7271919768099
 30
0.0
 11
254.6451127723912
 21
138.4271919768089
 31
0.0
  0
LINE
  5
F7B
330
1F
100
AcDbEntity
  8
10
100
AcDbLine
 10
228.6451127723912
 20
164.2271919768099
 30
0.0
 11
239.1451127723912
 21
164.2271919768099
 31
0.0
  0
ARC
  5
F7C
330
1F
100
AcDbEntity
  8
10
100
AcDbCircle
 10
228.6451127723912
 20
162.2271919768099
 30
0.0
 40
2.0
100
AcDbArc
 50
90.0
 51
180.0
  0
ARC
  5
F7D
330
1F
100
AcDbEntity
  8
10
100
AcDbCircle
 10
258.6451127723912
 20
162.2271919768099
 30
0.0
 40
2.0
100
AcDbArc
 50
0.0
 51
90.0
  0
LINE
  5
F7E
330
1F
100
AcDbEntity
  8
10
100
AcDbLine
 10
258.6451127723912
 20
164.2271919768099
 30
0.0
 11
248.1451127723912
 21
164.2271919768099
 31
0.0
  0
LINE
  5
F7F
330
1F
100
AcDbEntity
  8
10
100
AcDbLine
 10
248.1451127723912
 20
148.7271919768099
 30
0.0
 11
239.1451127723912
 21
148.7271919768099
 31
0.0
  0
LINE
  5
F80
330
1F
100
AcDbEntity
  8
12
100
AcDbLine
 10
297.4451127723914
 20
41.86892566656843
 30
0.0
 11
297.4451127723914
 21
37.01491978661215
 31
0.0
  0
LINE
  5
F81
330
1F
100
AcDbEntity
  8
12
100
AcDbLine
 10
217.4451127723914
 20
41.86892566656843
 30
0.0
 11
217.4451127723914
 21
37.01491978661215
 31
0.0
  0
LINE
  5
F82
330
1F
100
AcDbEntity
  8
10
100
AcDbLine
 10
232.4451127723896
 20
45.26719197680904
 30
0.0
 11
282.4451127723914
 21
45.26719197680904
 31
0.0
1001
GENIUS_GENREC_14
1002
{
1000
PYDIR
1011
232.4451127723896
1021
61.26719197680905
1031
0.0
1002
}
1002
{
1000
PXDIR
1011
282.4451127723914
1021
45.26719197680904
1031
0.0
1002
}
1002
{
1000
PORI
1011
232.4451127723896
1021
45.26719197680904
1031
0.0
1002
}
1002
{
1000
PINS
1011
232.4451127723896
1021
45.26719197680904
1031
0.0
1002
}
1002
{
1000
PINS2
1011
282.4451127723914
1021
61.26719197680905
1031
0.0
1002
}
1002
{
1000
C
1070
     1
1002
}
1001
GENIUS_GENODEF_13
1002
{
1000
HIER
1070
     0
1002
}
1002
{
1000
MANEDIT
1070
     0
1002
}
1002
{
1000
NOSEL
1070
     0
1002
}
1002
{
1000
BEHIND
1070
     0
1002
}
1002
{
1000
OTHER
1070
     0
1002
}
1002
{
1000
REACTOR
1002
}
1001
GENIUS_GENOBJ-N-REC_13
1002
{
1000
OWNER
1000
GEN
1002
}
  0
LINE
  5
F83
330
1F
100
AcDbEntity
  8
10
100
AcDbLine
 10
282.4451127723914
 20
45.26719197680904
 30
0.0
 11
282.4451127723914
 21
61.26719197680905
 31
0.0
1001
GENIUS_GENREC_14
1002
{
1000
PYDIR
1011
232.4451127723896
1021
61.26719197680905
1031
0.0
1002
}
1002
{
1000
PXDIR
1011
282.4451127723914
1021
45.26719197680904
1031
0.0
1002
}
1002
{
1000
PORI
1011
232.4451127723896
1021
45.26719197680904
1031
0.0
1002
}
1002
{
1000
PINS
1011
232.4451127723896
1021
45.26719197680904
1031
0.0
1002
}
1002
{
1000
PINS2
1011
282.4451127723914
1021
61.26719197680905
1031
0.0
1002
}
1002
{
1000
C
1070
     1
1002
}
1001
GENIUS_GENODEF_13
1002
{
1000
HIER
1070
     0
1002
}
1002
{
1000
MANEDIT
1070
     0
1002
}
1002
{
1000
NOSEL
1070
     0
1002
}
1002
{
1000
BEHIND
1070
     0
1002
}
1002
{
1000
OTHER
1070
     0
1002
}
1002
{
1000
REACTOR
1002
}
1001
GENIUS_GENOBJ-N-REC_13
1002
{
1000
OWNER
1000
GEN
1002
}
  0
LINE
  5
F84
330
1F
100
AcDbEntity
  8
10
100
AcDbLine
 10
282.4451127723914
 20
61.26719197680905
 30
0.0
 11
232.4451127723896
 21
61.26719197680905
 31
0.0
1001
GENIUS_GENREC_14
1002
{
1000
PYDIR
1011
232.4451127723896
1021
61.26719197680905
1031
0.0
1002
}
1002
{
1000
PXDIR
1011
282.4451127723914
1021
45.26719197680904
1031
0.0
1002
}
1002
{
1000
PORI
1011
232.4451127723896
1021
45.26719197680904
1031
0.0
1002
}
1002
{
1000
PINS
1011
232.4451127723896
1021
45.26719197680904
1031
0.0
1002
}
1002
{
1000
PINS2
1011
282.4451127723914
1021
61.26719197680905
1031
0.0
1002
}
1002
{
1000
C
1070
     1
1002
}
1001
GENIUS_GENODEF_13
1002
{
1000
HIER
1070
     0
1002
}
1002
{
1000
MANEDIT
1070
     0
1002
}
1002
{
1000
NOSEL
1070
     0
1002
}
1002
{
1000
BEHIND
1070
     0
1002
}
1002
{
1000
OTHER
1070
     0
1002
}
1002
{
1000
REACTOR
1002
}
1001
GENIUS_GENOBJ-N-REC_13
1002
{
1000
OWNER
1000
GEN
1002
}
  0
LINE
  5
F85
330
1F
100
AcDbEntity
  8
10
100
AcDbLine
 10
232.4451127723896
 20
61.26719197680905
 30
0.0
 11
232.4451127723896
 21
45.26719197680904
 31
0.0
1001
GENIUS_GENREC_14
1002
{
1000
PYDIR
1011
232.4451127723896
1021
61.26719197680905
1031
0.0
1002
}
1002
{
1000
PXDIR
1011
282.4451127723914
1021
45.26719197680904
1031
0.0
1002
}
1002
{
1000
PORI
1011
232.4451127723896
1021
45.26719197680904
1031
0.0
1002
}
1002
{
1000
PINS
1011
232.4451127723896
1021
45.26719197680904
1031
0.0
1002
}
1002
{
1000
PINS2
1011
282.4451127723914
1021
61.26719197680905
1031
0.0
1002
}
1002
{
1000
C
1070
     1
1002
}
1001
GENIUS_GENODEF_13
1002
{
1000
HIER
1070
     0
1002
}
1002
{
1000
MANEDIT
1070
     0
1002
}
1002
{
1000
NOSEL
1070
     0
1002
}
1002
{
1000
BEHIND
1070
     0
1002
}
1002
{
1000
OTHER
1070
     0
1002
}
1002
{
1000
REACTOR
1002
}
1001
GENIUS_GENOBJ-N-REC_13
1002
{
1000
OWNER
1000
GEN
1002
}
  0
LINE
  5
F86
330
1F
100
AcDbEntity
  8
10
100
AcDbLine
 10
78.40685926887636
 20
62.72719197680908
 30
0.0
 11
78.40685926887636
 21
62.22719197680908
 31
0.0
  0
LINE
  5
F87
330
1F
100
AcDbEntity
  8
10
100
AcDbLine
 10
78.40685926887636
 20
62.22719197680908
 30
0.0
 11
110.4068592688763
 21
62.22719197680908
 31
0.0
  0
LINE
  5
F88
330
1F
100
AcDbEntity
  8
10
100
AcDbLine
 10
110.4068592688763
 20
62.22719197680908
 30
0.0
 11
110.4068592688763
 21
62.72719197680908
 31
0.0
  0
LINE
  5
F89
330
1F
100
AcDbEntity
  8
10
100
AcDbLine
 10
283.9451127723914
 20
109.727191976809
 30
0.0
 11
307.4451127723896
 21
109.727191976809
 31
0.0
  0
LINE
  5
F8A
330
1F
100
AcDbEntity
  8
10
100
AcDbLine
 10
307.4451127723896
 20
109.727191976809
 30
0.0
 11
307.4451127723896
 21
62.72719197680908
 31
0.0
  0
LINE
  5
F8B
330
1F
100
AcDbEntity
  8
10
100
AcDbLine
 10
307.4451127723896
 20
62.72719197680908
 30
0.0
 11
283.9451127723914
 21
62.72719197680908
 31
0.0
  0
LINE
  5
F8C
330
1F
100
AcDbEntity
  8
10
100
AcDbLine
 10
283.9451127723914
 20
126.227191976809
 30
0.0
 11
283.9451127723914
 21
40.72719197680908
 31
0.0
  0
LINE
  5
F8D
330
1F
100
AcDbEntity
  8
10
100
AcDbLine
 10
283.9451127723914
 20
40.72719197680908
 30
0.0
 11
307.4451127723896
 21
40.72719197680908
 31
0.0
  0
LINE
  5
F8E
330
1F
100
AcDbEntity
  8
10
100
AcDbLine
 10
307.4451127723896
 20
40.72719197680908
 30
0.0
 11
307.4451127723896
 21
39.22719197680908
 31
0.0
  0
LINE
  5
F8F
330
1F
100
AcDbEntity
  8
10
100
AcDbLine
 10
307.4451127723896
 20
39.22719197680908
 30
0.0
 11
282.4451127723914
 21
39.22719197680908
 31
0.0
  0
LINE
  5
F90
330
1F
100
AcDbEntity
  8
10
100
AcDbLine
 10
282.4451127723914
 20
39.22719197680908
 30
0.0
 11
282.4451127723914
 21
126.227191976809
 31
0.0
  0
LINE
  5
F91
330
1F
100
AcDbEntity
  8
10
100
AcDbLine
 10
282.4451127723914
 20
126.227191976809
 30
0.0
 11
283.9451127723914
 21
126.227191976809
 31
0.0
  0
LINE
  5
F92
330
1F
100
AcDbEntity
  8
10
100
AcDbLine
 10
142.4068592688763
 20
62.22719197680908
 30
0.0
 11
142.4068592688763
 21
111.227191976809
 31
0.0
  0
LINE
  5
F93
330
1F
100
AcDbEntity
  8
10
100
AcDbLine
 10
110.4068592688763
 20
109.727191976809
 30
0.0
 11
110.4068592688763
 21
110.2271919768099
 31
0.0
  0
LINE
  5
F94
330
1F
100
AcDbEntity
  8
10
100
AcDbLine
 10
110.4068592688763
 20
110.2271919768099
 30
0.0
 11
126.4068592688763
 21
110.2271919768099
 31
0.0
  0
LINE
  5
F95
330
1F
100
AcDbEntity
  8
10
100
AcDbLine
 10
126.4068592688763
 20
110.2271919768099
 30
0.0
 11
126.4068592688763
 21
62.22719197680908
 31
0.0
  0
LINE
  5
F96
330
1F
100
AcDbEntity
  8
10
100
AcDbLine
 10
126.4068592688763
 20
62.22719197680908
 30
0.0
 11
126.9068592688763
 21
62.22719197680908
 31
0.0
  0
LINE
  5
F97
330
1F
100
AcDbEntity
  8
10
100
AcDbLine
 10
142.4068592688763
 20
62.22719197680908
 30
0.0
 11
142.4068592688763
 21
111.227191976809
 31
0.0
  0
LINE
  5
F98
330
1F
100
AcDbEntity
  8
10
100
AcDbLine
 10
230.9451127723896
 20
109.727191976809
 30
0.0
 11
212.4451127723914
 21
109.727191976809
 31
0.0
  0
LINE
  5
F99
330
1F
100
AcDbEntity
  8
10
100
AcDbLine
 10
212.4451127723914
 20
109.727191976809
 30
0.0
 11
212.4451127723914
 21
62.72719197680908
 31
0.0
  0
LINE
  5
F9A
330
1F
100
AcDbEntity
  8
10
100
AcDbLine
 10
212.4451127723914
 20
62.72719197680908
 30
0.0
 11
230.9451127723896
 21
62.72719197680908
 31
0.0
  0
LINE
  5
F9B
330
1F
100
AcDbEntity
  8
10
100
AcDbLine
 10
230.9451127723896
 20
126.227191976809
 30
0.0
 11
230.9451127723896
 21
40.72719197680908
 31
0.0
  0
LINE
  5
F9C
330
1F
100
AcDbEntity
  8
10
100
AcDbLine
 10
230.9451127723896
 20
40.72719197680908
 30
0.0
 11
207.4451127723914
 21
40.72719197680908
 31
0.0
  0
LINE
  5
F9D
330
1F
100
AcDbEntity
  8
10
100
AcDbLine
 10
207.4451127723914
 20
40.72719197680908
 30
0.0
 11
207.4451127723914
 21
39.22719197680908
 31
0.0
  0
LINE
  5
F9E
330
1F
100
AcDbEntity
  8
10
100
AcDbLine
 10
207.4451127723914
 20
39.22719197680908
 30
0.0
 11
232.4451127723896
 21
39.22719197680908
 31
0.0
  0
LINE
  5
F9F
330
1F
100
AcDbEntity
  8
10
100
AcDbLine
 10
232.4451127723896
 20
39.22719197680908
 30
0.0
 11
232.4451127723896
 21
126.227191976809
 31
0.0
  0
LINE
  5
FA0
330
1F
100
AcDbEntity
  8
10
100
AcDbLine
 10
232.4451127723896
 20
126.227191976809
 30
0.0
 11
230.9451127723896
 21
126.227191976809
 31
0.0
  0
LINE
  5
FA1
330
1F
100
AcDbEntity
  8
10
100
AcDbLine
 10
282.4451127723914
 20
62.22719197680908
 30
0.0
 11
232.4451127723896
 21
62.22719197680908
 31
0.0
1001
GENIUS_GENREC_14
1002
{
1000
PYDIR
1011
282.4451127723914
1021
126.227191976809
1031
0.0
1002
}
1002
{
1000
PXDIR
1011
232.4451127723896
1021
62.22719197680908
1031
0.0
1002
}
1002
{
1000
PORI
1011
282.4451127723914
1021
62.22719197680908
1031
0.0
1002
}
1002
{
1000
PINS
1011
282.4451127723914
1021
62.22719197680908
1031
0.0
1002
}
1002
{
1000
PINS2
1011
232.4451127723896
1021
126.227191976809
1031
0.0
1002
}
1002
{
1000
C
1070
     1
1002
}
1001
GENIUS_GENODEF_13
1002
{
1000
HIER
1070
     0
1002
}
1002
{
1000
MANEDIT
1070
     0
1002
}
1002
{
1000
NOSEL
1070
     0
1002
}
1002
{
1000
BEHIND
1070
     0
1002
}
1002
{
1000
OTHER
1070
     0
1002
}
1002
{
1000
REACTOR
1002
}
1001
GENIUS_GENOBJ-N-REC_13
1002
{
1000
OWNER
1000
GEN
1002
}
  0
LINE
  5
FA2
330
1F
100
AcDbEntity
  8
10
100
AcDbLine
 10
232.4451127723896
 20
62.22719197680908
 30
0.0
 11
232.4451127723896
 21
126.227191976809
 31
0.0
1001
GENIUS_GENREC_14
1002
{
1000
PYDIR
1011
282.4451127723914
1021
126.227191976809
1031
0.0
1002
}
1002
{
1000
PXDIR
1011
232.4451127723896
1021
62.22719197680908
1031
0.0
1002
}
1002
{
1000
PORI
1011
282.4451127723914
1021
62.22719197680908
1031
0.0
1002
}
1002
{
1000
PINS
1011
282.4451127723914
1021
62.22719197680908
1031
0.0
1002
}
1002
{
1000
PINS2
1011
232.4451127723896
1021
126.227191976809
1031
0.0
1002
}
1002
{
1000
C
1070
     1
1002
}
1001
GENIUS_GENODEF_13
1002
{
1000
HIER
1070
     0
1002
}
1002
{
1000
MANEDIT
1070
     0
1002
}
1002
{
1000
NOSEL
1070
     0
1002
}
1002
{
1000
BEHIND
1070
     0
1002
}
1002
{
1000
OTHER
1070
     0
1002
}
1002
{
1000
REACTOR
1002
}
1001
GENIUS_GENOBJ-N-REC_13
1002
{
1000
OWNER
1000
GEN
1002
}
  0
LINE
  5
FA3
330
1F
100
AcDbEntity
  8
10
100
AcDbLine
 10
232.4451127723896
 20
126.227191976809
 30
0.0
 11
282.4451127723914
 21
126.227191976809
 31
0.0
1001
GENIUS_GENREC_14
1002
{
1000
PYDIR
1011
282.4451127723914
1021
126.227191976809
1031
0.0
1002
}
1002
{
1000
PXDIR
1011
232.4451127723896
1021
62.22719197680908
1031
0.0
1002
}
1002
{
1000
PORI
1011
282.4451127723914
1021
62.22719197680908
1031
0.0
1002
}
1002
{
1000
PINS
1011
282.4451127723914
1021
62.22719197680908
1031
0.0
1002
}
1002
{
1000
PINS2
1011
232.4451127723896
1021
126.227191976809
1031
0.0
1002
}
1002
{
1000
C
1070
     1
1002
}
1001
GENIUS_GENODEF_13
1002
{
1000
HIER
1070
     0
1002
}
1002
{
1000
MANEDIT
1070
     0
1002
}
1002
{
1000
NOSEL
1070
     0
1002
}
1002
{
1000
BEHIND
1070
     0
1002
}
1002
{
1000
OTHER
1070
     0
1002
}
1002
{
1000
REACTOR
1002
}
1001
GENIUS_GENOBJ-N-REC_13
1002
{
1000
OWNER
1000
GEN
1002
}
  0
LINE
  5
FA4
330
1F
100
AcDbEntity
  8
10
100
AcDbLine
 10
282.4451127723914
 20
126.227191976809
 30
0.0
 11
282.4451127723914
 21
62.22719197680908
 31
0.0
1001
GENIUS_GENREC_14
1002
{
1000
PYDIR
1011
282.4451127723914
1021
126.227191976809
1031
0.0
1002
}
1002
{
1000
PXDIR
1011
232.4451127723896
1021
62.22719197680908
1031
0.0
1002
}
1002
{
1000
PORI
1011
282.4451127723914
1021
62.22719197680908
1031
0.0
1002
}
1002
{
1000
PINS
1011
282.4451127723914
1021
62.22719197680908
1031
0.0
1002
}
1002
{
1000
PINS2
1011
232.4451127723896
1021
126.227191976809
1031
0.0
1002
}
1002
{
1000
C
1070
     1
1002
}
1001
GENIUS_GENODEF_13
1002
{
1000
HIER
1070
     0
1002
}
1002
{
1000
MANEDIT
1070
     0
1002
}
1002
{
1000
NOSEL
1070
     0
1002
}
1002
{
1000
BEHIND
1070
     0
1002
}
1002
{
1000
OTHER
1070
     0
1002
}
1002
{
1000
REACTOR
1002
}
1001
GENIUS_GENOBJ-N-REC_13
1002
{
1000
OWNER
1000
GEN
1002
}
  0
LINE
  5
FA5
330
1F
100
AcDbEntity
  8
10
100
AcDbLine
 10
46.40685926887636
 20
126.227191976809
 30
0.0
 11
46.40685926887636
 21
113.227191976809
 31
0.0
  0
LINE
  5
FA6
330
1F
100
AcDbEntity
  8
10
100
AcDbLine
 10
46.40685926887636
 20
111.227191976809
 30
0.0
 11
46.40685926887636
 21
62.22719197680908
 31
0.0
  0
LINE
  5
FA7
330
1F
100
AcDbEntity
  8
10
100
AcDbLine
 10
46.40685926887636
 20
111.227191976809
 30
0.0
 11
46.40685926887636
 21
62.22719197680908
 31
0.0
  0
LINE
  5
FA8
330
1F
100
AcDbEntity
  8
10
100
AcDbLine
 10
61.90685926887636
 20
62.22719197680908
 30
0.0
 11
62.40685926887636
 21
62.22719197680908
 31
0.0
  0
LINE
  5
FA9
330
1F
100
AcDbEntity
  8
10
100
AcDbLine
 10
62.40685926887636
 20
62.22719197680908
 30
0.0
 11
62.40685926887636
 21
110.2271919768099
 31
0.0
  0
LINE
  5
FAA
330
1F
100
AcDbEntity
  8
10
100
AcDbLine
 10
62.40685926887636
 20
110.2271919768099
 30
0.0
 11
78.40685926887636
 21
110.2271919768099
 31
0.0
  0
LINE
  5
FAB
330
1F
100
AcDbEntity
  8
10
100
AcDbLine
 10
78.40685926887636
 20
110.2271919768099
 30
0.0
 11
78.40685926887636
 21
109.727191976809
 31
0.0
  0
LINE
  5
FAC
330
1F
100
AcDbEntity
  8
10
100
AcDbLine
 10
126.4068592688763
 20
62.22719197680908
 30
0.0
 11
62.40685926887636
 21
62.22719197680908
 31
0.0
  0
LINE
  5
FAD
330
1F
100
AcDbEntity
  8
10
100
AcDbLine
 10
126.9068592688763
 20
61.26719197680905
 30
0.0
 11
126.9068592688763
 21
61.26719197680905
 31
0.0
  0
LINE
  5
FAE
330
1F
100
AcDbEntity
  8
10
100
AcDbLine
 10
126.9068592688763
 20
61.26719197680905
 30
0.0
 11
61.90685926887636
 21
61.26719197680905
 31
0.0
  0
LINE
  5
FAF
330
1F
100
AcDbEntity
  8
10
100
AcDbLine
 10
61.90685926887636
 20
61.26719197680905
 30
0.0
 11
61.90685926887636
 21
61.26719197680905
 31
0.0
  0
LINE
  5
FB0
330
1F
100
AcDbEntity
  8
10
100
AcDbLine
 10
142.4068592688763
 20
40.72719197680908
 30
0.0
 11
46.40685926887636
 21
40.72719197680908
 31
0.0
  0
LINE
  5
FB1
330
1F
100
AcDbEntity
  8
10
100
AcDbLine
 10
46.40685926887636
 20
111.227191976809
 30
0.0
 11
46.40685926887636
 21
39.22719197680908
 31
0.0
  0
LINE
  5
FB2
330
1F
100
AcDbEntity
  8
10
100
AcDbLine
 10
46.40685926887636
 20
39.22719197680908
 30
0.0
 11
142.4068592688763
 21
39.22719197680908
 31
0.0
  0
LINE
  5
FB3
330
1F
100
AcDbEntity
  8
10
100
AcDbLine
 10
142.4068592688763
 20
39.22719197680908
 30
0.0
 11
142.4068592688763
 21
111.227191976809
 31
0.0
  0
LINE
  5
FB4
330
1F
100
AcDbEntity
  8
10
100
AcDbLine
 10
126.9068592688763
 20
111.227191976809
 30
0.0
 11
126.9068592688763
 21
58.22719197680908
 31
0.0
  0
LINE
  5
FB5
330
1F
100
AcDbEntity
  8
10
100
AcDbLine
 10
126.9068592688763
 20
58.22719197680908
 30
0.0
 11
61.90685926887636
 21
58.22719197680908
 31
0.0
  0
LINE
  5
FB6
330
1F
100
AcDbEntity
  8
10
100
AcDbLine
 10
61.90685926887636
 20
58.22719197680908
 30
0.0
 11
61.90685926887636
 21
111.227191976809
 31
0.0
  0
LINE
  5
FB7
330
1F
100
AcDbEntity
  8
10
100
AcDbLine
 10
142.4068592688763
 20
111.227191976809
 30
0.0
 11
46.40685926887636
 21
111.227191976809
 31
0.0
1001
GENIUS_GENREC_14
1002
{
1000
PYDIR
1011
142.4068592688763
1021
140.7271919768099
1031
0.0
1002
}
1002
{
1000
PXDIR
1011
46.40685926887636
1021
111.227191976809
1031
0.0
1002
}
1002
{
1000
PORI
1011
142.4068592688763
1021
111.227191976809
1031
0.0
1002
}
1002
{
1000
PINS
1011
142.4068592688763
1021
111.227191976809
1031
0.0
1002
}
1002
{
1000
PINS2
1011
46.40685926887636
1021
140.7271919768099
1031
0.0
1002
}
1002
{
1000
C
1070
     1
1002
}
1001
GENIUS_GENODEF_13
1002
{
1000
HIER
1070
     0
1002
}
1002
{
1000
MANEDIT
1070
     0
1002
}
1002
{
1000
NOSEL
1070
     0
1002
}
1002
{
1000
BEHIND
1070
     0
1002
}
1002
{
1000
OTHER
1070
     0
1002
}
1002
{
1000
REACTOR
1002
}
1001
GENIUS_GENOBJ-N-REC_13
1002
{
1000
OWNER
1000
GEN
1002
}
  0
LINE
  5
FB8
330
1F
100
AcDbEntity
  8
10
100
AcDbLine
 10
46.40685926887636
 20
111.227191976809
 30
0.0
 11
46.40685926887636
 21
140.7271919768099
 31
0.0
1001
GENIUS_GENREC_14
1002
{
1000
PYDIR
1011
142.4068592688763
1021
140.7271919768099
1031
0.0
1002
}
1002
{
1000
PXDIR
1011
46.40685926887636
1021
111.227191976809
1031
0.0
1002
}
1002
{
1000
PORI
1011
142.4068592688763
1021
111.227191976809
1031
0.0
1002
}
1002
{
1000
PINS
1011
142.4068592688763
1021
111.227191976809
1031
0.0
1002
}
1002
{
1000
PINS2
1011
46.40685926887636
1021
140.7271919768099
1031
0.0
1002
}
1002
{
1000
C
1070
     1
1002
}
1001
GENIUS_GENODEF_13
1002
{
1000
HIER
1070
     0
1002
}
1002
{
1000
MANEDIT
1070
     0
1002
}
1002
{
1000
NOSEL
1070
     0
1002
}
1002
{
1000
BEHIND
1070
     0
1002
}
1002
{
1000
OTHER
1070
     0
1002
}
1002
{
1000
REACTOR
1002
}
1001
GENIUS_GENOBJ-N-REC_13
1002
{
1000
OWNER
1000
GEN
1002
}
  0
LINE
  5
FB9
330
1F
100
AcDbEntity
  8
10
100
AcDbLine
 10
46.40685926887636
 20
140.7271919768099
 30
0.0
 11
142.4068592688763
 21
140.7271919768099
 31
0.0
1001
GENIUS_GENREC_14
1002
{
1000
PYDIR
1011
142.4068592688763
1021
140.7271919768099
1031
0.0
1002
}
1002
{
1000
PXDIR
1011
46.40685926887636
1021
111.227191976809
1031
0.0
1002
}
1002
{
1000
PORI
1011
142.4068592688763
1021
111.227191976809
1031
0.0
1002
}
1002
{
1000
PINS
1011
142.4068592688763
1021
111.227191976809
1031
0.0
1002
}
1002
{
1000
PINS2
1011
46.40685926887636
1021
140.7271919768099
1031
0.0
1002
}
1002
{
1000
C
1070
     1
1002
}
1001
GENIUS_GENODEF_13
1002
{
1000
HIER
1070
     0
1002
}
1002
{
1000
MANEDIT
1070
     0
1002
}
1002
{
1000
NOSEL
1070
     0
1002
}
1002
{
1000
BEHIND
1070
     0
1002
}
1002
{
1000
OTHER
1070
     0
1002
}
1002
{
1000
REACTOR
1002
}
1001
GENIUS_GENOBJ-N-REC_13
1002
{
1000
OWNER
1000
GEN
1002
}
  0
LINE
  5
FBA
330
1F
100
AcDbEntity
  8
10
100
AcDbLine
 10
142.4068592688763
 20
140.7271919768099
 30
0.0
 11
142.4068592688763
 21
111.227191976809
 31
0.0
1001
GENIUS_GENREC_14
1002
{
1000
PYDIR
1011
142.4068592688763
1021
140.7271919768099
1031
0.0
1002
}
1002
{
1000
PXDIR
1011
46.40685926887636
1021
111.227191976809
1031
0.0
1002
}
1002
{
1000
PORI
1011
142.4068592688763
1021
111.227191976809
1031
0.0
1002
}
1002
{
1000
PINS
1011
142.4068592688763
1021
111.227191976809
1031
0.0
1002
}
1002
{
1000
PINS2
1011
46.40685926887636
1021
140.7271919768099
1031
0.0
1002
}
1002
{
1000
C
1070
     1
1002
}
1001
GENIUS_GENODEF_13
1002
{
1000
HIER
1070
     0
1002
}
1002
{
1000
MANEDIT
1070
     0
1002
}
1002
{
1000
NOSEL
1070
     0
1002
}
1002
{
1000
BEHIND
1070
     0
1002
}
1002
{
1000
OTHER
1070
     0
1002
}
1002
{
1000
REACTOR
1002
}
1001
GENIUS_GENOBJ-N-REC_13
1002
{
1000
OWNER
1000
GEN
1002
}
  0
LINE
  5
FBB
330
1F
100
AcDbEntity
  8
10
100
AcDbLine
 10
63.40685926887636
 20
109.727191976809
 30
0.0
 11
125.4068592688763
 21
109.727191976809
 31
0.0
1001
GENIUS_GENREC_14
1002
{
1000
PYDIR
1011
63.40685926887636
1021
62.72719197680908
1031
0.0
1002
}
1002
{
1000
PXDIR
1011
125.4068592688763
1021
109.727191976809
1031
0.0
1002
}
1002
{
1000
PORI
1011
63.40685926887636
1021
109.727191976809
1031
0.0
1002
}
1002
{
1000
PINS
1011
63.40685926887636
1021
109.727191976809
1031
0.0
1002
}
1002
{
1000
PINS2
1011
125.4068592688763
1021
62.72719197680908
1031
0.0
1002
}
1002
{
1000
C
1070
     1
1002
}
1001
GENIUS_GENOBJ-N-REC_13
1002
{
1000
OWNER
1000
GEN
1002
}
1001
GENIUS_GENODEF_13
1002
{
1000
HIER
1070
     0
1002
}
1002
{
1000
MANEDIT
1070
     0
1002
}
1002
{
1000
NOSEL
1070
     0
1002
}
1002
{
1000
BEHIND
1070
     0
1002
}
1002
{
1000
OTHER
1070
     0
1002
}
1002
{
1000
REACTOR
1002
}
  0
LINE
  5
FBC
330
1F
100
AcDbEntity
  8
10
100
AcDbLine
 10
125.4068592688763
 20
109.727191976809
 30
0.0
 11
125.4068592688763
 21
62.72719197680908
 31
0.0
1001
GENIUS_GENREC_14
1002
{
1000
PYDIR
1011
63.40685926887636
1021
62.72719197680908
1031
0.0
1002
}
1002
{
1000
PXDIR
1011
125.4068592688763
1021
109.727191976809
1031
0.0
1002
}
1002
{
1000
PORI
1011
63.40685926887636
1021
109.727191976809
1031
0.0
1002
}
1002
{
1000
PINS
1011
63.40685926887636
1021
109.727191976809
1031
0.0
1002
}
1002
{
1000
PINS2
1011
125.4068592688763
1021
62.72719197680908
1031
0.0
1002
}
1002
{
1000
C
1070
     1
1002
}
1001
GENIUS_GENOBJ-N-REC_13
1002
{
1000
OWNER
1000
GEN
1002
}
1001
GENIUS_GENODEF_13
1002
{
1000
HIER
1070
     0
1002
}
1002
{
1000
MANEDIT
1070
     0
1002
}
1002
{
1000
NOSEL
1070
     0
1002
}
1002
{
1000
BEHIND
1070
     0
1002
}
1002
{
1000
OTHER
1070
     0
1002
}
1002
{
1000
REACTOR
1002
}
  0
LINE
  5
FBD
330
1F
100
AcDbEntity
  8
10
100
AcDbLine
 10
125.4068592688763
 20
62.72719197680908
 30
0.0
 11
63.40685926887636
 21
62.72719197680908
 31
0.0
1001
GENIUS_GENREC_14
1002
{
1000
PYDIR
1011
63.40685926887636
1021
62.72719197680908
1031
0.0
1002
}
1002
{
1000
PXDIR
1011
125.4068592688763
1021
109.727191976809
1031
0.0
1002
}
1002
{
1000
PORI
1011
63.40685926887636
1021
109.727191976809
1031
0.0
1002
}
1002
{
1000
PINS
1011
63.40685926887636
1021
109.727191976809
1031
0.0
1002
}
1002
{
1000
PINS2
1011
125.4068592688763
1021
62.72719197680908
1031
0.0
1002
}
1002
{
1000
C
1070
     1
1002
}
1001
GENIUS_GENOBJ-N-REC_13
1002
{
1000
OWNER
1000
GEN
1002
}
1001
GENIUS_GENODEF_13
1002
{
1000
HIER
1070
     0
1002
}
1002
{
1000
MANEDIT
1070
     0
1002
}
1002
{
1000
NOSEL
1070
     0
1002
}
1002
{
1000
BEHIND
1070
     0
1002
}
1002
{
1000
OTHER
1070
     0
1002
}
1002
{
1000
REACTOR
1002
}
  0
LINE
  5
FBE
330
1F
100
AcDbEntity
  8
10
100
AcDbLine
 10
63.40685926887636
 20
62.72719197680908
 30
0.0
 11
63.40685926887636
 21
109.727191976809
 31
0.0
1001
GENIUS_GENREC_14
1002
{
1000
PYDIR
1011
63.40685926887636
1021
62.72719197680908
1031
0.0
1002
}
1002
{
1000
PXDIR
1011
125.4068592688763
1021
109.727191976809
1031
0.0
1002
}
1002
{
1000
PORI
1011
63.40685926887636
1021
109.727191976809
1031
0.0
1002
}
1002
{
1000
PINS
1011
63.40685926887636
1021
109.727191976809
1031
0.0
1002
}
1002
{
1000
PINS2
1011
125.4068592688763
1021
62.72719197680908
1031
0.0
1002
}
1002
{
1000
C
1070
     1
1002
}
1001
GENIUS_GENOBJ-N-REC_13
1002
{
1000
OWNER
1000
GEN
1002
}
1001
GENIUS_GENODEF_13
1002
{
1000
HIER
1070
     0
1002
}
1002
{
1000
MANEDIT
1070
     0
1002
}
1002
{
1000
NOSEL
1070
     0
1002
}
1002
{
1000
BEHIND
1070
     0
1002
}
1002
{
1000
OTHER
1070
     0
1002
}
1002
{
1000
REACTOR
1002
}
  0
LINE
  5
FBF
330
1F
100
AcDbEntity
  8
10
100
AcDbLine
 10
102.9068592688763
 20
158.1271919768096
 30
0.0
 11
108.9068592688763
 21
158.1271919768096
 31
0.0
  0
LINE
  5
FC0
330
1F
100
AcDbEntity
  8
10
100
AcDbLine
 10
110.9068592688763
 20
159.2271919768099
 30
0.0
 11
100.9068592688763
 21
159.2271919768099
 31
0.0
  0
LINE
  5
FC1
330
1F
100
AcDbEntity
  8
10
100
AcDbLine
 10
100.9068592688763
 20
153.2271919768099
 30
0.0
 11
110.9068592688763
 21
153.2271919768099
 31
0.0
  0
LINE
  5
FC2
330
1F
100
AcDbEntity
  8
10
100
AcDbLine
 10
112.4068592688763
 20
150.7271919768099
 30
0.0
 11
76.40685926887636
 21
150.7271919768099
 31
0.0
  0
LINE
  5
FC3
330
1F
100
AcDbEntity
  8
10
100
AcDbLine
 10
76.40685926887636
 20
148.7271919768099
 30
0.0
 11
76.40685926887636
 21
140.7271919768099
 31
0.0
  0
LINE
  5
FC4
330
1F
100
AcDbEntity
  8
10
100
AcDbLine
 10
91.40685926887636
 20
158.1271919768096
 30
0.0
 11
97.40685926887636
 21
158.1271919768096
 31
0.0
  0
LINE
  5
FC5
330
1F
100
AcDbEntity
  8
10
100
AcDbLine
 10
99.40685926887637
 20
159.2271919768099
 30
0.0
 11
89.40685926887637
 21
159.2271919768099
 31
0.0
  0
LINE
  5
FC6
330
1F
100
AcDbEntity
  8
10
100
AcDbLine
 10
89.40685926887637
 20
153.2271919768099
 30
0.0
 11
99.40685926887637
 21
153.2271919768099
 31
0.0
  0
LINE
  5
FC7
330
1F
100
AcDbEntity
  8
10
100
AcDbLine
 10
79.90685926887636
 20
158.1271919768096
 30
0.0
 11
85.90685926887635
 21
158.1271919768096
 31
0.0
  0
LINE
  5
FC8
330
1F
100
AcDbEntity
  8
10
100
AcDbLine
 10
77.90685926887636
 20
153.2271919768099
 30
0.0
 11
87.90685926887636
 21
153.2271919768099
 31
0.0
  0
LINE
  5
FC9
330
1F
100
AcDbEntity
  8
10
100
AcDbLine
 10
87.90685926887636
 20
159.2271919768099
 30
0.0
 11
77.90685926887636
 21
159.2271919768099
 31
0.0
  0
LINE
  5
FCA
330
1F
100
AcDbEntity
  8
10
100
AcDbLine
 10
82.90685926887636
 20
155.0271919768101
 30
0.0
 11
83.90685926887636
 21
154.0271919768101
 31
0.0
  0
LINE
  5
FCB
330
1F
100
AcDbEntity
  8
10
100
AcDbLine
 10
82.90685926887636
 20
154.0271919768101
 30
0.0
 11
81.90685926887637
 21
155.0271919768101
 31
0.0
  0
ARC
  5
FCC
330
1F
100
AcDbEntity
  8
10
100
AcDbCircle
 10
79.90685926887636
 20
157.1271919768096
 30
0.0
 40
1.0
100
AcDbArc
 50
90.0
 51
180.0
  0
ARC
  5
FCD
330
1F
100
AcDbEntity
  8
10
100
AcDbCircle
 10
91.40685926887636
 20
157.1271919768096
 30
0.0
 40
1.0
100
AcDbArc
 50
90.0
 51
180.0
  0
ARC
  5
FCE
330
1F
100
AcDbEntity
  8
10
100
AcDbCircle
 10
85.90685926887635
 20
157.1271919768096
 30
0.0
 40
1.0
100
AcDbArc
 50
0.0
 51
90.0
  0
ARC
  5
FCF
330
1F
100
AcDbEntity
  8
10
100
AcDbCircle
 10
97.40685926887636
 20
157.1271919768096
 30
0.0
 40
1.0
100
AcDbArc
 50
0.0
 51
90.0
  0
LINE
  5
FD0
330
1F
100
AcDbEntity
  8
10
100
AcDbLine
 10
94.40685926887637
 20
155.0271919768101
 30
0.0
 11
95.40685926887636
 21
154.0271919768101
 31
0.0
  0
LINE
  5
FD1
330
1F
100
AcDbEntity
  8
10
100
AcDbLine
 10
94.40685926887637
 20
154.0271919768101
 30
0.0
 11
93.40685926887635
 21
155.0271919768101
 31
0.0
  0
LINE
  5
FD2
330
1F
100
AcDbEntity
  8
10
100
AcDbLine
 10
105.9068592688763
 20
154.0271919768101
 30
0.0
 11
104.9068592688763
 21
155.0271919768101
 31
0.0
  0
LINE
  5
FD3
330
1F
100
AcDbEntity
  8
10
100
AcDbLine
 10
105.9068592688763
 20
155.0271919768101
 30
0.0
 11
106.9068592688763
 21
154.0271919768101
 31
0.0
  0
ARC
  5
FD4
330
1F
100
AcDbEntity
  8
10
100
AcDbCircle
 10
102.9068592688763
 20
157.1271919768096
 30
0.0
 40
1.0
100
AcDbArc
 50
90.0
 51
180.0
  0
LINE
  5
FD5
330
1F
100
AcDbEntity
  8
10
100
AcDbLine
 10
112.4068592688763
 20
148.7271919768099
 30
0.0
 11
112.4068592688763
 21
140.7271919768099
 31
0.0
  0
ARC
  5
FD6
330
1F
100
AcDbEntity
  8
10
100
AcDbCircle
 10
108.9068592688763
 20
157.1271919768096
 30
0.0
 40
1.0
100
AcDbArc
 50
0.0
 51
90.0
  0
LINE
  5
FD7
330
1F
100
AcDbEntity
  8
10
100
AcDbLine
 10
112.4068592688763
 20
148.7271919768099
 30
0.0
 11
112.4068592688763
 21
164.2271919768099
 31
0.0
  0
LINE
  5
FD8
330
1F
100
AcDbEntity
  8
10
100
AcDbLine
 10
112.4068592688763
 20
164.2271919768099
 30
0.0
 11
110.9068592688763
 21
164.2271919768099
 31
0.0
  0
LINE
  5
FD9
330
1F
100
AcDbEntity
  8
10
100
AcDbLine
 10
110.9068592688763
 20
164.2271919768099
 30
0.0
 11
110.9068592688763
 21
150.7271919768099
 31
0.0
  0
LINE
  5
FDA
330
1F
100
AcDbEntity
  8
10
100
AcDbLine
 10
86.90685926887637
 20
157.1271919768096
 30
0.0
 11
86.90685926887637
 21
155.0271919768101
 31
0.0
  0
LINE
  5
FDB
330
1F
100
AcDbEntity
  8
10
100
AcDbLine
 10
86.90685926887637
 20
155.0271919768101
 30
0.0
 11
78.90685926887636
 21
155.0271919768101
 31
0.0
  0
LINE
  5
FDC
330
1F
100
AcDbEntity
  8
10
100
AcDbLine
 10
78.90685926887636
 20
155.0271919768101
 30
0.0
 11
78.90685926887636
 21
157.1271919768096
 31
0.0
  0
LINE
  5
FDD
330
1F
100
AcDbEntity
  8
10
100
AcDbLine
 10
78.40685926887636
 20
153.2271919768099
 30
0.0
 11
87.40685926887636
 21
153.2271919768099
 31
0.0
  0
LINE
  5
FDE
330
1F
100
AcDbEntity
  8
10
100
AcDbLine
 10
87.40685926887636
 20
153.2271919768099
 30
0.0
 11
87.40685926887636
 21
154.0271919768101
 31
0.0
  0
LINE
  5
FDF
330
1F
100
AcDbEntity
  8
10
100
AcDbLine
 10
87.40685926887636
 20
154.0271919768101
 30
0.0
 11
78.40685926887636
 21
154.0271919768101
 31
0.0
  0
LINE
  5
FE0
330
1F
100
AcDbEntity
  8
10
100
AcDbLine
 10
78.40685926887636
 20
154.0271919768101
 30
0.0
 11
78.40685926887636
 21
153.2271919768099
 31
0.0
  0
LINE
  5
FE1
330
1F
100
AcDbEntity
  8
10
100
AcDbLine
 10
79.10685926887618
 20
154.0271919768101
 30
0.0
 11
86.70685926887655
 21
154.0271919768101
 31
0.0
  0
LINE
  5
FE2
330
1F
100
AcDbEntity
  8
10
100
AcDbLine
 10
86.70685926887655
 20
154.0271919768101
 30
0.0
 11
86.70685926887655
 21
155.0271919768101
 31
0.0
  0
LINE
  5
FE3
330
1F
100
AcDbEntity
  8
10
100
AcDbLine
 10
86.70685926887655
 20
155.0271919768101
 30
0.0
 11
79.10685926887618
 21
155.0271919768101
 31
0.0
  0
LINE
  5
FE4
330
1F
100
AcDbEntity
  8
10
100
AcDbLine
 10
79.10685926887618
 20
155.0271919768101
 30
0.0
 11
79.10685926887618
 21
154.0271919768101
 31
0.0
  0
LINE
  5
FE5
330
1F
100
AcDbEntity
  8
10
100
AcDbLine
 10
98.40685926887637
 20
157.1271919768096
 30
0.0
 11
98.40685926887637
 21
155.0271919768101
 31
0.0
  0
LINE
  5
FE6
330
1F
100
AcDbEntity
  8
10
100
AcDbLine
 10
98.40685926887637
 20
155.0271919768101
 30
0.0
 11
90.40685926887636
 21
155.0271919768101
 31
0.0
  0
LINE
  5
FE7
330
1F
100
AcDbEntity
  8
10
100
AcDbLine
 10
90.40685926887636
 20
155.0271919768101
 30
0.0
 11
90.40685926887636
 21
157.1271919768096
 31
0.0
  0
LINE
  5
FE8
330
1F
100
AcDbEntity
  8
10
100
AcDbLine
 10
90.60685926887618
 20
154.0271919768101
 30
0.0
 11
98.20685926887655
 21
154.0271919768101
 31
0.0
  0
LINE
  5
FE9
330
1F
100
AcDbEntity
  8
10
100
AcDbLine
 10
98.20685926887655
 20
154.0271919768101
 30
0.0
 11
98.20685926887655
 21
155.0271919768101
 31
0.0
  0
LINE
  5
FEA
330
1F
100
AcDbEntity
  8
10
100
AcDbLine
 10
98.20685926887655
 20
155.0271919768101
 30
0.0
 11
90.60685926887618
 21
155.0271919768101
 31
0.0
  0
LINE
  5
FEB
330
1F
100
AcDbEntity
  8
10
100
AcDbLine
 10
90.60685926887618
 20
155.0271919768101
 30
0.0
 11
90.60685926887618
 21
154.0271919768101
 31
0.0
  0
LINE
  5
FEC
330
1F
100
AcDbEntity
  8
10
100
AcDbLine
 10
89.90685926887636
 20
153.2271919768099
 30
0.0
 11
98.90685926887636
 21
153.2271919768099
 31
0.0
  0
LINE
  5
FED
330
1F
100
AcDbEntity
  8
10
100
AcDbLine
 10
98.90685926887636
 20
153.2271919768099
 30
0.0
 11
98.90685926887636
 21
154.0271919768101
 31
0.0
  0
LINE
  5
FEE
330
1F
100
AcDbEntity
  8
10
100
AcDbLine
 10
98.90685926887636
 20
154.0271919768101
 30
0.0
 11
89.90685926887636
 21
154.0271919768101
 31
0.0
  0
LINE
  5
FEF
330
1F
100
AcDbEntity
  8
10
100
AcDbLine
 10
89.90685926887636
 20
154.0271919768101
 30
0.0
 11
89.90685926887636
 21
153.2271919768099
 31
0.0
  0
LINE
  5
FF0
330
1F
100
AcDbEntity
  8
10
100
AcDbLine
 10
77.90685926887636
 20
150.7271919768099
 30
0.0
 11
77.90685926887636
 21
164.2271919768099
 31
0.0
  0
LINE
  5
FF1
330
1F
100
AcDbEntity
  8
10
100
AcDbLine
 10
77.90685926887636
 20
164.2271919768099
 30
0.0
 11
76.40685926887636
 21
164.2271919768099
 31
0.0
  0
LINE
  5
FF2
330
1F
100
AcDbEntity
  8
10
100
AcDbLine
 10
76.40685926887636
 20
164.2271919768099
 30
0.0
 11
76.40685926887636
 21
148.7271919768099
 31
0.0
  0
LINE
  5
FF3
330
1F
100
AcDbEntity
  8
10
100
AcDbLine
 10
89.40685926887637
 20
150.7271919768099
 30
0.0
 11
89.40685926887637
 21
164.2271919768099
 31
0.0
  0
LINE
  5
FF4
330
1F
100
AcDbEntity
  8
10
100
AcDbLine
 10
89.40685926887637
 20
164.2271919768099
 30
0.0
 11
87.90685926887636
 21
164.2271919768099
 31
0.0
  0
LINE
  5
FF5
330
1F
100
AcDbEntity
  8
10
100
AcDbLine
 10
87.90685926887636
 20
164.2271919768099
 30
0.0
 11
87.90685926887636
 21
150.7271919768099
 31
0.0
  0
LINE
  5
FF6
330
1F
100
AcDbEntity
  8
10
100
AcDbLine
 10
100.9068592688763
 20
150.7271919768099
 30
0.0
 11
100.9068592688763
 21
164.2271919768099
 31
0.0
  0
LINE
  5
FF7
330
1F
100
AcDbEntity
  8
10
100
AcDbLine
 10
100.9068592688763
 20
164.2271919768099
 30
0.0
 11
99.40685926887637
 21
164.2271919768099
 31
0.0
  0
LINE
  5
FF8
330
1F
100
AcDbEntity
  8
10
100
AcDbLine
 10
99.40685926887637
 20
164.2271919768099
 30
0.0
 11
99.40685926887637
 21
150.7271919768099
 31
0.0
  0
LINE
  5
FF9
330
1F
100
AcDbEntity
  8
10
100
AcDbLine
 10
76.40685926887636
 20
164.2271919768099
 30
0.0
 11
76.40685926887636
 21
167.22719197681
 31
0.0
  0
LINE
  5
FFA
330
1F
100
AcDbEntity
  8
10
100
AcDbLine
 10
76.40685926887636
 20
167.22719197681
 30
0.0
 11
112.4068592688763
 21
167.22719197681
 31
0.0
  0
LINE
  5
FFB
330
1F
100
AcDbEntity
  8
10
100
AcDbLine
 10
112.4068592688763
 20
167.22719197681
 30
0.0
 11
112.4068592688763
 21
164.2271919768099
 31
0.0
  0
LINE
  5
FFC
330
1F
100
AcDbEntity
  8
10
100
AcDbLine
 10
112.4068592688763
 20
148.7271919768099
 30
0.0
 11
120.6568592688763
 21
148.7271919768099
 31
0.0
  0
LINE
  5
FFD
330
1F
100
AcDbEntity
  8
10
100
AcDbLine
 10
120.6568592688763
 20
148.7271919768099
 30
0.0
 11
120.6568592688763
 21
140.7271919768099
 31
0.0
  0
LINE
  5
FFE
330
1F
100
AcDbEntity
  8
10
100
AcDbLine
 10
120.6568592688763
 20
140.7271919768099
 30
0.0
 11
68.15685926887636
 21
140.7271919768099
 31
0.0
  0
LINE
  5
FFF
330
1F
100
AcDbEntity
  8
10
100
AcDbLine
 10
68.15685926887636
 20
140.7271919768099
 30
0.0
 11
68.15685926887636
 21
148.7271919768099
 31
0.0
  0
LINE
  5
1000
330
1F
100
AcDbEntity
  8
10
100
AcDbLine
 10
68.15685926887636
 20
148.7271919768099
 30
0.0
 11
76.40685926887636
 21
148.7271919768099
 31
0.0
  0
LINE
  5
1001
330
1F
100
AcDbEntity
  8
10
100
AcDbLine
 10
109.9068592688763
 20
157.1271919768096
 30
0.0
 11
109.9068592688763
 21
155.0271919768101
 31
0.0
  0
LINE
  5
1002
330
1F
100
AcDbEntity
  8
10
100
AcDbLine
 10
109.9068592688763
 20
155.0271919768101
 30
0.0
 11
101.9068592688763
 21
155.0271919768101
 31
0.0
  0
LINE
  5
1003
330
1F
100
AcDbEntity
  8
10
100
AcDbLine
 10
101.9068592688763
 20
155.0271919768101
 30
0.0
 11
101.9068592688763
 21
157.1271919768096
 31
0.0
  0
LINE
  5
1004
330
1F
100
AcDbEntity
  8
10
100
AcDbLine
 10
102.1068592688761
 20
154.0271919768101
 30
0.0
 11
109.7068592688765
 21
154.0271919768101
 31
0.0
  0
LINE
  5
1005
330
1F
100
AcDbEntity
  8
10
100
AcDbLine
 10
109.7068592688765
 20
154.0271919768101
 30
0.0
 11
109.7068592688765
 21
155.0271919768101
 31
0.0
  0
LINE
  5
1006
330
1F
100
AcDbEntity
  8
10
100
AcDbLine
 10
109.7068592688765
 20
155.0271919768101
 30
0.0
 11
102.1068592688761
 21
155.0271919768101
 31
0.0
  0
LINE
  5
1007
330
1F
100
AcDbEntity
  8
10
100
AcDbLine
 10
102.1068592688761
 20
155.0271919768101
 30
0.0
 11
102.1068592688761
 21
154.0271919768101
 31
0.0
  0
LINE
  5
1008
330
1F
100
AcDbEntity
  8
10
100
AcDbLine
 10
101.4068592688763
 20
153.2271919768099
 30
0.0
 11
110.4068592688763
 21
153.2271919768099
 31
0.0
  0
LINE
  5
1009
330
1F
100
AcDbEntity
  8
10
100
AcDbLine
 10
110.4068592688763
 20
153.2271919768099
 30
0.0
 11
110.4068592688763
 21
154.0271919768101
 31
0.0
  0
LINE
  5
100A
330
1F
100
AcDbEntity
  8
10
100
AcDbLine
 10
110.4068592688763
 20
154.0271919768101
 30
0.0
 11
101.4068592688763
 21
154.0271919768101
 31
0.0
  0
LINE
  5
100B
330
1F
100
AcDbEntity
  8
10
100
AcDbLine
 10
101.4068592688763
 20
154.0271919768101
 30
0.0
 11
101.4068592688763
 21
153.2271919768099
 31
0.0
  0
LINE
  5
100C
330
1F
100
AcDbEntity
  8
10
 48
2.0
100
AcDbLine
 10
110.9068592688763
 20
164.2271919768099
 30
0.0
 11
77.90685926887636
 21
164.2271919768099
 31
0.0
  0
LINE
  5
100D
330
1F
100
AcDbEntity
  8
10
 48
2.0
100
AcDbLine
 10
110.9068592688763
 20
164.7271919768099
 30
0.0
 11
77.90685926887636
 21
164.7271919768099
 31
0.0
  0
LINE
  5
100E
330
1F
100
AcDbEntity
  8
10
100
AcDbLine
 10
248.1451127723912
 20
140.7271919768099
 30
0.0
 11
248.1451127723912
 21
148.7271919768099
 31
0.0
  0
LINE
  5
100F
330
1F
100
AcDbEntity
  8
10
100
AcDbLine
 10
248.1451127723912
 20
148.7271919768099
 30
0.0
 11
256.1451127723912
 21
148.7271919768099
 31
0.0
  0
LINE
  5
1010
330
1F
100
AcDbEntity
  8
10
100
AcDbLine
 10
256.1451127723912
 20
148.7271919768099
 30
0.0
 11
256.1451127723912
 21
146.7271919768099
 31
0.0
  0
LINE
  5
1011
330
1F
100
AcDbEntity
  8
10
100
AcDbLine
 10
243.6451127723912
 20
159.2271919768099
 30
0.0
 11
239.1451127723912
 21
159.2271919768099
 31
0.0
  0
LINE
  5
1012
330
1F
100
AcDbEntity
  8
10
100
AcDbLine
 10
239.1451127723912
 20
159.2271919768099
 30
0.0
 11
239.1451127723912
 21
167.22719197681
 31
0.0
  0
LINE
  5
1013
330
1F
100
AcDbEntity
  8
10
100
AcDbLine
 10
239.1451127723912
 20
167.22719197681
 30
0.0
 11
243.6451127723912
 21
167.22719197681
 31
0.0
  0
LINE
  5
1014
330
1F
100
AcDbEntity
  8
10
100
AcDbLine
 10
243.6451127723912
 20
159.2271919768099
 30
0.0
 11
248.1451127723912
 21
159.2271919768099
 31
0.0
  0
LINE
  5
1015
330
1F
100
AcDbEntity
  8
10
100
AcDbLine
 10
248.1451127723912
 20
159.2271919768099
 30
0.0
 11
248.1451127723912
 21
167.22719197681
 31
0.0
  0
LINE
  5
1016
330
1F
100
AcDbEntity
  8
10
100
AcDbLine
 10
248.1451127723912
 20
167.22719197681
 30
0.0
 11
243.6451127723912
 21
167.22719197681
 31
0.0
  0
LINE
  5
1017
330
1F
100
AcDbEntity
  8
10
100
AcDbLine
 10
243.6451127723912
 20
140.7271919768099
 30
0.0
 11
256.1451127723912
 21
140.7271919768099
 31
0.0
  0
LINE
  5
1018
330
1F
100
AcDbEntity
  8
10
100
AcDbLine
 10
256.1451127723912
 20
140.7271919768099
 30
0.0
 11
256.1451127723912
 21
146.7271919768099
 31
0.0
  0
LINE
  5
1019
330
1F
100
AcDbEntity
  8
10
100
AcDbLine
 10
256.1451127723912
 20
146.7271919768099
 30
0.0
 11
260.6451127723912
 21
146.7271919768099
 31
0.0
  0
LINE
  5
101A
330
1F
100
AcDbEntity
  8
10
100
AcDbLine
 10
260.6451127723912
 20
146.7271919768099
 30
0.0
 11
260.6451127723912
 21
162.2271919768099
 31
0.0
  0
LINE
  5
101B
330
1F
100
AcDbEntity
  8
10
100
AcDbLine
 10
243.6451127723912
 20
140.7271919768099
 30
0.0
 11
231.1451127723912
 21
140.7271919768099
 31
0.0
  0
LINE
  5
101C
330
1F
100
AcDbEntity
  8
10
100
AcDbLine
 10
231.1451127723912
 20
140.7271919768099
 30
0.0
 11
231.1451127723912
 21
146.7271919768099
 31
0.0
  0
LINE
  5
101D
330
1F
100
AcDbEntity
  8
10
100
AcDbLine
 10
231.1451127723912
 20
146.7271919768099
 30
0.0
 11
226.6451127723912
 21
146.7271919768099
 31
0.0
  0
LINE
  5
101E
330
1F
100
AcDbEntity
  8
10
100
AcDbLine
 10
226.6451127723912
 20
146.7271919768099
 30
0.0
 11
226.6451127723912
 21
162.2271919768099
 31
0.0
  0
LINE
  5
101F
330
1F
100
AcDbEntity
  8
10
100
AcDbLine
 10
239.1451127723912
 20
140.7271919768099
 30
0.0
 11
239.1451127723912
 21
148.7271919768099
 31
0.0
  0
LINE
  5
1020
330
1F
100
AcDbEntity
  8
10
100
AcDbLine
 10
239.1451127723912
 20
148.7271919768099
 30
0.0
 11
231.1451127723912
 21
148.7271919768099
 31
0.0
  0
LINE
  5
1021
330
1F
100
AcDbEntity
  8
10
100
AcDbLine
 10
231.1451127723912
 20
148.7271919768099
 30
0.0
 11
231.1451127723912
 21
146.7271919768099
 31
0.0
  0
VIEWPORT
  5
409
330
23
100
AcDbEntity
 67
     1
  8
0
100
AcDbViewport
 10
142.6315765380859
 20
99.1129140853882
 30
0.0
 40
314.2372683715819
 41
259.7433703258352
 68
     1
 69
     1
1001
ACAD
1000
MVIEW
1002
{
1070
    16
1010
0.0
1020
0.0
1030
0.0
1010
0.0
1020
0.0
1030
1.0
1040
0.0
1040
259.7433703258352
1040
142.6315765380859
1040
99.1129140853882
1040
50.0
1040
0.0
1040
0.0
1070
     0
1070
   100
1070
     1
1070
     1
1070
     0
1070
     0
1070
     0
1070
     0
1040
0.0
1040
0.0
1040
0.0
1040
10.0
1040
10.0
1040
10.0
1040
10.0
1070
     0
1002
{
1002
}
1002
}
  0
VIEWPORT
  5
40B
330
23
100
AcDbEntity
 67
     1
  8
0
100
AcDbViewport
 10
142.6315770149231
 20
99.11291456222535
 30
0.0
 40
228.2105232238769
 41
158.5806632995605
 68
     2
 69
     2
1001
ACAD
1000
MVIEW
1002
{
1070
    16
1010
0.0
1020
0.0
1030
0.0
1010
0.0
1020
0.0
1030
1.0
1040
0.0
1040
437.7797658097811
1040
303.2144175903108
1040
233.3590858733038
1040
50.0
1040
0.0
1040
0.0
1070
     0
1070
   100
1070
     1
1070
     3
1070
     0
1070
     0
1070
     0
1070
     0
1040
0.0
1040
0.0
1040
0.0
1040
10.0
1040
10.0
1040
10.0
1040
10.0
1070
     0
1002
{
1002
}
1002
}
  0
ENDSEC
  0
SECTION
  2
OBJECTS
  0
DICTIONARY
  5
C
330
0
100
AcDbDictionary
  3
ACAD_GROUP
350
D
  3
ACAD_LAYOUT
350
1A
  3
ACAD_MLINESTYLE
350
17
  3
ACAD_PLOTSETTINGS
350
19
  3
ACAD_PLOTSTYLENAME
350
B10
  3
ACAMCATALOGSTATE
350
5BA
  3
ACASAPPOBJECT
350
53F
  3
ACASGREF_MASTER
350
587
  3
ACDBHEADERROUNDTRIPXREC
350
1087
  3
ACDBVARIABLEDICTIONARY
350
B19
  3
ACDMSYSVARMGR
350
519
  3
ACGREF_MASTER
350
513
  3
ACGREFACAD_MASTER
350
53B
  3
ACMDICTIONARY
350
5B6
  3
ACME_BOM_MANAGER_NAME
350
50C
  3
ACME_COMMAND_HISTORY
350
507
  3
ACME_SCOPE_NAME
350
506
  3
ACMESTATEMGR
350
511
  3
ACMESYSVARMANAGER
350
508
  3
ACMSYSTEMVARIABLEMANAGER
350
5C4
  3
AD_APPL
350
59E
  3
AD_GREF_MODULE
350
588
  3
AD_MAPI_MODULE
350
5A0
  3
ADSYSVARMGR
350
590
  3
AMDTNAMEDDWGMGR
350
536
  3
AMG
350
4FD
  3
AMGSNAPSETTINGS
350
5D0
  3
AMI_MASTER
350
53E
  3
ASURF_STATIC_VARS
350
540
  3
AUTOCAD_ASSEMBLIES_PROJECT
350
5AB
  3
AUTOSURF_SYSVARS
350
541
  3
DESIGNER_ASSEMBLIES_SYSVARS
350
5A2
  3
DWGPROPS
350
5B9
  3
GREFAM_MODULE
350
58A
  3
MAPISURF_MODULE
350
589
1001
ACAD
1000
TREAT_AS_HARD
1070
     0
1000
TREAT_AS_HARD
1070
     0
1000
TREAT_AS_HARD
1070
     0
  0
DICTIONARY
  5
41
330
2
100
AcDbDictionary
280
     1
  3
ACAD_LAYERFILTERS
360
3FF
  3
ACAD_LAYERSTATES
360
42
1001
ACAD
1000
TREAT_AS_HARD
1070
     1
1000
TREAT_AS_HARD
1070
     0
1000
TREAT_AS_HARD
1070
     0
  0
DICTIONARY
  5
438
330
1F
100
AcDbDictionary
280
     1
  3
ACAD_LAYOUTSELFREF
360
10A7
1001
ACAD
1000
TREAT_AS_HARD
1070
     1
1000
TREAT_AS_HARD
1070
     1
1000
TREAT_AS_HARD
1070
     0
  0
DICTIONARY
  5
43A
330
23
100
AcDbDictionary
280
     1
  3
ACAD_LAYOUTSELFREF
360
10A8
1001
ACAD
1000
TREAT_AS_HARD
1070
     1
1000
TREAT_AS_HARD
1070
     1
1000
TREAT_AS_HARD
1070
     0
  0
DICTIONARY
  5
D
102
{ACAD_REACTORS
330
C
102
}
330
C
100
AcDbDictionary
1001
ACAD
1000
TREAT_AS_HARD
1070
     0
1000
TREAT_AS_HARD
1070
     0
1000
TREAT_AS_HARD
1070
     0
  0
DICTIONARY
  5
1A
102
{ACAD_REACTORS
330
C
102
}
330
C
100
AcDbDictionary
1001
ACAD
1000
TREAT_AS_HARD
1070
     0
1000
TREAT_AS_HARD
1070
     0
1000
TREAT_AS_HARD
1070
     0
  0
DICTIONARY
  5
17
102
{ACAD_REACTORS
330
C
102
}
330
C
100
AcDbDictionary
  3
STANDARD
350
18
1001
ACAD
1000
TREAT_AS_HARD
1070
     0
1000
TREAT_AS_HARD
1070
     0
1000
TREAT_AS_HARD
1070
     0
  0
DICTIONARY
  5
19
102
{ACAD_REACTORS
330
C
102
}
330
C
100
AcDbDictionary
1001
ACAD
1000
TREAT_AS_HARD
1070
     0
1000
TREAT_AS_HARD
1070
     0
1000
TREAT_AS_HARD
1070
     0
  0
ACDBDICTIONARYWDFLT
  5
B10
102
{ACAD_REACTORS
330
C
102
}
330
C
100
AcDbDictionary
281
     1
  3
Normal
350
B11
100
AcDbDictionaryWithDefault
340
B11
  0
ACAD_PROXY_OBJECT
  5
5BA
102
{ACAD_REACTORS
330
C
102
}
330
C
100
AcDbProxyObject
 90
      499
 91
      574
 93
      880
310
3FFFFFFFE00A0284402B0AE2E189C9917189B1C17189719182E32B733B4B732B2B934B733AE32B733B4B732B2B934B733AE26A2A2C5E34B58AE181C1898189A2FA6A2A2AF99222FC6F6483EAE39B4B5BCBAAE232916A420A62FA422A62FA1A0A22E4728C6B641B340ADC1AF400AA65
 94
        0
1001
ACAD
1000
AcadProxyRoundTripData
1071
      565
1071
   851991
1070
     0
  0
ACAD_PROXY_OBJECT
  5
53F
102
{ACAD_REACTORS
330
C
102
}
330
C
100
AcDbProxyObject
 90
      499
 91
      574
 93
       10
310
4041
 94
        0
1001
ACAD
1000
AcadProxyRoundTripData
1071
      537
1071
   851991
1070
     0
  0
ACAD_PROXY_OBJECT
  5
587
102
{ACAD_REACTORS
330
C
102
}
330
C
100
AcDbProxyObject
 90
      499
 91
      574
 93
       34
310
010000406C
 94
        0
1001
ACAD
1000
AcadProxyRoundTripData
1071
      543
1071
   851991
1070
     0
  0
DICTIONARY
  5
1087
102
{ACAD_REACTORS
330
C
102
}
330
C
100
AcDbDictionary
  3
CEPSNTYPE
350
1091
  3
FINGERPRINTGUID
350
1092
  3
HYPERLINKBASE
350
108A
  3
INSUNITS
350
1090
  3
LAYOUTDICT
350
108C
  3
LWETCUNION
350
108F
  3
PLOTSETDICT
350
108D
  3
PLOTSTYLNAMDICT
350
108E
  3
PSVPSCALE
350
1094
  3
PUCSBASE
350
1097
  3
PUCSORGBACK
350
109D
  3
PUCSORGBOTTOM
350
1099
  3
PUCSORGFRONT
350
109C
  3
PUCSORGLEFT
350
109A
  3
PUCSORGRIGHT
350
109B
  3
PUCSORGTOP
350
1098
  3
PUCSORTHOREF
350
1095
  3
PUCSORTHOVIEW
350
1096
  3
STYLESHEET
350
108B
  3
TSTACKALIGN
350
1088
  3
TSTACKSIZE
350
1089
  3
UCSBASE
350
10A0
  3
UCSORGBACK
350
10A6
  3
UCSORGBOTTOM
350
10A2
  3
UCSORGFRONT
350
10A5
  3
UCSORGLEFT
350
10A3
  3
UCSORGRIGHT
350
10A4
  3
UCSORGTOP
350
10A1
  3
UCSORTHOREF
350
109E
  3
UCSORTHOVIEW
350
109F
  3
VERSIONGUID
350
1093
  0
DICTIONARY
  5
B19
102
{ACAD_REACTORS
330
C
102
}
330
C
100
AcDbDictionary
  3
DIMASSOC
350
B1A
  0
ACAD_PROXY_OBJECT
  5
519
102
{ACAD_REACTORS
330
C
102
}
330
C
100
AcDbProxyObject
 90
      499
 91
      574
 93
      240
310
4C51A482000000000000000000000000000000000000000000000000000000
330
51A
330
51B
330
51C
330
51D
330
51E
330
51F
330
520
330
523
330
524
330
525
330
526
330
527
330
528
330
529
330
52A
330
52B
330
52C
330
52D
330
52E
330
52F
330
530
330
531
330
532
330
533
330
534
330
535
 94
        0
1001
ACAD
1000
AcadProxyRoundTripData
1071
      516
1071
   851991
1070
     0
  0
ACAD_PROXY_OBJECT
  5
513
102
{ACAD_REACTORS
330
C
102
}
330
C
100
AcDbProxyObject
 90
      499
 91
      574
 93
       34
310
04000042AC
 94
        0
1001
ACAD
1000
AcadProxyRoundTripData
1071
      525
1071
   851991
1070
     0
  0
ACAD_PROXY_OBJECT
  5
53B
102
{ACAD_REACTORS
330
C
102
}
330
C
100
AcDbProxyObject
 90
      499
 91
      574
 93
      114
310
04000041C000000000000000000000
 94
        0
1001
ACAD
1000
AcadProxyRoundTripData
1071
      533
1071
   851991
1070
     0
  0
DICTIONARY
  5
5B6
102
{ACAD_REACTORS
330
C
102
}
330
C
100
AcDbDictionary
  3
ACMBOMDATA
350
5B7
1001
ACAD
1000
TREAT_AS_HARD
1070
     0
1000
TREAT_AS_HARD
1070
     0
1000
TREAT_AS_HARD
1070
     0
  0
ACAD_PROXY_OBJECT
  5
50C
102
{ACAD_REACTORS
330
C
102
}
330
C
100
AcDbProxyObject
 90
      499
 91
      574
 93
       50
310
00000040400025
330
0
330
0
330
50D
 94
        0
1001
ACAD
1000
AcadProxyRoundTripData
1071
      519
1071
   851991
1070
     0
  0
ACAD_PROXY_OBJECT
  5
507
102
{ACAD_REACTORS
330
C
102
}
330
C
100
AcDbProxyObject
 90
      499
 91
      574
 93
      778
310
424050E414D4454524553455444424D4F4440805084E202D20554E444F014213880B4815539113C0507544F4F4C42415280504554E444F80504554E444F80504554E444F80504554E444F80504554E444F80505455241534580506534156454153A4
 94
        0
1001
ACAD
1000
AcadProxyRoundTripData
1071
      515
1071
   851991
1070
     0
  0
ACAD_PROXY_OBJECT
  5
506
102
{ACAD_REACTORS
330
C
102
}
330
C
100
AcDbProxyObject
 90
      499
 91
      574
 93
     1242
310
06000044400000000000000000001840000400020000000000000000000000000000000000000000000000000000000000000000000000000000000000000000000000000000000000000000000000000000000000000000000000000000000000000000000000000000000000000000000000000000000000000000000000
310
00000000000000000000000000000000000000000000000000AAAAAAB2
360
509
360
50A
360
50B
360
50D
360
514
360
515
360
516
360
517
360
51A
360
51B
360
51C
360
51D
360
51E
360
51F
360
520
360
523
360
524
360
525
360
526
360
527
360
528
360
529
360
52A
360
52B
360
52C
360
52D
360
52E
360
52F
360
530
360
531
360
532
360
533
360
534
360
535
360
542
360
543
360
544
360
545
360
546
360
547
360
548
360
549
360
54A
360
54B
360
54C
360
54D
360
54E
360
54F
360
550
360
551
360
552
360
553
360
554
360
555
360
556
360
557
360
558
360
559
360
55A
360
55B
360
55C
360
55D
360
55E
360
55F
360
560
360
561
360
562
360
563
360
564
360
565
360
566
360
567
360
568
360
569
360
56A
360
56B
360
56C
360
56D
360
56E
360
56F
360
570
360
571
360
572
360
573
360
574
360
575
360
576
360
577
360
578
360
579
360
57A
360
57B
360
57C
360
57D
360
57E
360
57F
360
580
360
581
360
582
360
583
360
58C
360
58D
360
58E
360
58F
360
591
360
592
360
593
360
594
360
595
360
596
360
597
360
598
360
599
360
59A
360
59B
360
59C
360
59D
360
5A3
360
5A4
360
5A5
360
5A6
360
5A7
360
5A8
360
5A9
360
5AA
360
5AF
360
5B0
360
5B1
360
5B2
360
5B3
360
5B4
360
5C5
 94
        0
1001
ACAD
1000
AcadProxyRoundTripData
1071
      514
1071
   851991
1070
     0
  0
ACAD_PROXY_OBJECT
  5
511
102
{ACAD_REACTORS
330
C
102
}
330
C
100
AcDbProxyObject
 90
      499
 91
      574
 93
       50
310
060000416412A5
 94
        0
1001
ACAD
1000
AcadProxyRoundTripData
1071
      524
1071
   851991
1070
     0
  0
ACAD_PROXY_OBJECT
  5
508
102
{ACAD_REACTORS
330
C
102
}
330
C
100
AcDbProxyObject
 90
      499
 91
      574
 93
       48
310
90342200000011
330
509
330
50A
330
50B
 94
        0
1001
ACAD
1000
AcadProxyRoundTripData
1071
      516
1071
   851991
1070
     0
  0
ACAD_PROXY_OBJECT
  5
5C4
102
{ACAD_REACTORS
330
C
102
}
330
C
100
AcDbProxyObject
 90
      499
 91
      574
 93
       32
310
901422002F
330
5C5
 94
        0
1001
ACAD
1000
AcadProxyRoundTripData
1071
      516
1071
   851991
1070
     0
  0
ACAD_PROXY_OBJECT
  5
59E
102
{ACAD_REACTORS
330
C
102
}
330
C
100
AcDbProxyObject
 90
      499
 91
      574
 93
       42
310
0006000043C2
330
58C
 94
        0
1001
ACAD
1000
AcadProxyRoundTripData
1071
      552
1071
   851991
1070
     0
  0
ACAD_PROXY_OBJECT
  5
588
102
{ACAD_REACTORS
330
C
102
}
330
C
100
AcDbProxyObject
 90
      499
 91
      574
 93
      114
310
000000438000000000000000000036
 94
        0
1001
ACAD
1000
AcadProxyRoundTripData
1071
      544
1071
   851991
1070
     0
  0
ACAD_PROXY_OBJECT
  5
5A0
102
{ACAD_REACTORS
330
C
102
}
330
C
100
AcDbProxyObject
 90
      499
 91
      574
 93
       34
310
05000044EC
 94
        0
1001
ACAD
1000
AcadProxyRoundTripData
1071
      554
1071
   851991
1070
     0
  0
ACAD_PROXY_OBJECT
  5
590
102
{ACAD_REACTORS
330
C
102
}
330
C
100
AcDbProxyObject
 90
      499
 91
      574
 93
      128
310
90D442000000000000000000000000001D
330
591
330
592
330
593
330
594
330
595
330
596
330
597
330
598
330
599
330
59A
330
59B
330
59C
330
59D
 94
        0
1001
ACAD
1000
AcadProxyRoundTripData
1071
      516
1071
   851991
1070
     0
  0
ACAD_PROXY_OBJECT
  5
536
102
{ACAD_REACTORS
330
C
102
}
330
C
100
AcDbProxyObject
 90
      499
 91
      574
 93
       42
310
000100005AC2
330
514
 94
        0
1001
ACAD
1000
AcadProxyRoundTripData
1071
      530
1071
   851991
1070
     0
  0
DICTIONARY
  5
4FD
102
{ACAD_REACTORS
330
C
102
}
330
C
100
AcDbDictionary
  3
ACMGSETTINGS
350
4FE
  3
AMGLAYCFG
350
5C3
1001
ACAD
1000
TREAT_AS_HARD
1070
     0
1000
TREAT_AS_HARD
1070
     0
1000
TREAT_AS_HARD
1070
     0
  0
DICTIONARY
  5
5D0
102
{ACAD_REACTORS
330
C
102
}
330
C
100
AcDbDictionary
  3
DIMENSION
350
5D5
  3
FEA
350
5D4
  3
HATCH__1_
350
5D1
  3
HATCH__2_
350
5D2
  3
SIMPLE_WELD
350
5D6
  3
SYMBOLS
350
5D3
1001
ACAD
1000
TREAT_AS_HARD
1070
     0
1000
TREAT_AS_HARD
1070
     0
1000
TREAT_AS_HARD
1070
     0
  0
ACAD_PROXY_OBJECT
  5
53E
102
{ACAD_REACTORS
330
C
102
}
330
C
100
AcDbProxyObject
 90
      499
 91
      574
 93
       34
310
05000042AC
 94
        0
1001
ACAD
1000
AcadProxyRoundTripData
1071
      536
1071
   851991
1070
     0
  0
ACAD_PROXY_OBJECT
  5
540
102
{ACAD_REACTORS
330
C
102
}
330
C
100
AcDbProxyObject
 90
      499
 91
      574
 93
      424
310
585315020000000000000000000000000000000000000000000000000000000000000000000000000000000000000000000000000000
330
553
330
554
330
555
330
556
330
557
330
558
330
559
330
55A
330
55B
330
55C
330
55D
330
55E
330
55F
330
560
330
561
330
562
330
563
330
564
330
565
330
566
330
567
330
568
330
569
330
56A
330
56B
330
56C
330
56D
330
56E
330
56F
330
570
330
571
330
572
330
573
330
574
330
575
330
576
330
577
330
578
330
579
330
57A
330
57B
330
57C
330
57D
330
57E
330
57F
330
580
330
581
330
582
330
583
 94
        0
1001
ACAD
1000
AcadProxyRoundTripData
1071
      538
1071
   851991
1070
     0
  0
ACAD_PROXY_OBJECT
  5
5AB
102
{ACAD_REACTORS
330
C
102
}
330
C
100
AcDbProxyObject
 90
      499
 91
      574
 93
       74
310
0600004A400000000010
330
5B2
330
0
330
5B3
330
0
330
0
 94
        0
1001
ACAD
1000
AcadProxyRoundTripData
1071
      556
1071
   851991
1070
     0
  0
ACAD_PROXY_OBJECT
  5
541
102
{ACAD_REACTORS
330
C
102
}
330
C
100
AcDbProxyObject
 90
      499
 91
      574
 93
      168
310
4C511482000000000000000000000000000000000003
330
542
330
543
330
544
330
545
330
546
330
547
330
548
330
549
330
54A
330
54B
330
54C
330
54D
330
54E
330
54F
330
550
330
551
330
552
 94
        0
1001
ACAD
1000
AcadProxyRoundTripData
1071
      516
1071
   851991
1070
     0
  0
ACAD_PROXY_OBJECT
  5
5A2
102
{ACAD_REACTORS
330
C
102
}
330
C
100
AcDbProxyObject
 90
      499
 91
      574
 93
       88
310
908422000000000000000000
330
5A3
330
5A4
330
5A5
330
5A6
330
5A7
330
5A8
330
5A9
330
5AA
 94
        0
1001
ACAD
1000
AcadProxyRoundTripData
1071
      516
1071
   851991
1070
     0
  0
XRECORD
  5
5B9
102
{ACAD_REACTORS
330
C
102
}
330
C
100
AcDbXrecord
  1
DWGPROPS COOKIE
  2

  3

  4

  6

  7

  8

  9

300
AmdtFileType=84
301
=
302
=
303
=
304
=
305
=
306
=
307
=
308
=
309
=
 40
0.005163125
 41
2454596.550355717
 42
2454596.675773645
  1

 90
        1
  0
ACAD_PROXY_OBJECT
  5
58A
102
{ACAD_REACTORS
330
C
102
}
330
C
100
AcDbProxyObject
 90
      499
 91
      574
 93
        8
310
0500
 94
        0
1001
ACAD
1000
AcadProxyRoundTripData
1071
      546
1071
   851991
1070
     0
  0
ACAD_PROXY_OBJECT
  5
589
102
{ACAD_REACTORS
330
C
102
}
330
C
100
AcDbProxyObject
 90
      499
 91
      574
 93
        8
310
0401
 94
        0
1001
ACAD
1000
AcadProxyRoundTripData
1071
      545
1071
   851991
1070
     0
  0
DICTIONARY
  5
3FF
102
{ACAD_REACTORS
330
41
102
}
330
41
100
AcDbDictionary
1001
ACAD
1000
TREAT_AS_HARD
1070
     1
1000
TREAT_AS_HARD
1070
     0
1000
TREAT_AS_HARD
1070
     0
  0
DICTIONARY
  5
42
102
{ACAD_REACTORS
330
41
102
}
330
41
100
AcDbDictionary
1001
ACAD
1000
TREAT_AS_HARD
1070
     0
1000
TREAT_AS_HARD
1070
     0
1000
TREAT_AS_HARD
1070
     0
  0
XRECORD
  5
10A7
102
{ACAD_REACTORS
330
438
102
}
330
438
100
AcDbXrecord
340
1F
  0
XRECORD
  5
10A8
102
{ACAD_REACTORS
330
43A
102
}
330
43A
100
AcDbXrecord
340
23
  0
MLINESTYLE
  5
18
102
{ACAD_REACTORS
330
17
102
}
330
17
100
AcDbMlineStyle
  2
STANDARD
 70
     0
  3

 62
   256
 51
90.0
 52
90.0
 71
     2
 49
0.5
 62
   256
  6
BYLAYER
 49
-0.5
 62
   256
  6
BYLAYER
  0
ACDBPLACEHOLDER
  5
B11
102
{ACAD_REACTORS
330
B10
102
}
330
B10
100
AcDbPlaceHolder
280
     0
  0
XRECORD
  5
1091
102
{ACAD_REACTORS
330
1087
102
}
330
1087
100
AcDbXrecord
 90
        0
  0
XRECORD
  5
1092
102
{ACAD_REACTORS
330
1087
102
}
330
1087
100
AcDbXrecord
  1
{F9BB573E-A203-4408-8939-56EECC49D4C2}
  0
XRECORD
  5
108A
102
{ACAD_REACTORS
330
1087
102
}
330
1087
100
AcDbXrecord
  1

  0
XRECORD
  5
1090
102
{ACAD_REACTORS
330
1087
102
}
330
1087
100
AcDbXrecord
 90
        0
  0
XRECORD
  5
108C
102
{ACAD_REACTORS
330
1087
102
}
330
1087
100
AcDbXrecord
340
1A
  0
XRECORD
  5
108F
102
{ACAD_REACTORS
330
1087
102
}
330
1087
100
AcDbXrecord
 90
    10781
  0
XRECORD
  5
108D
102
{ACAD_REACTORS
330
1087
102
}
330
1087
100
AcDbXrecord
340
19
  0
XRECORD
  5
108E
102
{ACAD_REACTORS
330
1087
102
}
330
1087
100
AcDbXrecord
340
B10
  0
XRECORD
  5
1094
102
{ACAD_REACTORS
330
1087
102
}
330
1087
100
AcDbXrecord
 40
0.0
  0
XRECORD
  5
1097
102
{ACAD_REACTORS
330
1087
102
}
330
1087
100
AcDbXrecord
340
0
  0
XRECORD
  5
109D
102
{ACAD_REACTORS
330
1087
102
}
330
1087
100
AcDbXrecord
 10
0.0
 20
0.0
 30
0.0
  0
XRECORD
  5
1099
102
{ACAD_REACTORS
330
1087
102
}
330
1087
100
AcDbXrecord
 10
0.0
 20
0.0
 30
0.0
  0
XRECORD
  5
109C
102
{ACAD_REACTORS
330
1087
102
}
330
1087
100
AcDbXrecord
 10
0.0
 20
0.0
 30
0.0
  0
XRECORD
  5
109A
102
{ACAD_REACTORS
330
1087
102
}
330
1087
100
AcDbXrecord
 10
0.0
 20
0.0
 30
0.0
  0
XRECORD
  5
109B
102
{ACAD_REACTORS
330
1087
102
}
330
1087
100
AcDbXrecord
 10
0.0
 20
0.0
 30
0.0
  0
XRECORD
  5
1098
102
{ACAD_REACTORS
330
1087
102
}
330
1087
100
AcDbXrecord
 10
0.0
 20
0.0
 30
0.0
  0
XRECORD
  5
1095
102
{ACAD_REACTORS
330
1087
102
}
330
1087
100
AcDbXrecord
340
0
  0
XRECORD
  5
1096
102
{ACAD_REACTORS
330
1087
102
}
330
1087
100
AcDbXrecord
 70
     0
  0
XRECORD
  5
108B
102
{ACAD_REACTORS
330
1087
102
}
330
1087
100
AcDbXrecord
  1
monochrome.stb
  0
XRECORD
  5
1088
102
{ACAD_REACTORS
330
1087
102
}
330
1087
100
AcDbXrecord
 90
        1
  0
XRECORD
  5
1089
102
{ACAD_REACTORS
330
1087
102
}
330
1087
100
AcDbXrecord
 90
       70
  0
XRECORD
  5
10A0
102
{ACAD_REACTORS
330
1087
102
}
330
1087
100
AcDbXrecord
340
0
  0
XRECORD
  5
10A6
102
{ACAD_REACTORS
330
1087
102
}
330
1087
100
AcDbXrecord
 10
0.0
 20
0.0
 30
0.0
  0
XRECORD
  5
10A2
102
{ACAD_REACTORS
330
1087
102
}
330
1087
100
AcDbXrecord
 10
0.0
 20
0.0
 30
0.0
  0
XRECORD
  5
10A5
102
{ACAD_REACTORS
330
1087
102
}
330
1087
100
AcDbXrecord
 10
0.0
 20
0.0
 30
0.0
  0
XRECORD
  5
10A3
102
{ACAD_REACTORS
330
1087
102
}
330
1087
100
AcDbXrecord
 10
0.0
 20
0.0
 30
0.0
  0
XRECORD
  5
10A4
102
{ACAD_REACTORS
330
1087
102
}
330
1087
100
AcDbXrecord
 10
0.0
 20
0.0
 30
0.0
  0
XRECORD
  5
10A1
102
{ACAD_REACTORS
330
1087
102
}
330
1087
100
AcDbXrecord
 10
0.0
 20
0.0
 30
0.0
  0
XRECORD
  5
109E
102
{ACAD_REACTORS
330
1087
102
}
330
1087
100
AcDbXrecord
340
0
  0
XRECORD
  5
109F
102
{ACAD_REACTORS
330
1087
102
}
330
1087
100
AcDbXrecord
 70
     0
  0
XRECORD
  5
1093
102
{ACAD_REACTORS
330
1087
102
}
330
1087
100
AcDbXrecord
  1
{BA4A4CA4-FFFF-4525-8D73-617EDEDF34C3}
  0
DICTIONARYVAR
  5
B1A
102
{ACAD_REACTORS
330
B19
102
}
330
B19
100
DictionaryVariables
280
     0
  1
1
  0
ACAD_PROXY_OBJECT
  5
5B7
102
{ACAD_REACTORS
330
5B6
102
}
330
5B6
100
AcDbProxyObject
 90
      499
 91
      574
 93
      118
310
405010040CA904C415CD5B0757102A
350
5B8
 94
        0
1001
ACAD
1000
AcadProxyRoundTripData
1071
      563
1071
   851991
1070
     0
  0
ACAD_PROXY_OBJECT
  5
509
330
0
100
AcDbProxyObject
 90
      499
 91
      574
 93
      156
310
00010143D050D351505391D5531054925390D492
330
506
 94
        0
1001
ACAD
1000
AcadProxyRoundTripData
1071
      517
1071
   851991
1070
     0
  0
ACAD_PROXY_OBJECT
  5
50A
330
0
100
AcDbProxyObject
 90
      499
 91
      574
 93
      148
310
000101439050D351531253915054925390D490
330
506
 94
        0
1001
ACAD
1000
AcadProxyRoundTripData
1071
      517
1071
   851991
1070
     0
  0
ACAD_PROXY_OBJECT
  5
50B
330
0
100
AcDbProxyObject
 90
      499
 91
      574
 93
      156
310
000101439050D35154D6535093D314D256915082
330
506
 94
        0
1001
ACAD
1000
AcadProxyRoundTripData
1071
      518
1071
   851991
1070
     0
  0
ACAD_PROXY_OBJECT
  5
50D
330
0
100
AcDbProxyObject
 90
      499
 91
      574
 93
      120
310
000101422565255A6557080C402B0070
330
506
330
0
330
0
 94
        0
1001
ACAD
1000
AcadProxyRoundTripData
1071
      520
1071
   851991
1070
     0
  0
ACAD_PROXY_OBJECT
  5
514
330
0
100
AcDbProxyObject
 90
      499
 91
      574
 93
      358
310
0001014124FEA55D00507362E332E302E31014124FEA55D00507362E332E302E3140501000041505391D311658
330
506
330
515
330
519
 94
        0
1001
ACAD
1000
AcadProxyRoundTripData
1071
      526
1071
   851991
1070
     0
  0
ACAD_PROXY_OBJECT
  5
515
330
0
100
AcDbProxyObject
 90
      499
 91
      574
 93
       48
310
00019014220011
330
506
330
516
 94
        0
1001
ACAD
1000
AcadProxyRoundTripData
1071
      527
1071
   851991
1070
     0
  0
ACAD_PROXY_OBJECT
  5
516
330
0
100
AcDbProxyObject
 90
      499
 91
      574
 93
       48
310
0001AA00000011
330
506
330
0
330
517
330
0
 94
        0
1001
ACAD
1000
AcadProxyRoundTripData
1071
      528
1071
   851991
1070
     0
  0
ACAD_PROXY_OBJECT
  5
517
330
0
100
AcDbProxyObject
 90
      499
 91
      574
 93
       28
310
0001AAAD
330
506
 94
        0
1001
ACAD
1000
AcadProxyRoundTripData
1071
      529
1071
   851991
1070
     0
  0
ACAD_PROXY_OBJECT
  5
51A
330
0
100
AcDbProxyObject
 90
      499
 91
      574
 93
      108
310
000101421053521310D05310D013
330
506
 94
        0
1001
ACAD
1000
AcadProxyRoundTripData
1071
      518
1071
   851991
1070
     0
  0
ACAD_PROXY_OBJECT
  5
51B
330
0
100
AcDbProxyObject
 90
      499
 91
      574
 93
      124
310
00010142905354915554D15112535013
330
506
 94
        0
1001
ACAD
1000
AcadProxyRoundTripData
1071
      518
1071
   851991
1070
     0
  0
ACAD_PROXY_OBJECT
  5
51C
330
0
100
AcDbProxyObject
 90
      499
 91
      574
 93
      132
310
00010143105354D150D51253D391125362
330
506
 94
        0
1001
ACAD
1000
AcadProxyRoundTripData
1071
      518
1071
   851991
1070
     0
  0
ACAD_PROXY_OBJECT
  5
51D
330
0
100
AcDbProxyObject
 90
      499
 91
      574
 93
      124
310
00010142905355941093D49111549014
330
506
 94
        0
1001
ACAD
1000
AcadProxyRoundTripData
1071
      518
1071
   851991
1070
     0
  0
ACAD_PROXY_OBJECT
  5
51E
330
0
100
AcDbProxyObject
 90
      499
 91
      574
 93
      116
310
0001014290535115D1D0D3D313D4A1
330
506
 94
        0
1001
ACAD
1000
AcadProxyRoundTripData
1071
      518
1071
   851991
1070
     0
  0
ACAD_PROXY_OBJECT
  5
51F
330
0
100
AcDbProxyObject
 90
      499
 91
      574
 93
      148
310
00010143505355925155D49151949154D21015
330
506
 94
        0
1001
ACAD
1000
AcadProxyRoundTripData
1071
      518
1071
   851991
1070
     0
  0
ACAD_PROXY_OBJECT
  5
520
330
0
100
AcDbProxyObject
 90
      499
 91
      574
 93
      172
310
00010144105350539393D51154149154D15495915010
330
506
 94
        0
1001
ACAD
1000
AcadProxyRoundTripData
1071
      518
1071
   851991
1070
     0
  0
ACAD_PROXY_OBJECT
  5
523
330
0
100
AcDbProxyObject
 90
      499
 91
      574
 93
      172
310
00010144105350555513D11253505494905391D15010
330
506
 94
        0
1001
ACAD
1000
AcadProxyRoundTripData
1071
      518
1071
   851991
1070
     0
  0
ACAD_PROXY_OBJECT
  5
524
330
0
100
AcDbProxyObject
 90
      499
 91
      574
 93
      124
310
00010142D05351561514915191125360
330
506
 94
        0
1001
ACAD
1000
AcadProxyRoundTripData
1071
      518
1071
   851991
1070
     0
  0
ACAD_PROXY_OBJECT
  5
525
330
0
100
AcDbProxyObject
 90
      499
 91
      574
 93
      132
310
00010142D05355105410539393D5115013
330
506
 94
        0
1001
ACAD
1000
AcadProxyRoundTripData
1071
      518
1071
   851991
1070
     0
  0
ACAD_PROXY_OBJECT
  5
526
330
0
100
AcDbProxyObject
 90
      499
 91
      574
 93
      108
310
00010142105350555513D0D31013
330
506
 94
        0
1001
ACAD
1000
AcadProxyRoundTripData
1071
      518
1071
   851991
1070
     0
  0
ACAD_PROXY_OBJECT
  5
527
330
0
100
AcDbProxyObject
 90
      499
 91
      574
 93
      108
310
00010142105350D3119150551053
330
506
 94
        0
1001
ACAD
1000
AcadProxyRoundTripData
1071
      518
1071
   851991
1070
     0
  0
ACAD_PROXY_OBJECT
  5
528
330
0
100
AcDbProxyObject
 90
      499
 91
      574
 93
      108
310
00010142105350D315925155D3F3
330
506
 94
        0
1001
ACAD
1000
AcadProxyRoundTripData
1071
      518
1071
   851991
1070
     0
  0
ACAD_PROXY_OBJECT
  5
529
330
0
100
AcDbProxyObject
 90
      499
 91
      574
 93
      148
310
0001014350535212511156915493D112535010
330
506
 94
        0
1001
ACAD
1000
AcadProxyRoundTripData
1071
      518
1071
   851991
1070
     0
  0
ACAD_PROXY_OBJECT
  5
52A
330
0
100
AcDbProxyObject
 90
      499
 91
      574
 93
      124
310
00010142905352105510D21254D3D013
330
506
 94
        0
1001
ACAD
1000
AcadProxyRoundTripData
1071
      518
1071
   851991
1070
     0
  0
ACAD_PROXY_OBJECT
  5
52B
330
0
100
AcDbProxyObject
 90
      499
 91
      574
 93
      148
310
00010143905354D25391D31152105513105660
330
506
 94
        0
1001
ACAD
1000
AcadProxyRoundTripData
1071
      518
1071
   851991
1070
     0
  0
ACAD_PROXY_OBJECT
  5
52C
330
0
100
AcDbProxyObject
 90
      499
 91
      574
 93
      124
310
00010142D0535115D1D193111254D424
330
506
 94
        0
1001
ACAD
1000
AcadProxyRoundTripData
1071
      518
1071
   851991
1070
     0
  0
ACAD_PROXY_OBJECT
  5
52D
330
0
100
AcDbProxyObject
 90
      499
 91
      574
 93
      100
310
00010142105350555513D213A5
330
506
 94
        0
1001
ACAD
1000
AcadProxyRoundTripData
1071
      518
1071
   851991
1070
     0
  0
ACAD_PROXY_OBJECT
  5
52E
330
0
100
AcDbProxyObject
 90
      499
 91
      574
 93
      116
310
000101425053521390D3D553951013
330
506
 94
        0
1001
ACAD
1000
AcadProxyRoundTripData
1071
      518
1071
   851991
1070
     0
  0
ACAD_PROXY_OBJECT
  5
52F
330
0
100
AcDbProxyObject
 90
      499
 91
      574
 93
      108
310
0001014210535213941493D29010
330
506
 94
        0
1001
ACAD
1000
AcadProxyRoundTripData
1071
      518
1071
   851991
1070
     0
  0
ACAD_PROXY_OBJECT
  5
530
330
0
100
AcDbProxyObject
 90
      499
 91
      574
 93
      108
310
0001014210535213951654115070
330
506
 94
        0
1001
ACAD
1000
AcadProxyRoundTripData
1071
      518
1071
   851991
1070
     0
  0
ACAD_PROXY_OBJECT
  5
531
330
0
100
AcDbProxyObject
 90
      499
 91
      574
 93
      108
310
000101421053521395925155D0F0
330
506
 94
        0
1001
ACAD
1000
AcadProxyRoundTripData
1071
      518
1071
   851991
1070
     0
  0
ACAD_PROXY_OBJECT
  5
532
330
0
100
AcDbProxyObject
 90
      499
 91
      574
 93
      140
310
00010143505354D150D51253D390D3D41665
330
506
 94
        0
1001
ACAD
1000
AcadProxyRoundTripData
1071
      518
1071
   851991
1070
     0
  0
ACAD_PROXY_OBJECT
  5
533
330
0
100
AcDbProxyObject
 90
      499
 91
      574
 93
      108
310
00010142105350D3141493D29030
330
506
 94
        0
1001
ACAD
1000
AcadProxyRoundTripData
1071
      518
1071
   851991
1070
     0
  0
ACAD_PROXY_OBJECT
  5
534
330
0
100
AcDbProxyObject
 90
      499
 91
      574
 93
      212
310
00010143905350555513D2105510D21493D500000000000002E400
330
506
 94
        0
1001
ACAD
1000
AcadProxyRoundTripData
1071
      517
1071
   851991
1070
     0
  0
ACAD_PROXY_OBJECT
  5
535
330
0
100
AcDbProxyObject
 90
      499
 91
      574
 93
      156
310
00010143905350555513D2105510D21111551010
330
506
 94
        0
1001
ACAD
1000
AcadProxyRoundTripData
1071
      518
1071
   851991
1070
     0
  0
ACAD_PROXY_OBJECT
  5
542
330
0
100
AcDbProxyObject
 90
      499
 91
      574
 93
      116
310
000101425053541051D15311539191
330
506
 94
        0
1001
ACAD
1000
AcadProxyRoundTripData
1071
      518
1071
   851991
1070
     0
  0
ACAD_PROXY_OBJECT
  5
543
330
0
100
AcDbProxyObject
 90
      499
 91
      574
 93
      108
310
000101421053555312539154D053
330
506
 94
        0
1001
ACAD
1000
AcadProxyRoundTripData
1071
      518
1071
   851991
1070
     0
  0
ACAD_PROXY_OBJECT
  5
544
330
0
100
AcDbProxyObject
 90
      499
 91
      574
 93
      108
310
000101421053559312539154D033
330
506
 94
        0
1001
ACAD
1000
AcadProxyRoundTripData
1071
      518
1071
   851991
1070
     0
  0
ACAD_PROXY_OBJECT
  5
545
330
0
100
AcDbProxyObject
 90
      499
 91
      574
 93
      140
310
00010143105354D1911254D41353D111501A
330
506
 94
        0
1001
ACAD
1000
AcadProxyRoundTripData
1071
      518
1071
   851991
1070
     0
  0
ACAD_PROXY_OBJECT
  5
546
330
0
100
AcDbProxyObject
 90
      499
 91
      574
 93
      172
310
00010142505354119255105391C1C052DC9A6F104403
330
506
 94
        0
1001
ACAD
1000
AcadProxyRoundTripData
1071
      517
1071
   851991
1070
     0
  0
ACAD_PROXY_OBJECT
  5
547
330
0
100
AcDbProxyObject
 90
      499
 91
      574
 93
      164
310
000101421053559150D05551C000000000000E03F8
330
506
 94
        0
1001
ACAD
1000
AcadProxyRoundTripData
1071
      517
1071
   851991
1070
     0
  0
ACAD_PROXY_OBJECT
  5
548
330
0
100
AcDbProxyObject
 90
      499
 91
      574
 93
      180
310
00010142905350931153911513D307B14AE47E17A843F3
330
506
 94
        0
1001
ACAD
1000
AcadProxyRoundTripData
1071
      517
1071
   851991
1070
     0
  0
ACAD_PROXY_OBJECT
  5
549
330
0
100
AcDbProxyObject
 90
      499
 91
      574
 93
      172
310
0001014250535293D25391D05407B14AE47E17A843F8
330
506
 94
        0
1001
ACAD
1000
AcadProxyRoundTripData
1071
      517
1071
   851991
1070
     0
  0
ACAD_PROXY_OBJECT
  5
54A
330
0
100
AcDbProxyObject
 90
      499
 91
      574
 93
      172
310
000101425053541192551311538000000FC83D797418
330
506
 94
        0
1001
ACAD
1000
AcadProxyRoundTripData
1071
      517
1071
   851991
1070
     0
  0
ACAD_PROXY_OBJECT
  5
54B
330
0
100
AcDbProxyObject
 90
      499
 91
      574
 93
      156
310
00010141D053559150D4D18000000000000E03F8
330
506
 94
        0
1001
ACAD
1000
AcadProxyRoundTripData
1071
      517
1071
   851991
1070
     0
  0
ACAD_PROXY_OBJECT
  5
54C
330
0
100
AcDbProxyObject
 90
      499
 91
      574
 93
      156
310
00010141D05354D19513D309A9999999999993F8
330
506
 94
        0
1001
ACAD
1000
AcadProxyRoundTripData
1071
      517
1071
   851991
1070
     0
  0
ACAD_PROXY_OBJECT
  5
54D
330
0
100
AcDbProxyObject
 90
      499
 91
      574
 93
      172
310
000101425053541192551513D307B14AE47E17A843F8
330
506
 94
        0
1001
ACAD
1000
AcadProxyRoundTripData
1071
      517
1071
   851991
1070
     0
  0
ACAD_PROXY_OBJECT
  5
54E
330
0
100
AcDbProxyObject
 90
      499
 91
      574
 93
      188
310
00010142D05354D151D192551513D307B14AE47E17A843F0
330
506
 94
        0
1001
ACAD
1000
AcadProxyRoundTripData
1071
      517
1071
   851991
1070
     0
  0
ACAD_PROXY_OBJECT
  5
54F
330
0
100
AcDbProxyObject
 90
      499
 91
      574
 93
      148
310
000101419053541311538000000FC83D79741F
330
506
 94
        0
1001
ACAD
1000
AcadProxyRoundTripData
1071
      517
1071
   851991
1070
     0
  0
ACAD_PROXY_OBJECT
  5
550
330
0
100
AcDbProxyObject
 90
      499
 91
      574
 93
      172
310
00010142505354105391D513D301C052DC9A6F104402
330
506
 94
        0
1001
ACAD
1000
AcadProxyRoundTripData
1071
      517
1071
   851991
1070
     0
  0
ACAD_PROXY_OBJECT
  5
551
330
0
100
AcDbProxyObject
 90
      499
 91
      574
 93
      132
310
0001014114D25691400000000000024404
330
506
 94
        0
1001
ACAD
1000
AcadProxyRoundTripData
1071
      517
1071
   851991
1070
     0
  0
ACAD_PROXY_OBJECT
  5
552
330
0
100
AcDbProxyObject
 90
      499
 91
      574
 93
      156
310
00010142905351D4941491519256005034153470
330
506
 94
        0
1001
ACAD
1000
AcadProxyRoundTripData
1071
      539
1071
   851991
1070
     0
  0
ACAD_PROXY_OBJECT
  5
553
330
0
100
AcDbProxyObject
 90
      499
 91
      574
 93
      314
310
00014080509646973745363616C650000000000003C2FC000000000000F0BF0000003F20F5E5D050
330
506
 94
        0
1001
ACAD
1000
AcadProxyRoundTripData
1071
      540
1071
   851991
1070
     0
  0
ACAD_PROXY_OBJECT
  5
554
330
0
100
AcDbProxyObject
 90
      499
 91
      574
 93
      322
310
0001408050A65646175526F74617465060B51153EC87E4FC182D4454FB2119C0060B51153EC8465004
330
506
 94
        0
1001
ACAD
1000
AcadProxyRoundTripData
1071
      540
1071
   851991
1070
     0
  0
ACAD_PROXY_OBJECT
  5
555
330
0
100
AcDbProxyObject
 90
      499
 91
      574
 93
      314
310
00014080509656461755477697374060B51153EC846500000000FC83D797C10000003F20F5E5D050
330
506
 94
        0
1001
ACAD
1000
AcadProxyRoundTripData
1071
      540
1071
   851991
1070
     0
  0
ACAD_PROXY_OBJECT
  5
556
330
0
100
AcDbProxyObject
 90
      499
 91
      574
 93
      294
310
000140C050A656467654F75747075740144F3B7F635ECB74A140A4817D41BDB1E5B1A5B994
330
506
 94
        0
1001
ACAD
1000
AcadProxyRoundTripData
1071
      541
1071
   851991
1070
     0
  0
ACAD_PROXY_OBJECT
  5
557
330
0
100
AcDbProxyObject
 90
      499
 91
      574
 93
      154
310
0001404050B65646974507265766965774064040
330
506
 94
        0
1001
ACAD
1000
AcadProxyRoundTripData
1071
      542
1071
   851991
1070
     0
  0
ACAD_PROXY_OBJECT
  5
558
330
0
100
AcDbProxyObject
 90
      499
 91
      574
 93
      170
310
0001404050A666C6F77556C696E657342A3A00C00003
330
506
 94
        0
1001
ACAD
1000
AcadProxyRoundTripData
1071
      542
1071
   851991
1070
     0
  0
ACAD_PROXY_OBJECT
  5
559
330
0
100
AcDbProxyObject
 90
      499
 91
      574
 93
      170
310
0001404050A666C6F77566C696E657342A3A00C00003
330
506
 94
        0
1001
ACAD
1000
AcadProxyRoundTripData
1071
      542
1071
   851991
1070
     0
  0
ACAD_PROXY_OBJECT
  5
55A
330
0
100
AcDbProxyObject
 90
      499
 91
      574
 93
      322
310
0001408050A666C7366456E645261640000000000003C2FC000000000000F0BF0000003F20F5E5D044
330
506
 94
        0
1001
ACAD
1000
AcadProxyRoundTripData
1071
      540
1071
   851991
1070
     0
  0
ACAD_PROXY_OBJECT
  5
55B
330
0
100
AcDbProxyObject
 90
      499
 91
      574
 93
      246
310
000140C05086A6E33644D6F64650143E3BA24EB8A134A4817D3585B9D585B1
330
506
 94
        0
1001
ACAD
1000
AcadProxyRoundTripData
1071
      541
1071
   851991
1070
     0
  0
ACAD_PROXY_OBJECT
  5
55C
330
0
100
AcDbProxyObject
 90
      499
 91
      574
 93
      294
310
000140C050A6A6E33644F75747075740144F3B7F635ECB74A140A4817D41BDB1E5B1A5B995
330
506
 94
        0
1001
ACAD
1000
AcadProxyRoundTripData
1071
      541
1071
   851991
1070
     0
  0
ACAD_PROXY_OBJECT
  5
55D
330
0
100
AcDbProxyObject
 90
      499
 91
      574
 93
      306
310
000140805086C656E675065726300000000002016D002D431CEBE2361A3F0000003F20F5E5D046
330
506
 94
        0
1001
ACAD
1000
AcadProxyRoundTripData
1071
      540
1071
   851991
1070
     0
  0
ACAD_PROXY_OBJECT
  5
55E
330
0
100
AcDbProxyObject
 90
      499
 91
      574
 93
      266
310
0001408050B6D61737344656E7369747942D431CEBE2361A3F0000003F20F5E5D04B
330
506
 94
        0
1001
ACAD
1000
AcadProxyRoundTripData
1071
      540
1071
   851991
1070
     0
  0
ACAD_PROXY_OBJECT
  5
55F
330
0
100
AcDbProxyObject
 90
      499
 91
      574
 93
      186
310
000140805096D617373546869636BA0000003F20F5E5D07D
330
506
 94
        0
1001
ACAD
1000
AcadProxyRoundTripData
1071
      540
1071
   851991
1070
     0
  0
ACAD_PROXY_OBJECT
  5
560
330
0
100
AcDbProxyObject
 90
      499
 91
      574
 93
      230
310
000140C05086D6173735479706501436F2AB64A14CA4817D4DA195B1B1
330
506
 94
        0
1001
ACAD
1000
AcadProxyRoundTripData
1071
      541
1071
   851991
1070
     0
  0
ACAD_PROXY_OBJECT
  5
561
330
0
100
AcDbProxyObject
 90
      499
 91
      574
 93
      242
310
000140805086F667366446973744000000FC83D797C10000003F20F5E5D065
330
506
 94
        0
1001
ACAD
1000
AcadProxyRoundTripData
1071
      540
1071
   851991
1070
     0
  0
ACAD_PROXY_OBJECT
  5
562
330
0
100
AcDbProxyObject
 90
      499
 91
      574
 93
      258
310
0001408050A7072696D52616469757342D431CEBE2361A3F0000003F20F5E5D050
330
506
 94
        0
1001
ACAD
1000
AcadProxyRoundTripData
1071
      540
1071
   851991
1070
     0
  0
ACAD_PROXY_OBJECT
  5
563
330
0
100
AcDbProxyObject
 90
      499
 91
      574
 93
      194
310
0001408050A7072696D546F70526164A0000003F20F5E5D07F
330
506
 94
        0
1001
ACAD
1000
AcadProxyRoundTripData
1071
      540
1071
   851991
1070
     0
  0
ACAD_PROXY_OBJECT
  5
564
330
0
100
AcDbProxyObject
 90
      499
 91
      574
 93
      266
310
0001408050B7072696D5475626552616442D431CEBE2361A3F0000003F20F5E5D04B
330
506
 94
        0
1001
ACAD
1000
AcadProxyRoundTripData
1071
      540
1071
   851991
1070
     0
  0
ACAD_PROXY_OBJECT
  5
565
330
0
100
AcDbProxyObject
 90
      499
 91
      574
 93
      258
310
0001408050A7072696D4865696768744000000FC83D797C10000003F20F5E5D046
330
506
 94
        0
1001
ACAD
1000
AcadProxyRoundTripData
1071
      540
1071
   851991
1070
     0
  0
ACAD_PROXY_OBJECT
  5
566
330
0
100
AcDbProxyObject
 90
      499
 91
      574
 93
      250
310
000140805097072696D5374416E678182D4454FB2119C0060B51153EC8465000
330
506
 94
        0
1001
ACAD
1000
AcadProxyRoundTripData
1071
      540
1071
   851991
1070
     0
  0
ACAD_PROXY_OBJECT
  5
567
330
0
100
AcDbProxyObject
 90
      499
 91
      574
 93
      322
310
0001408050A7072696D456E64416E67060B51153EC846500182D4454FB2119C0060B51153EC8465004
330
506
 94
        0
1001
ACAD
1000
AcadProxyRoundTripData
1071
      540
1071
   851991
1070
     0
  0
ACAD_PROXY_OBJECT
  5
568
330
0
100
AcDbProxyObject
 90
      499
 91
      574
 93
      242
310
000140805087265765374416E678182D4454FB2119C0060B51153EC8465000
330
506
 94
        0
1001
ACAD
1000
AcadProxyRoundTripData
1071
      540
1071
   851991
1070
     0
  0
ACAD_PROXY_OBJECT
  5
569
330
0
100
AcDbProxyObject
 90
      499
 91
      574
 93
      314
310
00014080509726576456E64416E67060B51153EC846500182D4454FB2119C0060B51153EC8465021
330
506
 94
        0
1001
ACAD
1000
AcadProxyRoundTripData
1071
      540
1071
   851991
1070
     0
  0
ACAD_PROXY_OBJECT
  5
56A
330
0
100
AcDbProxyObject
 90
      499
 91
      574
 93
      194
310
0001404050C7266736655706174636865734290139C0C0003D
330
506
 94
        0
1001
ACAD
1000
AcadProxyRoundTripData
1071
      542
1071
   851991
1070
     0
  0
ACAD_PROXY_OBJECT
  5
56B
330
0
100
AcDbProxyObject
 90
      499
 91
      574
 93
      194
310
0001404050C7266736656706174636865734290139C0C0003D
330
506
 94
        0
1001
ACAD
1000
AcadProxyRoundTripData
1071
      542
1071
   851991
1070
     0
  0
ACAD_PROXY_OBJECT
  5
56C
330
0
100
AcDbProxyObject
 90
      499
 91
      574
 93
      246
310
000140C0508747562654D6F64650143E3BA24EB8A134A4817D3585B9D585B0
330
506
 94
        0
1001
ACAD
1000
AcadProxyRoundTripData
1071
      541
1071
   851991
1070
     0
  0
ACAD_PROXY_OBJECT
  5
56D
330
0
100
AcDbProxyObject
 90
      499
 91
      574
 93
      274
310
0001408050C747562654469616D6574657242D431CEBE2361A3F0000003F20F5E5D071
330
506
 94
        0
1001
ACAD
1000
AcadProxyRoundTripData
1071
      540
1071
   851991
1070
     0
  0
ACAD_PROXY_OBJECT
  5
56E
330
0
100
AcDbProxyObject
 90
      499
 91
      574
 93
      130
310
00014040509696E746572506F6C79A4056
330
506
 94
        0
1001
ACAD
1000
AcadProxyRoundTripData
1071
      542
1071
   851991
1070
     0
  0
ACAD_PROXY_OBJECT
  5
56F
330
0
100
AcDbProxyObject
 90
      499
 91
      574
 93
      162
310
0001404050D696E746572417567506F696E74A406C
330
506
 94
        0
1001
ACAD
1000
AcadProxyRoundTripData
1071
      542
1071
   851991
1070
     0
  0
ACAD_PROXY_OBJECT
  5
570
330
0
100
AcDbProxyObject
 90
      499
 91
      574
 93
      238
310
000140C0509696E7465727472696D014365EF257ECA108A4817D09BDD1A1
330
506
 94
        0
1001
ACAD
1000
AcadProxyRoundTripData
1071
      541
1071
   851991
1070
     0
  0
ACAD_PROXY_OBJECT
  5
571
330
0
100
AcDbProxyObject
 90
      499
 91
      574
 93
      230
310
000140C0509696E7465727479706501433136344A150A4817D51C9A5B5
330
506
 94
        0
1001
ACAD
1000
AcadProxyRoundTripData
1071
      541
1071
   851991
1070
     0
  0
ACAD_PROXY_OBJECT
  5
572
330
0
100
AcDbProxyObject
 90
      499
 91
      574
 93
      146
310
0001404050A636F726E65727472696D4064060
330
506
 94
        0
1001
ACAD
1000
AcadProxyRoundTripData
1071
      542
1071
   851991
1070
     0
  0
ACAD_PROXY_OBJECT
  5
573
330
0
100
AcDbProxyObject
 90
      499
 91
      574
 93
      130
310
000140405086F6673666B656570406404A
330
506
 94
        0
1001
ACAD
1000
AcadProxyRoundTripData
1071
      542
1071
   851991
1070
     0
  0
ACAD_PROXY_OBJECT
  5
574
330
0
100
AcDbProxyObject
 90
      499
 91
      574
 93
      146
310
0001404050A70726F6A4F757470757440A40E0
330
506
 94
        0
1001
ACAD
1000
AcadProxyRoundTripData
1071
      542
1071
   851991
1070
     0
  0
ACAD_PROXY_OBJECT
  5
575
330
0
100
AcDbProxyObject
 90
      499
 91
      574
 93
      270
310
000140C050D70726F6A446972656374696F6E014372F7AB6C0A124A4817DD92595DD
330
506
 94
        0
1001
ACAD
1000
AcadProxyRoundTripData
1071
      541
1071
   851991
1070
     0
  0
ACAD_PROXY_OBJECT
  5
576
330
0
100
AcDbProxyObject
 90
      499
 91
      574
 93
      130
310
0001404050870726F6A4B6565704064070
330
506
 94
        0
1001
ACAD
1000
AcadProxyRoundTripData
1071
      542
1071
   851991
1070
     0
  0
ACAD_PROXY_OBJECT
  5
577
330
0
100
AcDbProxyObject
 90
      499
 91
      574
 93
      278
310
000140C050B70726F6A53706163696E670144237164D2CA13CA4817D3DC1D1A5B585B1
330
506
 94
        0
1001
ACAD
1000
AcadProxyRoundTripData
1071
      541
1071
   851991
1070
     0
  0
ACAD_PROXY_OBJECT
  5
578
330
0
100
AcDbProxyObject
 90
      499
 91
      574
 93
      250
310
0001408050970726F6A54617065728182D4454FB21F9BF060B51153EC87E4FFD
330
506
 94
        0
1001
ACAD
1000
AcadProxyRoundTripData
1071
      540
1071
   851991
1070
     0
  0
ACAD_PROXY_OBJECT
  5
579
330
0
100
AcDbProxyObject
 90
      499
 91
      574
 93
      130
310
00014040508647261674B6565704064057
330
506
 94
        0
1001
ACAD
1000
AcadProxyRoundTripData
1071
      542
1071
   851991
1070
     0
  0
ACAD_PROXY_OBJECT
  5
57A
330
0
100
AcDbProxyObject
 90
      499
 91
      574
 93
      302
310
000140C050F647261674F7269656E746174696F6E0143E590243F0A138A4817D39BDC9B585B1
330
506
 94
        0
1001
ACAD
1000
AcadProxyRoundTripData
1071
      541
1071
   851991
1070
     0
  0
ACAD_PROXY_OBJECT
  5
57B
330
0
100
AcDbProxyObject
 90
      499
 91
      574
 93
      286
310
000140C050E647261675472616E736974696F6E0143A3B6A4DE0A10CA4817DCD0D85B195
330
506
 94
        0
1001
ACAD
1000
AcadProxyRoundTripData
1071
      541
1071
   851991
1070
     0
  0
ACAD_PROXY_OBJECT
  5
57C
330
0
100
AcDbProxyObject
 90
      499
 91
      574
 93
      318
310
000140C051061646A757374436F6E74696E7569747901442F746C2F778A14CA4817D4DB5BDBDD1A1
330
506
 94
        0
1001
ACAD
1000
AcadProxyRoundTripData
1071
      541
1071
   851991
1070
     0
  0
ACAD_PROXY_OBJECT
  5
57D
330
0
100
AcDbProxyObject
 90
      499
 91
      574
 93
      138
310
0001404050A61646A7573744B656570A405C
330
506
 94
        0
1001
ACAD
1000
AcadProxyRoundTripData
1071
      542
1071
   851991
1070
     0
  0
ACAD_PROXY_OBJECT
  5
57E
330
0
100
AcDbProxyObject
 90
      499
 91
      574
 93
      250
310
0001408050972756C65576964746842D431CEBE2361A3F0000003F20F5E5D048
330
506
 94
        0
1001
ACAD
1000
AcadProxyRoundTripData
1071
      540
1071
   851991
1070
     0
  0
ACAD_PROXY_OBJECT
  5
57F
330
0
100
AcDbProxyObject
 90
      499
 91
      574
 93
      274
310
0001408050C616E616C797A65447261667421D139D28615ED8FE060B51153EC8425003
330
506
 94
        0
1001
ACAD
1000
AcadProxyRoundTripData
1071
      540
1071
   851991
1070
     0
  0
ACAD_PROXY_OBJECT
  5
580
330
0
100
AcDbProxyObject
 90
      499
 91
      574
 93
      210
310
0001404050F616E616C797A654E756D4C696E65734163FDFC00026
330
506
 94
        0
1001
ACAD
1000
AcadProxyRoundTripData
1071
      542
1071
   851991
1070
     0
  0
ACAD_PROXY_OBJECT
  5
581
330
0
100
AcDbProxyObject
 90
      499
 91
      574
 93
      202
310
00014040512616E616C797A65526F746174654C696E6573A4040
330
506
 94
        0
1001
ACAD
1000
AcadProxyRoundTripData
1071
      542
1071
   851991
1070
     0
  0
ACAD_PROXY_OBJECT
  5
582
330
0
100
AcDbProxyObject
 90
      499
 91
      574
 93
      210
310
00014040513616E616C797A65446973706C61794C696E6573A4066
330
506
 94
        0
1001
ACAD
1000
AcadProxyRoundTripData
1071
      542
1071
   851991
1070
     0
  0
ACAD_PROXY_OBJECT
  5
583
330
0
100
AcDbProxyObject
 90
      499
 91
      574
 93
      258
310
00014040519616E616C797A655472616E736C7563656E7453757266616365A4043
330
506
 94
        0
1001
ACAD
1000
AcadProxyRoundTripData
1071
      542
1071
   851991
1070
     0
  0
ACAD_PROXY_OBJECT
  5
58C
330
0
100
AcDbProxyObject
 90
      499
 91
      574
 93
      698
310
0001000000009AA6A9AA4051E4D6F6E204F63742031332030303A33373A353920323030382028555443290141CD8B8D0B8C0B8C405184D6F6E204F63742031332030393A34313A333120323030380141CD8B8D0B8C0B8C4A
330
506
330
58D
330
58E
330
590
330
0
 94
        0
1001
ACAD
1000
AcadProxyRoundTripData
1071
      548
1071
   851991
1070
     0
  0
ACAD_PROXY_OBJECT
  5
58D
330
0
100
AcDbProxyObject
 90
      499
 91
      574
 93
       70
310
0001AAA80820000000
330
506
330
58D
330
58D
 94
        0
1001
ACAD
1000
AcadProxyRoundTripData
1071
      549
1071
   851991
1070
     0
  0
ACAD_PROXY_OBJECT
  5
58E
330
0
100
AcDbProxyObject
 90
      499
 91
      574
 93
       48
310
00010000000011
330
506
330
0
330
58F
330
0
330
0
 94
        0
1001
ACAD
1000
AcadProxyRoundTripData
1071
      550
1071
   851991
1070
     0
  0
ACAD_PROXY_OBJECT
  5
58F
330
0
100
AcDbProxyObject
 90
      499
 91
      574
 93
       40
310
000100AAAA01
330
506
330
0
 94
        0
1001
ACAD
1000
AcadProxyRoundTripData
1071
      551
1071
   851991
1070
     0
  0
ACAD_PROXY_OBJECT
  5
591
330
0
100
AcDbProxyObject
 90
      499
 91
      574
 93
      124
310
00010142905350D3D39114D414D69051
330
506
 94
        0
1001
ACAD
1000
AcadProxyRoundTripData
1071
      518
1071
   851991
1070
     0
  0
ACAD_PROXY_OBJECT
  5
592
330
0
100
AcDbProxyObject
 90
      499
 91
      574
 93
      124
310
000101429053549553115353D1115011
330
506
 94
        0
1001
ACAD
1000
AcadProxyRoundTripData
1071
      518
1071
   851991
1070
     0
  0
ACAD_PROXY_OBJECT
  5
593
330
0
100
AcDbProxyObject
 90
      499
 91
      574
 93
      108
310
00010142105354D2D353D1115013
330
506
 94
        0
1001
ACAD
1000
AcadProxyRoundTripData
1071
      518
1071
   851991
1070
     0
  0
ACAD_PROXY_OBJECT
  5
594
330
0
100
AcDbProxyObject
 90
      499
 91
      574
 93
      140
310
000101435053511253511254D41353D11160
330
506
 94
        0
1001
ACAD
1000
AcadProxyRoundTripData
1071
      518
1071
   851991
1070
     0
  0
ACAD_PROXY_OBJECT
  5
595
330
0
100
AcDbProxyObject
 90
      499
 91
      574
 93
      180
310
00010142905354D2D05391D513D300000000000001040C
330
506
 94
        0
1001
ACAD
1000
AcadProxyRoundTripData
1071
      517
1071
   851991
1070
     0
  0
ACAD_PROXY_OBJECT
  5
596
330
0
100
AcDbProxyObject
 90
      499
 91
      574
 93
      164
310
00010142505354D2D4D516531140505434F4E542AB
330
506
 94
        0
1001
ACAD
1000
AcadProxyRoundTripData
1071
      539
1071
   851991
1070
     0
  0
ACAD_PROXY_OBJECT
  5
597
330
0
100
AcDbProxyObject
 90
      499
 91
      574
 93
      108
310
00010142105350D3511112535016
330
506
 94
        0
1001
ACAD
1000
AcadProxyRoundTripData
1071
      518
1071
   851991
1070
     0
  0
ACAD_PROXY_OBJECT
  5
598
330
0
100
AcDbProxyObject
 90
      499
 91
      574
 93
      108
310
00010142105350D3D35414D59016
330
506
 94
        0
1001
ACAD
1000
AcadProxyRoundTripData
1071
      518
1071
   851991
1070
     0
  0
ACAD_PROXY_OBJECT
  5
599
330
0
100
AcDbProxyObject
 90
      499
 91
      574
 93
      164
310
0001014290535410549514D4119600504CADFB0C2B
330
506
 94
        0
1001
ACAD
1000
AcadProxyRoundTripData
1071
      539
1071
   851991
1070
     0
  0
ACAD_PROXY_OBJECT
  5
59A
330
0
100
AcDbProxyObject
 90
      499
 91
      574
 93
      220
310
0001014350535513D3D31093D11654119600508C2B0D9CEDEC3DEA83
330
506
 94
        0
1001
ACAD
1000
AcadProxyRoundTripData
1071
      539
1071
   851991
1070
     0
  0
ACAD_PROXY_OBJECT
  5
59B
330
0
100
AcDbProxyObject
 90
      499
 91
      574
 93
      116
310
000101425053511254D410D3D39011
330
506
 94
        0
1001
ACAD
1000
AcadProxyRoundTripData
1071
      518
1071
   851991
1070
     0
  0
ACAD_PROXY_OBJECT
  5
59C
330
0
100
AcDbProxyObject
 90
      499
 91
      574
 93
      108
310
00010142105350D3D39114D41016
330
506
 94
        0
1001
ACAD
1000
AcadProxyRoundTripData
1071
      518
1071
   851991
1070
     0
  0
ACAD_PROXY_OBJECT
  5
59D
330
0
100
AcDbProxyObject
 90
      499
 91
      574
 93
      124
310
0001014290535490511114D414D69190
330
506
 94
        0
1001
ACAD
1000
AcadProxyRoundTripData
1071
      518
1071
   851991
1070
     0
  0
ACAD_PROXY_OBJECT
  5
5A3
330
0
100
AcDbProxyObject
 90
      499
 91
      574
 93
      132
310
00010142D05050555513D4D3D315915013
330
506
 94
        0
1001
ACAD
1000
AcadProxyRoundTripData
1071
      518
1071
   851991
1070
     0
  0
ACAD_PROXY_OBJECT
  5
5A4
330
0
100
AcDbProxyObject
 90
      499
 91
      574
 93
      156
310
00010143905050555513D054D4D1535093115015
330
506
 94
        0
1001
ACAD
1000
AcadProxyRoundTripData
1071
      518
1071
   851991
1070
     0
  0
ACAD_PROXY_OBJECT
  5
5A5
330
0
100
AcDbProxyObject
 90
      499
 91
      574
 93
      148
310
00010143505055925155D49154D513D4915015
330
506
 94
        0
1001
ACAD
1000
AcadProxyRoundTripData
1071
      518
1071
   851991
1070
     0
  0
ACAD_PROXY_OBJECT
  5
5A6
330
0
100
AcDbProxyObject
 90
      499
 91
      574
 93
      124
310
00010142D050525394D15495105094E5
330
506
 94
        0
1001
ACAD
1000
AcadProxyRoundTripData
1071
      518
1071
   851991
1070
     0
  0
ACAD_PROXY_OBJECT
  5
5A7
330
0
100
AcDbProxyObject
 90
      499
 91
      574
 93
      148
310
00010143505054D0D153915554111055115015
330
506
 94
        0
1001
ACAD
1000
AcadProxyRoundTripData
1071
      518
1071
   851991
1070
     0
  0
ACAD_PROXY_OBJECT
  5
5A8
330
0
100
AcDbProxyObject
 90
      499
 91
      574
 93
      172
310
00010143105054D5509054D4D3541196005035355425
330
506
 94
        0
1001
ACAD
1000
AcadProxyRoundTripData
1071
      539
1071
   851991
1070
     0
  0
ACAD_PROXY_OBJECT
  5
5A9
330
0
100
AcDbProxyObject
 90
      499
 91
      574
 93
      172
310
00010142905054D0D15391541196005055343454E455
330
506
 94
        0
1001
ACAD
1000
AcadProxyRoundTripData
1071
      539
1071
   851991
1070
     0
  0
ACAD_PROXY_OBJECT
  5
5AA
330
0
100
AcDbProxyObject
 90
      499
 91
      574
 93
      148
310
00010143505350555513D313D0D2D4D0D39016
330
506
 94
        0
1001
ACAD
1000
AcadProxyRoundTripData
1071
      518
1071
   851991
1070
     0
  0
ACAD_PROXY_OBJECT
  5
5AF
330
0
100
AcDbProxyObject
 90
      499
 91
      574
 93
       32
310
000100002F
330
506
340
5AC
330
5B1
330
5AC
 94
        0
1001
ACAD
1000
AcadProxyRoundTripData
1071
      557
1071
   851991
1070
     0
  0
ACAD_PROXY_OBJECT
  5
5B0
330
0
100
AcDbProxyObject
 90
      499
 91
      574
 93
       18
310
000190
330
506
 94
        0
1001
ACAD
1000
AcadProxyRoundTripData
1071
      558
1071
   851991
1070
     0
  0
ACAD_PROXY_OBJECT
  5
5B1
330
0
100
AcDbProxyObject
 90
      499
 91
      574
 93
      111
310
0001014150D5930C0D5050055400
330
506
330
5AF
330
5B0
 94
        0
1001
ACAD
1000
AcadProxyRoundTripData
1071
      559
1071
   851991
1070
     0
  0
ACAD_PROXY_OBJECT
  5
5B2
330
0
100
AcDbProxyObject
 90
      499
 91
      574
 93
       40
310
000100AAAA00
330
506
330
5B1
 94
        0
1001
ACAD
1000
AcadProxyRoundTripData
1071
      560
1071
   851991
1070
     0
  0
ACAD_PROXY_OBJECT
  5
5B3
330
0
100
AcDbProxyObject
 90
      499
 91
      574
 93
      108
310
0001901422000000000000AAAAA0
330
506
330
5B4
330
5B4
330
5B4
330
5B4
330
5B4
330
0
 94
        0
1001
ACAD
1000
AcadProxyRoundTripData
1071
      561
1071
   851991
1070
     0
  0
ACAD_PROXY_OBJECT
  5
5B4
330
0
100
AcDbProxyObject
 90
      499
 91
      574
 93
       51
310
00010000AAAA84
330
506
330
5B3
330
5B1
 94
        0
1001
ACAD
1000
AcadProxyRoundTripData
1071
      562
1071
   851991
1070
     0
  0
ACAD_PROXY_OBJECT
  5
5C5
330
0
100
AcDbProxyObject
 90
      499
 91
      574
 93
      140
310
00010142105350D55494D5110050349534F8
330
506
 94
        0
1001
ACAD
1000
AcadProxyRoundTripData
1071
      539
1071
   851991
1070
     0
  0
DICTIONARY
  5
4FE
102
{ACAD_REACTORS
330
4FD
102
}
330
4FD
100
AcDbDictionary
  3
DWGSETTINGS
350
4FF
1001
ACAD
1000
TREAT_AS_HARD
1070
     0
1000
TREAT_AS_HARD
1070
     0
1000
TREAT_AS_HARD
1070
     0
  0
ACAD_PROXY_OBJECT
  5
5C3
102
{ACAD_REACTORS
330
4FD
102
}
330
4FD
100
AcDbProxyObject
 90
      499
 91
      574
 93
    12938
310
41102491013041105357CC1074CA404C504414D5F31439329013241105357CC9054CA404CD04414D5F33419199013441105357CD103466404D504414D5F3540D199013641105357CD90248E404DD04414D5F37411199013841105357CE101466404E504414D5F397F641102324141505357CC4C1074CA408D10505414D5F31
310
3140D19902495041505357CC4C9074C902408C13905414D5F304E41D32902314E41505357CC5390E4CA408C93905414D5F324E41532902334E41505357CCD3906466408D13905414D5F344E40D19902354E41505357CD53903466408D93905414D5F364E40923902374E41505357CDD3904466408E13905414D5F384E40519
310
902394E41505357CE539FD90440CC9053906414D5F31304E41D3290334414E41905357CC4C5390346640D25413906414D5F31324E41D32409044B4C494E41505357D0D3101465094112539193D08414D5F50415245464111942D055241484D3541905357D093D49074C9094115925155D08414D5F56494557534051942D064
310
24548494E4441905357D253959FD90D415514905253105414D5F545240D194250348494441905357D212511074650940D59254D06414D5F56495341D324250650415244494D42505357D410549112535034650941949151911253509414D5F52454644494D4111942553411092139590139CFFFFFFFF415092139594D06424
310
548494E44CFFFFFFFF411093D48C9055241484D3540519411093D48CD055241484D3540923411093D48D5055241484D35CFFFFFFFF4110D0530C90134CFFFFFFFF4110D0530CD0134409234110D0530D5013441D324110D0530DD0134479464110D1539390137CFFFFFFFF4110D15395D0137CFFFFFFFF4110D312539044B4
310
C494ECFFFFFFFF4110D3D38C50130CFFFFFFFF4110D3D38C90131CFFFFFFFF4110D3D38CD0132CFFFFFFFF4110D3D38D10132CFFFFFFFF411111551050134CFFFFFFFF4111125051D0135CFFFFFFFF411112531250135CFFFFFFFF411112535410650415244494DCFFFFFFFF411112535490652454644494DCFFFFFFFF4111
310
91535390138CFFFFFFFF4151915354139013840CFFFFFFFF4151915354D41023441CFFFFFFFF4151915354D5102344140D1941519153559390132CFFFFFFFF4151915355951013240D194112105510D0138CFFFFFFFF411212511390133CFFFFFFFF4112125115D0133CFFFFFFFF411213125390134CFFFFFFFF411213D0D3
310
90137CFFFFFFFF411213D0D5D0137CFFFFFFFF4112539193D04494E464FCFFFFFFFF411311505110135CFFFFFFFF419397D0921395902394ECFFFFFFFF419397D0D3D38C502304ECFFFFFFFF419397D0D3D38C902314ECFFFFFFFF419397D0D3D38CD02324ECFFFFFFFF419397D0D3D38D102324ECFFFFFFFF419397D0D153
310
93902374ECFFFFFFFF419397D0D15395D02374ECFFFFFFFF419397D1125312502354ECFFFFFFFF419397D2105510D02384ECFFFFFFFF419397D2125113902334ECFFFFFFFF419397D2125115D02334ECFFFFFFFF419397D3115051102354ECFFFFFFFF419397D391D25410349504ECFFFFFFFF419397D412105390334414EC
310
FFFFFFFF419397D510D3D3902304ECFFFFFFFF419397D5121312502344ECFFFFFFFF419397D5131153902304ECFFFFFFFF419397D594131250332414ECFFFFFFFF411391D2541024950CFFFFFFFF411410530C9055241484D3540519411410530CD055241484D3540923411410530D5055241484D35CFFFFFFFF4114121053
310
9023441CFFFFFFFF411413D4D390135CFFFFFFFF411490D1D390137CFFFFFFFF411490D1D5D0137CFFFFFFFF4114D09492D0134CFFFFFFFF4114D150D510134CFFFFFFFF4114D6508CD013540923411354D6535013540923411510D3D390130CFFFFFFFF411512131250134CFFFFFFFF411512550C9055241484D354051941
310
1512550CD055241484D3540923411512550D5055241484D35CFFFFFFFF411513115390130CFFFFFFFF415514905253105545241494CCFFFFFFFF411514931250134CFFFFFFFF411516150C5013640D19411516150C9013640D19411516150CD0136CFFFFFFFF411516150D5013641D32411516150DD0136479464115925155
310
D0456494557CFFFFFFFF4115915112103484944CFFFFFFFF4115915115903564953CFFFFFFFF41159413125023241CFFFFFFFF411692569050134CFFFFFFFFAA9FD404FE4290E4C9074C906465054C904465034650248D014651E519FD91
340
16
340
16
340
16
340
5C6
340
16
340
16
340
16
340
5C7
340
16
340
16
340
5C7
340
5C8
340
16
340
16
340
16
340
16
340
5C6
340
16
340
16
340
16
340
5C7
340
16
340
16
340
5C7
340
5C8
340
16
340
5C9
340
16
340
16
340
16
340
16
340
16
340
5C6
340
16
340
16
340
16
340
15
340
15
340
15
340
15
340
15
340
15
340
15
340
15
340
15
340
5CA
340
15
340
15
340
15
340
15
340
15
340
15
340
15
340
15
340
15
340
15
340
15
340
15
340
15
340
16
340
15
340
15
340
15
340
15
340
5CB
340
15
340
15
340
5CA
340
15
340
15
340
15
340
15
340
15
340
15
340
15
340
15
340
5CA
340
15
340
15
340
15
340
5CB
340
15
340
15
340
15
340
15
340
15
340
15
340
15
340
15
340
15
340
15
340
15
340
15
340
15
340
15
340
5CA
340
15
340
15
340
15
340
15
340
15
340
15
340
15
340
15
340
15
340
15
340
15
340
15
340
15
340
15
340
15
340
15
340
15
340
15
340
15
340
15
340
15
340
15
340
5CE
 94
        0
1001
ACAD
1000
AcadProxyRoundTripData
1071
      570
1071
   851991
1070
     0
  0
ACAD_PROXY_OBJECT
  5
5D5
102
{ACAD_REACTORS
330
5D0
102
}
330
5D0
100
AcDbProxyObject
 90
      499
 91
      574
 93
      253
310
43D1444494D454E53494F4E2C414D44545F2A5F44494D404A9012A404A9012A8
 94
        0
1001
ACAD
1000
AcadProxyRoundTripData
1071
      571
1071
   851991
1070
     0
  0
ACAD_PROXY_OBJECT
  5
5D4
102
{ACAD_REACTORS
330
5D0
102
}
330
5D0
100
AcDbProxyObject
 90
      499
 91
      574
 93
      181
310
43D012A42D05357D191504B505357CA9012A404A9012AC
 94
        0
1001
ACAD
1000
AcadProxyRoundTripData
1071
      571
1071
   851991
1070
     0
  0
ACAD_PROXY_OBJECT
  5
5D1
102
{ACAD_REACTORS
330
5D0
102
}
330
5D0
100
AcDbProxyObject
 90
      499
 91
      574
 93
      133
310
43D054841544348404A9012A404A9012A8
 94
        0
1001
ACAD
1000
AcadProxyRoundTripData
1071
      571
1071
   851991
1070
     0
  0
ACAD_PROXY_OBJECT
  5
5D2
102
{ACAD_REACTORS
330
5D0
102
}
330
5D0
100
AcDbProxyObject
 90
      499
 91
      574
 93
      549
310
43D044C494E4549CE0B0E138B0A8B4E0B0A8B4E138B105357CE0B105357CE138B0A8B505357CE0B0A8B505357CE139012A404A910494E534552542C535444504152543244C
 94
        0
1001
ACAD
1000
AcadProxyRoundTripData
1071
      571
1071
   851991
1070
     0
  0
ACAD_PROXY_OBJECT
  5
5D6
102
{ACAD_REACTORS
330
5D0
102
}
330
5D0
100
AcDbProxyObject
 90
      499
 91
      574
 93
      181
310
43D0341524341105357CD5012A404C906494E534552540
 94
        0
1001
ACAD
1000
AcadProxyRoundTripData
1071
      571
1071
   851991
1070
     0
  0
ACAD_PROXY_OBJECT
  5
5D3
102
{ACAD_REACTORS
330
5D0
102
}
330
5D0
100
AcDbProxyObject
 90
      499
 91
      574
 93
     1053
310
43D7841434D46434652414D452C41434D444154554D5441524745542C41434D444154554D49442C41434D57454C4453594D2C41434D5355524653594D2C41434D4645415449442C41434D504152545245462C41434D42414C4C4F4F4E2C414D44544544474553594D2C414D47534352455743414C435441424C45404A9012A
310
404A9012AA
 94
        0
1001
ACAD
1000
AcadProxyRoundTripData
1071
      571
1071
   851991
1070
     0
  0
ACAD_PROXY_OBJECT
  5
5B8
102
{ACAD_REACTORS
330
5B7
102
}
330
5B7
100
AcDbProxyObject
 90
      499
 91
      574
 93
      187
310
057356C1D5C406406AA8FFFFFFFF0AE50543564C30354051
330
1F
330
0
330
5B1
 94
        0
1001
ACAD
1000
AcadProxyRoundTripData
1071
      564
1071
   851991
1070
     0
  0
ACAD_PROXY_OBJECT
  5
4FF
102
{ACAD_REACTORS
330
4FE
102
}
330
4FE
100
AcDbProxyObject
 90
      499
 91
      574
 93
     2270
310
4050B44574753455454494E4753A1286829C8E82A4A482B282A106660F8686AF86C608321A2A720A723A0A849A1ABE1C983E18999AA0C868A9C889282940000000000000488083A1A2A72224A0A9A0A8418983E19183E199820E868A9C8892A6A894000000000000010808321A2A72622A7250000000000000122020C868A9
310
C9E8C8C940000000000000488084A1A624A720A92920ACA0A8418983E19183E19982108698929C8AA8B2A082A0AB098929C8A84A22BA3AAA9A1A0A622A50A0E9882A6A89E849482A02608426A0A5A2AB24A2ABA7E8120CA0A68682988A0C00800010652455649534941501304154D0D0531150540CC4E8C50954494D455354
310
414D504A03D0A805197267341441ED115D1D4D15515125391D4D153911F5
 94
        0
1001
ACAD
1000
AcadProxyRoundTripData
1071
      512
1071
   851991
1070
     0
  0
ENDSEC
  0
EOF
