  0
SECTION
  2
HEADER
  9
$ACADVER
  1
AC1014
  9
$ACADMAINTVER
 70
     9
  9
$DWGCODEPAGE
  3
ANSI_932
  9
$INSBASE
 10
0.0
 20
0.0
 30
0.0
  9
$EXTMIN
 10
-1.507181146371749
 20
-6.39806200229168
 30
-0.0015258207003583
  9
$EXTMAX
 10
350.0597854950297
 20
147.1692546054407
 30
0.0000000349246037
  9
$LIMMIN
 10
0.0
 20
0.0
  9
$LIMMAX
 10
420.0
 20
297.0
  9
$ORTHOMODE
 70
     0
  9
$REGENMODE
 70
     1
  9
$FILLMODE
 70
     1
  9
$QTEXTMODE
 70
     0
  9
$MIRRTEXT
 70
     1
  9
$DRAGMODE
 70
     2
  9
$LTSCALE
 40
1.0
  9
$OSMODE
 70
  3071
  9
$ATTMODE
 70
     1
  9
$TEXTSIZE
 40
2.5
  9
$TRACEWID
 40
1.0
  9
$TEXTSTYLE
  7
STANDARD
  9
$CLAYER
  8
0
  9
$CELTYPE
  6
BYLAYER
  9
$CECOLOR
 62
   256
  9
$CELTSCALE
 40
1.0
  9
$DELOBJ
 70
     1
  9
$DISPSILH
 70
     0
  9
$DIMSCALE
 40
1.0
  9
$DIMASZ
 40
2.5
  9
$DIMEXO
 40
0.625
  9
$DIMDLI
 40
3.75
  9
$DIMRND
 40
0.0
  9
$DIMDLE
 40
0.0
  9
$DIMEXE
 40
1.25
  9
$DIMTP
 40
0.0
  9
$DIMTM
 40
0.0
  9
$DIMTXT
 40
2.5
  9
$DIMCEN
 40
2.5
  9
$DIMTSZ
 40
0.0
  9
$DIMTOL
 70
     0
  9
$DIMLIM
 70
     0
  9
$DIMTIH
 70
     0
  9
$DIMTOH
 70
     0
  9
$DIMSE1
 70
     0
  9
$DIMSE2
 70
     0
  9
$DIMTAD
 70
     1
  9
$DIMZIN
 70
     8
  9
$DIMBLK
  1

  9
$DIMASO
 70
     1
  9
$DIMSHO
 70
     1
  9
$DIMPOST
  1

  9
$DIMAPOST
  1

  9
$DIMALT
 70
     0
  9
$DIMALTD
 70
     3
  9
$DIMALTF
 40
0.03937007874016
  9
$DIMLFAC
 40
1.0
  9
$DIMTOFL
 70
     1
  9
$DIMTVP
 40
0.0
  9
$DIMTIX
 70
     0
  9
$DIMSOXD
 70
     0
  9
$DIMSAH
 70
     0
  9
$DIMBLK1
  1

  9
$DIMBLK2
  1

  9
$DIMSTYLE
  2
ISO-25
  9
$DIMCLRD
 70
     0
  9
$DIMCLRE
 70
     0
  9
$DIMCLRT
 70
     0
  9
$DIMTFAC
 40
1.0
  9
$DIMGAP
 40
0.625
  9
$DIMJUST
 70
     0
  9
$DIMSD1
 70
     0
  9
$DIMSD2
 70
     0
  9
$DIMTOLJ
 70
     0
  9
$DIMTZIN
 70
     8
  9
$DIMALTZ
 70
     0
  9
$DIMALTTZ
 70
     0
  9
$DIMFIT
 70
     3
  9
$DIMUPT
 70
     0
  9
$DIMUNIT
 70
     2
  9
$DIMDEC
 70
     2
  9
$DIMTDEC
 70
     2
  9
$DIMALTU
 70
     2
  9
$DIMALTTD
 70
     3
  9
$DIMTXSTY
  7
STANDARD
  9
$DIMAUNIT
 70
     0
  9
$LUNITS
 70
     2
  9
$LUPREC
 70
     2
  9
$SKETCHINC
 40
1.0
  9
$FILLETRAD
 40
10.0
  9
$AUNITS
 70
     0
  9
$AUPREC
 70
     0
  9
$MENU
  1
.
  9
$ELEVATION
 40
0.0
  9
$PELEVATION
 40
0.0
  9
$THICKNESS
 40
0.0
  9
$LIMCHECK
 70
     0
  9
$BLIPMODE
 70
     0
  9
$CHAMFERA
 40
10.0
  9
$CHAMFERB
 40
10.0
  9
$CHAMFERC
 40
20.0
  9
$CHAMFERD
 40
0.0
  9
$SKPOLY
 70
     0
  9
$TDCREATE
 40
2454596.550355717
  9
$TDUPDATE
 40
2454756.567402696
  9
$TDINDWG
 40
0.0482457986
  9
$TDUSRTIMER
 40
0.0482456134
  9
$USRTIMER
 70
     1
  9
$ANGBASE
 50
0.0
  9
$ANGDIR
 70
     0
  9
$PDMODE
 70
     0
  9
$PDSIZE
 40
0.0
  9
$PLINEWID
 40
0.0
  9
$COORDS
 70
     0
  9
$SPLFRAME
 70
     0
  9
$SPLINETYPE
 70
     6
  9
$SPLINESEGS
 70
     8
  9
$ATTDIA
 70
     0
  9
$ATTREQ
 70
     1
  9
$HANDLING
 70
 22529
  9
$HANDSEED
  5
A97
  9
$SURFTAB1
 70
     6
  9
$SURFTAB2
 70
     6
  9
$SURFTYPE
 70
     6
  9
$SURFU
 70
     6
  9
$SURFV
 70
     6
  9
$UCSNAME
  2

  9
$UCSORG
 10
0.0
 20
0.0
 30
0.0
  9
$UCSXDIR
 10
1.0
 20
0.0
 30
0.0
  9
$UCSYDIR
 10
0.0
 20
1.0
 30
0.0
  9
$PUCSNAME
  2

  9
$PUCSORG
 10
0.0
 20
0.0
 30
0.0
  9
$PUCSXDIR
 10
1.0
 20
0.0
 30
0.0
  9
$PUCSYDIR
 10
0.0
 20
1.0
 30
0.0
  9
$USERI1
 70
     0
  9
$USERI2
 70
     0
  9
$USERI3
 70
     0
  9
$USERI4
 70
     0
  9
$USERI5
 70
     0
  9
$USERR1
 40
0.0
  9
$USERR2
 40
0.0
  9
$USERR3
 40
0.0
  9
$USERR4
 40
0.0
  9
$USERR5
 40
0.0
  9
$WORLDVIEW
 70
     1
  9
$SHADEDGE
 70
     3
  9
$SHADEDIF
 70
    70
  9
$TILEMODE
 70
     1
  9
$MAXACTVP
 70
    48
  9
$PINSBASE
 10
0.0
 20
0.0
 30
0.0
  9
$PLIMCHECK
 70
     0
  9
$PEXTMIN
 10
28.5263154029846
 20
19.82258291244505
 30
0.0
  9
$PEXTMAX
 10
256.7368386268614
 20
178.4032462120055
 30
0.0
  9
$PLIMMIN
 10
-5.873748779296875
 20
-5.873749732971191
  9
$PLIMMAX
 10
291.1369018554686
 20
204.0995779037474
  9
$UNITMODE
 70
     0
  9
$VISRETAIN
 70
     1
  9
$PLINEGEN
 70
     0
  9
$PSLTSCALE
 70
     1
  9
$TREEDEPTH
 70
  3020
  9
$PICKSTYLE
 70
     1
  9
$CMLSTYLE
  2
STANDARD
  9
$CMLJUST
 70
     0
  9
$CMLSCALE
 40
20.0
  9
$PROXYGRAPHICS
 70
     1
  9
$MEASUREMENT
 70
     1
  0
ENDSEC
  0
SECTION
  2
CLASSES
  0
CLASS
  1
ACDBDICTIONARYWDFLT
  2
AcDbDictionaryWithDefault
  3
AutoCAD 2000
 90
        0
280
     0
281
     0
  0
CLASS
  1
ACDBPLACEHOLDER
  2
AcDbPlaceHolder
  3
AutoCAD 2000
 90
        0
280
     0
281
     0
  0
CLASS
  1
LAYOUT
  2
AcDbLayout
  3
AutoCAD 2000
 90
        0
280
     0
281
     0
  0
CLASS
  1
DICTIONARYVAR
  2
AcDbDictionaryVar
  3
AutoCAD 2000
 90
        0
280
     0
281
     0
  0
CLASS
  1
LONG_TRANSACTION
  2
AcDbLongTransaction
  3
AutoCAD 2000
 90
        0
280
     0
281
     0
  0
CLASS
  1
LWPOLYLINE
  2
AcDbPolyline
  3
AutoCAD 2000
 90
        0
280
     0
281
     1
  0
CLASS
  1
HATCH
  2
AcDbHatch
  3
AutoCAD 2000
 90
        0
280
     0
281
     1
  0
CLASS
  1
XRECORD
  2
AcDbXrecord
  3
AutoCAD 2000
 90
        0
280
     0
281
     0
  0
CLASS
  1
LONG_TRANSACTION
  2
AcDbLongTransaction
  3
AutoCAD 2000
 90
        0
280
     0
281
     0
  0
CLASS
  1
LWPOLYLINE
  2
AcDbPolyline
  3
AutoCAD 2000
 90
        0
280
     0
281
     1
  0
CLASS
  1
HATCH
  2
AcDbHatch
  3
AutoCAD 2000
 90
        0
280
     0
281
     1
  0
CLASS
  1
XRECORD
  2
AcDbXrecord
  3
AutoCAD 2000
 90
        0
280
     0
281
     0
  0
CLASS
  1
AMGSETTINGSOBJ
  2
AmgSettingsObj
  3
"AcadM|Product Description: AutoCAD Mechanical 2000|Company: Autodesk"
 90
        0
280
     0
281
     0
  0
CLASS
  1
ACME_DOCUMENT
  2
AcMeDbDoc
  3
AcMeServices
 90
        0
280
     0
281
     0
  0
CLASS
  1
ACMESCOPE
  2
AcMeScope
  3
AcMeServices
 90
        0
280
     0
281
     0
  0
CLASS
  1
ACMECOMMANDHISTORY
  2
AcMeCommandHistory
  3
AcMeServices
 90
        0
280
     0
281
     0
  0
CLASS
  1
ACIMSYSVARMAN
  2
AcImSysVarManager
  3
AcMeServices
 90
        0
280
     0
281
     0
  0
CLASS
  1
ACIMREALSYSVAR
  2
AcImRealSysVar
  3
AcMeServices
 90
        0
280
     0
281
     0
  0
CLASS
  1
ACIMINTSYSVAR
  2
AcImIntSysVar
  3
AcMeServices
 90
        0
280
     0
281
     0
  0
CLASS
  1
ACMEDRAWINGMAN
  2
AcMeDrawingMan
  3
AcMeServices
 90
        0
280
     0
281
     0
  0
CLASS
  1
ACMEVIEW
  2
AcMeView
  3
AcMeServices
 90
        0
280
     0
281
     0
  0
CLASS
  1
ACDBENTITYCACHE
  2
AcMeEntityCache
  3
AcMeServices
 90
        0
280
     0
281
     0
  0
CLASS
  1
GSMANAGER
  2
AcMeGSManager
  3
AcMeServices
 90
        0
280
     0
281
     0
  0
CLASS
  1
AMDTINTERNALREACTOR
  2
AmdtInternalReactor
  3
AcMeServices
 90
        0
280
     0
281
     0
  0
CLASS
  1
ACMESTATEMGR
  2
AcMeStateMgr
  3
AcMeServices
 90
        0
280
     0
281
     0
  0
CLASS
  1
ACGREFMASTER
  2
AcGrefMaster
  3
AcAttribServices
 90
        0
280
     0
281
     0
  0
CLASS
  1
AM_DRAWING_MGR
  2
AcDmDwgMgr
  3
AcMechDwgViewMgmt
 90
        0
280
     0
281
     0
  0
CLASS
  1
AM_DWG_DOCUMENT
  2
AcDmDwgDocument
  3
AcMechDwgViewMgmt
 90
        0
280
     0
281
     0
  0
CLASS
  1
AM_DWG_SHEET
  2
AcDmSheet
  3
AcMechDwgViewMgmt
 90
        0
280
     0
281
     0
  0
CLASS
  1
AM_VIEWDIMPARMAP
  2
AcDmViewDimParMap
  3
AcMechDwgViewMgmt
 90
        0
280
     0
281
     0
  0
CLASS
  1
AM_DWGMGR_NAME
  2
AcDmDwgMgrName
  3
AcMechDwgViewMgmt
 90
        0
280
     0
281
     0
  0
CLASS
  1
ACME_DATABASE
  2
AcMeDbDatabase
  3
AcMeServices
 90
        0
280
     0
281
     0
  0
CLASS
  1
ACRFINSADJUSTERMGR
  2
AcRfInsAdjusterMgr
  3
AcMeServices
 90
        0
280
     0
281
     0
  0
CLASS
  1
ACGREFACADMASTER
  2
AcGrefacadMaster
  3
AcGrefServices
 90
        0
280
     0
281
     0
  0
CLASS
  1
AMDTMENUSTATEMGR
  2
AmdtMenuStateMgr
  3
McadcomServices
 90
        0
280
     0
281
     0
  0
CLASS
  1
AMDTMCOMMENUSTATE
  2
AmdtMcomMenuState
  3
McadcomServices
 90
        0
280
     0
281
     0
  0
CLASS
  1
AMIMASTER
  2
AmiMaster
  3
AmiServices
 90
        0
280
     0
281
     0
  0
CLASS
  1
ASAPP
  2
AcAsAppObject
  3
AutoSurfServices
 90
        0
280
     0
281
     0
  0
CLASS
  1
IM_STATIC_MAN
  2
AcImStaticVarManager
  3
AcMeServices
 90
        0
280
     0
281
     0
  0
CLASS
  1
ACIMSTRSYSVAR
  2
AcImStrSysVar
  3
AcMeServices
 90
        0
280
     0
281
     0
  0
CLASS
  1
ACIMDBLSTATICVAR
  2
AcImDblStaticVar
  3
AcMeServices
 90
        0
280
     0
281
     0
  0
CLASS
  1
ACIMSTRSTATICVAR
  2
AcImStrStaticVar
  3
AcMeServices
 90
        0
280
     0
281
     0
  0
CLASS
  1
ACIMINTSTATICVAR
  2
AcImIntStaticVar
  3
AcMeServices
 90
        0
280
     0
281
     0
  0
CLASS
  1
ACASGREFMASTER
  2
AcAsGrefMaster
  3
AutoSurfResolverServices
 90
        0
280
     0
281
     0
  0
CLASS
  1
ACADGREFMODULE
  2
AcAdGrefModule
  3
AdGrefServices
 90
        0
280
     0
281
     0
  0
CLASS
  1
AMDTMAPISURFMOUDULE
  2
AmdtMApiSurfModule
  3
MApiSurfServices
 90
        0
280
     0
281
     0
  0
CLASS
  1
MAPIAMMOUDLE
  2
MApiAmModule
  3
MApiAmServices
 90
        0
280
     0
281
     0
  0
CLASS
  1
AMDTADMENUSTATE
  2
AmdtAdMenuState
  3
DesignerServices
 90
        0
280
     0
281
     0
  0
CLASS
  1
ADAPPL
  2
AcAdAppl
  3
DesignerServices
 90
        0
280
     0
281
     0
  0
CLASS
  1
DEPMGR
  2
AcAdDepMgr
  3
DesignerServices
 90
        0
280
     0
281
     0
  0
CLASS
  1
PARAMMGR
  2
AcAdParamMgr
  3
DesignerServices
 90
        0
280
     0
281
     0
  0
CLASS
  1
PARAMSCOPE
  2
AcAdParamScope
  3
DesignerServices
 90
        0
280
     0
281
     0
  0
CLASS
  1
NAMEDAPPL
  2
AcAdNamedAppl
  3
DesignerServices
 90
        0
280
     0
281
     0
  0
CLASS
  1
AMDTDMMENUSTATE
  2
AmdtDmMenuState
  3
AcMechDwgViewMgmt
 90
        0
280
     0
281
     0
  0
CLASS
  1
MAPIADMODULE
  2
MApiAdModule
  3
MApiAdServices
 90
        0
280
     0
281
     0
  0
CLASS
  1
AMDTAMMENUSTATE
  2
AmdtAmMenuState
  3
DesignerAssemblies
 90
        0
280
     0
281
     0
  0
CLASS
  1
ACAMPROJECT
  2
AcAmProject
  3
DesignerAssemblies
 90
        0
280
     0
281
     0
  0
CLASS
  1
ACAMGRCOMPDEF
  2
AcAmGrCompDef
  3
DesignerAssemblies
 90
        0
280
     0
281
     0
  0
CLASS
  1
ACCMCONTEXT
  2
AcCmContext
  3
DesignerAssemblies
 90
        0
280
     0
281
     0
  0
CLASS
  1
ACAMCOMPDEF
  2
AcAmCompDef
  3
DesignerAssemblies
 90
        0
280
     0
281
     0
  0
CLASS
  1
ACAMCOMPDEFMGR
  2
AcAmCompDefMgr
  3
DesignerAssemblies
 90
        0
280
     0
281
     0
  0
CLASS
  1
AMCONTEXTMGR
  2
AcAmContextMgr
  3
DesignerAssemblies
 90
        0
280
     0
281
     0
  0
CLASS
  1
ACAMCONTEXTMODELER
  2
AcAmContextModeler
  3
DesignerAssemblies
 90
        0
280
     0
281
     0
  0
CLASS
  1
ACMDATADICTIONARY
  2
AcmDataDictionary
  3
"AcmSymBB|Product Description: AutoCAD Mechanical 2000|Company: Autodesk"
 90
        0
280
     0
281
     0
  0
CLASS
  1
ACMDATAENTRYBLOCK
  2
AcmDataEntryBlock
  3
"AcmSymBB|Product Description: AutoCAD Mechanical 2000|Company: Autodesk"
 90
        0
280
     0
281
     0
  0
CLASS
  1
CATALOGSTATE
  2
AcAmCatalogState
  3
DesignerAssemblies
 90
        0
280
     0
281
     0
  0
CLASS
  1
ACAMGRCOMPDEFSET
  2
AcAmGrCompDefSet
  3
DesignerAssemblies
 90
        0
280
     0
281
     0
  0
CLASS
  1
AMDTBROWSERDBTAB
  2
AmdtBrowserDbTab
  3
McadcomServices
 90
        0
280
     0
281
     0
  0
CLASS
  1
CBROWSERAPPOBJECT
  2
CBrowserAppObject
  3
McadcomServices
 90
        0
280
     0
281
     0
  0
CLASS
  1
DM_PLACEHOLDER
  2
AcDmSelsetPlaceholder
  3
AcMechDwgViewMgmt
 90
        0
280
     0
281
     0
  0
CLASS
  1
AMGOBJPROPCFG
  2
AmgObjPropCfg
  3
"AmgLay|Product Description: AutoCAD Mechanical 2000|Company: Autodesk"
 90
        1
280
     0
281
     0
  0
CLASS
  1
ACAMGFILTERDAT
  2
AcAmgFilterDat
  3
"AcadM|Product Description: AutoCAD Mechanical 2000|Company: Autodesk"
 90
        0
280
     0
281
     0
  0
CLASS
  1
LAYER_INDEX
  2
AcDbLayerIndex
  3
AutoCAD 2000
 90
        0
280
     0
281
     0
  0
CLASS
  1
IDBUFFER
  2
AcDbIdBuffer
  3
AutoCAD 2000
 90
        0
280
     0
281
     0
  0
CLASS
  1
ACAD_PROXY_OBJECT_WRAPPER
  2
AcDbProxyObjectWrapper
  3
AutoCAD 2000
 90
        0
280
     0
281
     0
  0
CLASS
  1
LONG_TRANSACTION
  2
AcDbLongTransaction
  3
AutoCAD 2000
 90
        0
280
     0
281
     0
  0
CLASS
  1
LWPOLYLINE
  2
AcDbPolyline
  3
AutoCAD 2000
 90
        0
280
     0
281
     1
  0
CLASS
  1
HATCH
  2
AcDbHatch
  3
AutoCAD 2000
 90
        0
280
     0
281
     1
  0
CLASS
  1
XRECORD
  2
AcDbXrecord
  3
AutoCAD 2000
 90
        0
280
     0
281
     0
  0
CLASS
  1
LONG_TRANSACTION
  2
AcDbLongTransaction
  3
AutoCAD 2000
 90
        0
280
     0
281
     0
  0
CLASS
  1
LWPOLYLINE
  2
AcDbPolyline
  3
AutoCAD 2000
 90
        0
280
     0
281
     1
  0
CLASS
  1
HATCH
  2
AcDbHatch
  3
AutoCAD 2000
 90
        0
280
     0
281
     1
  0
CLASS
  1
XRECORD
  2
AcDbXrecord
  3
AutoCAD 2000
 90
        0
280
     0
281
     0
  0
ENDSEC
  0
SECTION
  2
TABLES
  0
TABLE
  2
VPORT
  5
8
330
0
100
AcDbSymbolTable
 70
     2
  0
VPORT
  5
A74
330
8
100
AcDbSymbolTableRecord
100
AcDbViewportTableRecord
  2
*ACTIVE
 70
     0
 10
0.0
 20
0.0
 11
1.0
 21
1.0
 12
-966.672864406861
 22
-482.1905781408718
 13
0.0
 23
0.0
 14
10.0
 24
10.0
 15
10.0
 25
10.0
 16
0.0
 26
0.0
 36
1.0
 17
1140.949166581189
 27
552.5761744424463
 37
0.0
 40
217.9583299962799
 41
1.621212121212121
 42
50.0
 43
0.0
 44
0.0
 50
0.0
 51
0.0
 71
     0
 72
   100
 73
     1
 74
     3
 75
     0
 76
     0
 77
     0
 78
     0
  0
ENDTAB
  0
TABLE
  2
LTYPE
  5
5
330
0
100
AcDbSymbolTable
 70
    18
  0
LTYPE
  5
14
330
5
100
AcDbSymbolTableRecord
100
AcDbLinetypeTableRecord
  2
BYBLOCK
 70
     0
  3

 72
    65
 73
     0
 40
0.0
  0
LTYPE
  5
15
330
5
100
AcDbSymbolTableRecord
100
AcDbLinetypeTableRecord
  2
BYLAYER
 70
     0
  3

 72
    65
 73
     0
 40
0.0
  0
LTYPE
  5
16
330
5
100
AcDbSymbolTableRecord
100
AcDbLinetypeTableRecord
  2
CONTINUOUS
 70
     0
  3
Solid line
 72
    65
 73
     0
 40
0.0
  0
LTYPE
  5
5C6
330
5
100
AcDbSymbolTableRecord
100
AcDbLinetypeTableRecord
  2
AM_ISO02W050
 70
     0
  3
__ __ __ __ __ __ __ __ __ __ __ __ __ __ __
 72
    65
 73
     2
 40
7.5
 49
6.0
 74
     0
 49
-1.5
 74
     0
  0
LTYPE
  5
5C7
330
5
100
AcDbSymbolTableRecord
100
AcDbLinetypeTableRecord
  2
AM_ISO08W050
 70
     0
  3
____ . ____ . ____ . ____ . ____ . ____ . ____
 72
    65
 73
     4
 40
18.0
 49
12.0
 74
     0
 49
-1.5
 74
     0
 49
3.0
 74
     0
 49
-1.5
 74
     0
  0
LTYPE
  5
5C8
330
5
100
AcDbSymbolTableRecord
100
AcDbLinetypeTableRecord
  2
AM_ISO09W050
 70
     0
  3
_____ . . _____ . . _____ . . ____ .. ____
 72
    65
 73
     6
 40
22.5
 49
12.0
 74
     0
 49
-1.5
 74
     0
 49
3.0
 74
     0
 49
-1.5
 74
     0
 49
3.0
 74
     0
 49
-1.5
 74
     0
  0
LTYPE
  5
5C9
330
5
100
AcDbSymbolTableRecord
100
AcDbLinetypeTableRecord
  2
AMCONSTR
 70
     0
  3
_______________________
 72
    65
 73
     2
 40
9999.0
 49
9999.0
 74
     0
 49
0.0
 74
     0
  0
LTYPE
  5
5CA
330
5
100
AcDbSymbolTableRecord
100
AcDbLinetypeTableRecord
  2
AM_ISO08W050X2
 70
     0
  3
__ . __ . __ . __ . __ . __
 72
    65
 73
     4
 40
9.0
 49
6.0
 74
     0
 49
-0.75
 74
     0
 49
1.5
 74
     0
 49
-0.75
 74
     0
  0
LTYPE
  5
5CB
330
5
100
AcDbSymbolTableRecord
100
AcDbLinetypeTableRecord
  2
AM_ISO02W050X2
 70
     0
  3
 _ _ _ _ _ _ _ _ _ _ _ _
 72
    65
 73
     2
 40
3.75
 49
3.0
 74
     0
 49
-0.75
 74
     0
  0
LTYPE
  5
5CE
330
5
100
AcDbSymbolTableRecord
100
AcDbLinetypeTableRecord
  2
AMZIGZAG
 70
     0
  3
/\/-/\/-/\/-/\/-/\/-/\/
 72
    65
 73
     2
 40
11.00009999999999
 49
0.0001
 74
     4
 75
   135
340
5CD
 46
0.04
 50
0.0
 44
0.0
 45
0.0
 49
-11.0
 74
     0
  0
ENDTAB
  0
TABLE
  2
LAYER
  5
2
102
{ACAD_XDICTIONARY
360
41
102
}
330
0
100
AcDbSymbolTable
 70
    15
  0
LAYER
  5
10
330
2
100
AcDbSymbolTableRecord
100
AcDbLayerTableRecord
  2
0
 70
     0
 62
     7
  6
CONTINUOUS
  0
LAYER
  5
35
330
2
100
AcDbSymbolTableRecord
100
AcDbLayerTableRecord
  2
10
 70
     0
 62
     4
  6
CONTINUOUS
  0
LAYER
  5
36
330
2
100
AcDbSymbolTableRecord
100
AcDbLayerTableRecord
  2
12
 70
     0
 62
     3
  6
CONTINUOUS
  0
LAYER
  5
37
330
2
100
AcDbSymbolTableRecord
100
AcDbLayerTableRecord
  2
16
 70
     0
 62
     4
  6
CONTINUOUS
  0
LAYER
  5
38
330
2
100
AcDbSymbolTableRecord
100
AcDbLayerTableRecord
  2
19
 70
     0
 62
     7
  6
CONTINUOUS
  0
LAYER
  5
6A1
330
2
100
AcDbSymbolTableRecord
100
AcDbLayerTableRecord
  2
DEFPOINTS
 70
     0
 62
     7
  6
CONTINUOUS
  0
ENDTAB
  0
TABLE
  2
STYLE
  5
3
330
0
100
AcDbSymbolTable
 70
     4
  0
STYLE
  5
11
330
3
100
AcDbSymbolTableRecord
100
AcDbTextStyleTableRecord
  2
STANDARD
 70
     0
 40
0.0
 41
1.0
 50
0.0
 71
     0
 42
2.5
  3
txt
  4

  0
STYLE
  5
3A
330
3
100
AcDbSymbolTableRecord
100
AcDbTextStyleTableRecord
  2
STANDARD1X3
 70
     0
 40
9.599999999999999
 41
0.7
 50
0.0
 71
     0
 42
9.599999999999999
  3
romans.shx
  4
extfont.shx
  0
STYLE
  5
5CD
330
3
100
AcDbSymbolTableRecord
100
AcDbTextStyleTableRecord
  2

 70
     1
 40
0.0
 41
1.0
 50
0.0
 71
     0
 42
2.5
  3
ltypeshp.shx
  4

  0
ENDTAB
  0
TABLE
  2
VIEW
  5
6
330
0
100
AcDbSymbolTable
 70
     0
  0
ENDTAB
  0
TABLE
  2
UCS
  5
7
330
0
100
AcDbSymbolTable
 70
     0
  0
ENDTAB
  0
TABLE
  2
APPID
  5
9
330
0
100
AcDbSymbolTable
 70
    23
  0
APPID
  5
12
330
9
100
AcDbSymbolTableRecord
100
AcDbRegAppTableRecord
  2
ACAD
 70
     0
  0
APPID
  5
3C
330
9
100
AcDbSymbolTableRecord
100
AcDbRegAppTableRecord
  2
ACAD_PSEXT
 70
     0
  0
APPID
  5
3D
330
9
100
AcDbSymbolTableRecord
100
AcDbRegAppTableRecord
  2
ACAD_DSTYLE_DIMEXT_LENGTH
 70
     0
  0
APPID
  5
3E
330
9
100
AcDbSymbolTableRecord
100
AcDbRegAppTableRecord
  2
ACAD_DSTYLE_DIMEXT_ENABLED
 70
     0
  0
APPID
  5
3F
330
9
100
AcDbSymbolTableRecord
100
AcDbRegAppTableRecord
  2
ACAD_DSTYLE_DIMJOGGED_JOGA
 70
     0
  0
APPID
  5
40
330
9
100
AcDbSymbolTableRecord
100
AcDbRegAppTableRecord
  2
ACAD_DSTYLE_DIMARC_LENGTH_
 70
     0
  0
APPID
  5
500
330
9
100
AcDbSymbolTableRecord
100
AcDbRegAppTableRecord
  2
GENIUS_GENDIM_13
 70
     0
  0
APPID
  5
501
330
9
100
AcDbSymbolTableRecord
100
AcDbRegAppTableRecord
  2
GENIUS_GENDTOL_13
 70
     0
  0
APPID
  5
502
330
9
100
AcDbSymbolTableRecord
100
AcDbRegAppTableRecord
  2
GENIUS_GE3DTOL_13
 70
     0
  0
APPID
  5
504
330
9
100
AcDbSymbolTableRecord
100
AcDbRegAppTableRecord
  2
MCAD_NO_VIS
 70
     0
  0
APPID
  5
505
330
9
100
AcDbSymbolTableRecord
100
AcDbRegAppTableRecord
  2
ACAD_TEMP_GRAPHIC
 70
     0
  0
APPID
  5
537
330
9
100
AcDbSymbolTableRecord
100
AcDbRegAppTableRecord
  2
AD_DRAW
 70
     0
  0
APPID
  5
53A
330
9
100
AcDbSymbolTableRecord
100
AcDbRegAppTableRecord
  2
ACATTRIBSERVICES
 70
     0
  0
APPID
  5
586
330
9
100
AcDbSymbolTableRecord
100
AcDbRegAppTableRecord
  2
ASURF_PCURVE_APPNAME
 70
     0
  0
APPID
  5
5B5
330
9
100
AcDbSymbolTableRecord
100
AcDbRegAppTableRecord
  2
DESIGNERASSEMBLIES
 70
     0
  0
APPID
  5
5BD
330
9
100
AcDbSymbolTableRecord
100
AcDbRegAppTableRecord
  2
ACADM_DIM_EDIT
 70
     0
  0
APPID
  5
5BE
330
9
100
AcDbSymbolTableRecord
100
AcDbRegAppTableRecord
  2
AMDT_DM_ADJ
 70
     0
  0
APPID
  5
6AC
330
9
100
AcDbSymbolTableRecord
100
AcDbRegAppTableRecord
  2
GENIUS_GENODEF_13
 70
     0
  0
APPID
  5
6AD
330
9
100
AcDbSymbolTableRecord
100
AcDbRegAppTableRecord
  2
GENIUS_GENOREF_13
 70
     0
  0
APPID
  5
6AE
330
9
100
AcDbSymbolTableRecord
100
AcDbRegAppTableRecord
  2
GENIUS_GENOBJ-N-CEN_13
 70
     0
  0
APPID
  5
6AF
330
9
100
AcDbSymbolTableRecord
100
AcDbRegAppTableRecord
  2
GENIUS_GENREC_14
 70
     0
  0
APPID
  5
6B0
330
9
100
AcDbSymbolTableRecord
100
AcDbRegAppTableRecord
  2
GENIUS_GENOBJ-N-REC_13
 70
     0
  0
APPID
  5
6B1
330
9
100
AcDbSymbolTableRecord
100
AcDbRegAppTableRecord
  2
ACAECLAYERSTANDARD
 70
     0
  0
ENDTAB
  0
TABLE
  2
DIMSTYLE
  5
A
330
0
100
AcDbSymbolTable
 70
     4
  0
DIMSTYLE
105
27
330
A
100
AcDbSymbolTableRecord
100
AcDbDimStyleTableRecord
  2
ISO-25
 70
     0
  3

  4

  5

  6

  7

 40
1.0
 41
2.5
 42
0.625
 43
3.75
 44
1.25
 45
0.0
 46
0.0
 47
0.0
 48
0.0
140
2.5
141
2.5
142
0.0
143
0.03937007874016
144
1.0
145
0.0
146
1.0
147
0.625
 71
     0
 72
     0
 73
     0
 74
     0
 75
     0
 76
     0
 77
     1
 78
     8
170
     0
171
     3
172
     1
173
     0
174
     0
175
     0
176
     0
177
     0
178
     0
270
     2
271
     2
272
     2
273
     2
274
     3
340
11
275
     0
280
     0
281
     0
282
     0
283
     0
284
     8
285
     0
286
     0
287
     3
288
     0
  0
ENDTAB
  0
TABLE
  2
BLOCK_RECORD
  5
1
330
0
100
AcDbSymbolTable
 70
    21
  0
BLOCK_RECORD
  5
1F
102
{ACAD_XDICTIONARY
360
438
102
}
330
1
100
AcDbSymbolTableRecord
100
AcDbBlockTableRecord
  2
*MODEL_SPACE
  0
BLOCK_RECORD
  5
23
102
{ACAD_XDICTIONARY
360
43A
102
}
330
1
100
AcDbSymbolTableRecord
100
AcDbBlockTableRecord
  2
*PAPER_SPACE
  0
BLOCK_RECORD
  5
5AC
330
1
100
AcDbSymbolTableRecord
100
AcDbBlockTableRecord
  2
*U1
  0
ENDTAB
  0
ENDSEC
  0
SECTION
  2
BLOCKS
  0
BLOCK
  5
20
330
1F
100
AcDbEntity
  8
0
100
AcDbBlockBegin
  2
*MODEL_SPACE
 70
     0
 10
0.0
 20
0.0
 30
0.0
  3
*MODEL_SPACE
  1

  0
ENDBLK
  5
21
330
1F
100
AcDbEntity
  8
0
100
AcDbBlockEnd
  0
BLOCK
  5
24
330
23
100
AcDbEntity
 67
     1
  8
0
100
AcDbBlockBegin
  2
*PAPER_SPACE
 70
     0
 10
0.0
 20
0.0
 30
0.0
  3
*PAPER_SPACE
  1

  0
ENDBLK
  5
25
330
23
100
AcDbEntity
 67
     1
  8
0
100
AcDbBlockEnd
  0
BLOCK
  5
5AD
330
5AC
100
AcDbEntity
  8
0
100
AcDbBlockBegin
  2
*U1
 70
     1
 10
0.0
 20
0.0
 30
0.0
  3
*U1
  1

  0
ENDBLK
  5
5AE
330
5AC
100
AcDbEntity
  8
0
100
AcDbBlockEnd
  0
ENDSEC
  0
SECTION
  2
ENTITIES
  0
MTEXT
  5
5EB
330
1F
100
AcDbEntity
  8
19
100
AcDbMText
 10
320.0290012074363
 20
10.71207367428689
 30
0.0
 40
4.0
 41
70.16
 71
     1
 72
     5
  1
HELH08\PFR-HEL-H11K
  7
STANDARD1X3
1001
ACAD
1000
MTEXTBEGIN
1070
    73
1070
     1
1070
    44
1040
1.0
1070
    74
1070
     0
1000
MTEXTEND
  0
LINE
  5
834
330
1F
100
AcDbEntity
  8
16
 48
20.0
100
AcDbLine
 10
53.75
 20
134.3092388599948
 30
0.0
 11
53.75
 21
-6.37252726184306
 31
0.0
1001
GENIUS_GENODEF_13
1002
{
1000
HIER
1070
     0
1002
}
1002
{
1000
MANEDIT
1070
     0
1002
}
1002
{
1000
NOSEL
1070
     0
1002
}
1002
{
1000
BEHIND
1070
     0
1002
}
1002
{
1000
REACTOR
1002
}
1001
GENIUS_GENOBJ-N-CEN_13
1002
{
1000
OWNER
1000
GEN
1002
}
  0
LINE
  5
83A
330
1F
100
AcDbEntity
  8
16
 48
5.0
100
AcDbLine
 10
247.6740206475601
 20
147.1603656674469
 30
0.0
 11
247.6740206475601
 21
-6.144246341457346
 31
0.0
1001
GENIUS_GENODEF_13
1002
{
1000
HIER
1070
     0
1002
}
1002
{
1000
MANEDIT
1070
     0
1002
}
1002
{
1000
NOSEL
1070
     0
1002
}
1002
{
1000
BEHIND
1070
     0
1002
}
1002
{
1000
OTHER
1070
     0
1002
}
1002
{
1000
REACTOR
1002
}
1001
GENIUS_GENOBJ-N-CEN_13
1002
{
1000
OWNER
1000
GEN
1002
}
  0
LWPOLYLINE
  5
83D
330
1F
100
AcDbEntity
  8
10
100
AcDbPolyline
 90
        4
 70
     0
 43
0.0
 10
215.6740206475603
 20
81.5
 10
201.6740206475603
 20
81.5
 10
201.6740206475603
 20
17.99999999999863
 10
215.6740206475603
 20
17.99999999999863
  0
LWPOLYLINE
  5
83E
330
1F
100
AcDbEntity
  8
10
100
AcDbPolyline
 90
        3
 70
     0
 43
0.0
 10
215.6740206475603
 20
82.99999999999863
 10
207.1740206475603
 20
82.99999999999863
 10
207.1740206475603
 20
81.5
  0
LWPOLYLINE
  5
83F
330
1F
100
AcDbEntity
  8
10
100
AcDbPolyline
 90
        3
 70
     0
 43
0.0
 10
207.1740206475603
 20
17.99999999999863
 10
207.1740206475603
 20
16.49999999999863
 10
215.6740206475603
 20
16.49999999999863
  0
LINE
  5
840
330
1F
100
AcDbEntity
  8
10
100
AcDbLine
 10
212.827925095318
 20
86.91187499999477
 30
0.0
 11
210.9201161998021
 21
86.91187499999477
 31
0.0
  0
LINE
  5
841
330
1F
100
AcDbEntity
  8
10
100
AcDbLine
 10
212.827925095318
 20
91.67624999999452
 30
0.0
 11
210.9201161998021
 21
91.67624999999452
 31
0.0
  0
LINE
  5
842
330
1F
100
AcDbEntity
  8
10
100
AcDbLine
 10
212.827925095318
 20
90.08812499999477
 30
0.0
 11
210.9201161998021
 21
90.08812499999477
 31
0.0
  0
LINE
  5
843
330
1F
100
AcDbEntity
  8
10
100
AcDbLine
 10
212.827925095318
 20
85.32374999999365
 30
0.0
 11
210.9201161998021
 21
85.32374999999365
 31
0.0
  0
LINE
  5
844
330
1F
100
AcDbEntity
  8
10
100
AcDbLine
 10
214.4279250953184
 20
7.223749999993742
 30
0.0
 11
212.5201161998024
 21
7.223749999993742
 31
0.0
  0
LINE
  5
845
330
1F
100
AcDbEntity
  8
10
100
AcDbLine
 10
214.4279250953184
 20
11.98812499999485
 30
0.0
 11
212.5201161998024
 21
11.98812499999485
 31
0.0
  0
LINE
  5
846
330
1F
100
AcDbEntity
  8
10
100
AcDbLine
 10
214.4279250953184
 20
13.57624999999461
 30
0.0
 11
212.5201161998024
 21
13.57624999999461
 31
0.0
  0
LINE
  5
847
330
1F
100
AcDbEntity
  8
10
100
AcDbLine
 10
214.4279250953184
 20
8.81187499999396
 30
0.0
 11
212.5201161998024
 21
8.81187499999396
 31
0.0
  0
LWPOLYLINE
  5
848
330
1F
100
AcDbEntity
  8
10
100
AcDbPolyline
 90
        7
 70
     0
 43
0.0
 10
217.1740206475603
 20
93.49999999999864
 10
217.1740206475603
 20
0.0
 10
195.1740206475601
 20
0.0
 10
195.1740206475601
 20
1.5
 10
215.6740206475603
 20
1.5
 10
215.6740206475603
 20
93.49999999999864
 10
217.1740206475603
 20
93.49999999999864
  0
LINE
  5
849
330
1F
100
AcDbEntity
  8
10
100
AcDbLine
 10
244.0740206475597
 20
108.9999999999986
 30
0.0
 11
244.0740206475597
 21
107.3999999999987
 31
0.0
  0
LINE
  5
84A
330
1F
100
AcDbEntity
  8
10
100
AcDbLine
 10
244.0740206475597
 20
107.4
 30
0.0
 11
215.6740206475603
 21
107.3999999999987
 31
0.0
  0
LINE
  5
84B
330
1F
100
AcDbEntity
  8
10
100
AcDbLine
 10
215.6740206475603
 20
107.3999999999987
 30
0.0
 11
215.6740206475603
 21
84.0
 31
0.0
  0
LINE
  5
84C
330
1F
100
AcDbEntity
  8
10
100
AcDbLine
 10
215.6740206475603
 20
84.0
 30
0.0
 11
214.0740206475598
 21
84.0
 31
0.0
  0
LINE
  5
84D
330
1F
100
AcDbEntity
  8
10
100
AcDbLine
 10
214.0740206475598
 20
84.0
 30
0.0
 11
214.0740206475598
 21
108.9999999999986
 31
0.0
  0
LINE
  5
84E
330
1F
100
AcDbEntity
  8
10
100
AcDbLine
 10
214.0740206475598
 20
108.9999999999986
 30
0.0
 11
239.4140206475597
 21
108.9999999999986
 31
0.0
  0
LWPOLYLINE
  5
84F
330
1F
100
AcDbEntity
  8
12
 48
3.0
100
AcDbPolyline
 90
        2
 70
     0
 43
0.0
 10
205.1740206475603
 20
2.641733689759803
 10
205.1740206475603
 20
-2.212272190197381
  0
ARC
  5
850
330
1F
100
AcDbEntity
  8
10
100
AcDbCircle
 10
212.0781465418383
 20
86.11781249999467
 30
0.0
 40
1.404125894278186
100
AcDbArc
 50
145.5615305952844
 51
205.5615305952436
  0
LINE
  5
851
330
1F
100
AcDbEntity
  8
10
100
AcDbLine
 10
210.6740206475604
 20
85.74999999999453
 30
0.0
 11
210.6740206475604
 21
91.24999999999454
 31
0.0
  0
ARC
  5
852
330
1F
100
AcDbEntity
  8
10
100
AcDbCircle
 10
212.0781465418383
 20
90.88218749999487
 30
0.0
 40
1.404125894278184
100
AcDbArc
 50
154.4384694047563
 51
214.4384694047155
  0
ARC
  5
853
330
1F
100
AcDbEntity
  8
10
100
AcDbCircle
 10
215.9213808963091
 20
88.49999999999454
 30
0.0
 40
5.247360248749616
100
AcDbArc
 50
162.3830311596232
 51
197.6169688403767
  0
LINE
  5
854
330
1F
100
AcDbEntity
  8
10
100
AcDbLine
 10
210.9201161998021
 20
91.67624999999452
 30
0.0
 11
210.6740206475604
 21
91.24999999999454
 31
0.0
  0
LINE
  5
855
330
1F
100
AcDbEntity
  8
10
100
AcDbLine
 10
210.9201161998021
 20
85.32374999999365
 30
0.0
 11
210.6740206475604
 21
85.74999999999453
 31
0.0
  0
LINE
  5
856
330
1F
100
AcDbEntity
  8
10
100
AcDbLine
 10
208.6740206475603
 20
9.206724999994548
 30
0.0
 11
208.6740206475603
 21
11.59327499999381
 31
0.0
  0
LINE
  5
857
330
1F
100
AcDbEntity
  8
10
100
AcDbLine
 10
208.9807456475607
 20
8.899999999994633
 30
0.0
 11
208.9807456475607
 21
11.89999999999372
 31
0.0
  0
LINE
  5
858
330
1F
100
AcDbEntity
  8
10
100
AcDbLine
 10
212.2740206475606
 20
11.89999999999372
 30
0.0
 11
208.9807456475607
 21
11.89999999999372
 31
0.0
  0
LINE
  5
859
330
1F
100
AcDbEntity
  8
10
100
AcDbLine
 10
212.2740206475606
 20
8.899999999994633
 30
0.0
 11
208.9807456475607
 21
8.899999999994633
 31
0.0
  0
LINE
  5
85A
330
1F
100
AcDbEntity
  8
10
100
AcDbLine
 10
208.9807456475607
 20
11.89999999999372
 30
0.0
 11
208.6740206475603
 21
11.59327499999381
 31
0.0
  0
LINE
  5
85B
330
1F
100
AcDbEntity
  8
10
100
AcDbLine
 10
208.9807456475607
 20
8.899999999994633
 30
0.0
 11
208.6740206475603
 21
9.206724999994548
 31
0.0
  0
LINE
  5
85C
330
1F
100
AcDbEntity
  8
10
100
AcDbLine
 10
212.5201161998024
 20
7.223749999993742
 30
0.0
 11
212.2740206475606
 21
7.649999999994633
 31
0.0
  0
LINE
  5
85D
330
1F
100
AcDbEntity
  8
10
100
AcDbLine
 10
212.5201161998024
 20
13.57624999999461
 30
0.0
 11
212.2740206475606
 21
13.14999999999463
 31
0.0
  0
ARC
  5
85E
330
1F
100
AcDbEntity
  8
10
100
AcDbCircle
 10
217.5213808963094
 20
10.39999999999372
 30
0.0
 40
5.247360248749616
100
AcDbArc
 50
162.3830311596232
 51
197.6169688403767
  0
ARC
  5
85F
330
1F
100
AcDbEntity
  8
10
100
AcDbCircle
 10
213.6781465418384
 20
12.7821874999945
 30
0.0
 40
1.404125894278184
100
AcDbArc
 50
154.4384694047563
 51
214.4384694047155
  0
LINE
  5
860
330
1F
100
AcDbEntity
  8
10
100
AcDbLine
 10
212.2740206475606
 20
7.649999999994633
 30
0.0
 11
212.2740206475606
 21
13.14999999999463
 31
0.0
  0
ARC
  5
861
330
1F
100
AcDbEntity
  8
10
100
AcDbCircle
 10
213.6781465418384
 20
8.017812499993851
 30
0.0
 40
1.404125894278186
100
AcDbArc
 50
145.5615305952844
 51
205.5615305952436
  0
LINE
  5
862
330
1F
100
AcDbEntity
  8
10
100
AcDbLine
 10
210.6740206475604
 20
89.99999999999454
 30
0.0
 11
208.9807456475607
 21
89.99999999999454
 31
0.0
  0
LINE
  5
863
330
1F
100
AcDbEntity
  8
10
100
AcDbLine
 10
210.6740206475604
 20
86.99999999999453
 30
0.0
 11
208.9807456475607
 21
86.99999999999453
 31
0.0
  0
LINE
  5
864
330
1F
100
AcDbEntity
  8
10
100
AcDbLine
 10
208.6740206475603
 20
87.30672499999446
 30
0.0
 11
208.6740206475603
 21
89.69327499999463
 31
0.0
  0
LINE
  5
865
330
1F
100
AcDbEntity
  8
10
100
AcDbLine
 10
208.9807456475607
 20
86.99999999999453
 30
0.0
 11
208.9807456475607
 21
89.99999999999454
 31
0.0
  0
LINE
  5
866
330
1F
100
AcDbEntity
  8
10
100
AcDbLine
 10
208.9807456475607
 20
89.99999999999454
 30
0.0
 11
208.6740206475603
 21
89.69327499999463
 31
0.0
  0
LINE
  5
867
330
1F
100
AcDbEntity
  8
10
100
AcDbLine
 10
208.9807456475607
 20
86.99999999999453
 30
0.0
 11
208.6740206475603
 21
87.30672499999446
 31
0.0
  0
LWPOLYLINE
  5
868
330
1F
100
AcDbEntity
  8
12
 48
3.0
100
AcDbPolyline
 90
        2
 70
     0
 43
0.0
 10
290.1740206475603
 20
2.641733689759803
 10
290.1740206475603
 20
-2.212272190197381
  0
LWPOLYLINE
  5
869
330
1F
100
AcDbEntity
  8
10
100
AcDbPolyline
 90
        7
 70
     0
 43
0.0
 10
278.1740206475601
 20
93.49999999999864
 10
278.1740206475601
 20
0.0
 10
300.1740206475604
 20
0.0
 10
300.1740206475604
 20
1.5
 10
279.6740206475603
 20
1.5
 10
279.6740206475603
 20
93.49999999999864
 10
278.1740206475601
 20
93.49999999999864
  0
LWPOLYLINE
  5
86A
330
1F
100
AcDbEntity
  8
10
100
AcDbPolyline
 90
        4
 70
     0
 43
0.0
 10
279.6740206475603
 20
17.99999999999863
 10
296.6740206475603
 20
17.99999999999863
 10
296.6740206475603
 20
81.5
 10
279.6740206475603
 20
81.5
  0
LWPOLYLINE
  5
86B
330
1F
100
AcDbEntity
  8
10
100
AcDbPolyline
 90
        3
 70
     0
 43
0.0
 10
288.1740206475603
 20
17.99999999999863
 10
288.1740206475603
 20
16.49999999999863
 10
279.6740206475603
 20
16.49999999999863
  0
LWPOLYLINE
  5
86C
330
1F
100
AcDbEntity
  8
10
100
AcDbPolyline
 90
        3
 70
     0
 43
0.0
 10
279.6740206475603
 20
82.99999999999863
 10
288.1740206475603
 20
82.99999999999863
 10
288.1740206475603
 20
81.5
  0
LINE
  5
86F
330
1F
100
AcDbEntity
  8
10
100
AcDbLine
 10
280.6740206475603
 20
84.99999999999863
 30
0.0
 11
280.6740206475603
 21
92.0
 31
0.0
  0
LINE
  5
870
330
1F
100
AcDbEntity
  8
10
100
AcDbLine
 10
280.1740206475603
 20
92.0
 30
0.0
 11
280.1740206475603
 21
84.99999999999863
 31
0.0
  0
LINE
  5
871
330
1F
100
AcDbEntity
  8
10
100
AcDbLine
 10
280.6740206475603
 20
92.0
 30
0.0
 11
280.1740206475603
 21
92.0
 31
0.0
  0
LINE
  5
872
330
1F
100
AcDbEntity
  8
10
100
AcDbLine
 10
280.1740206475603
 20
84.99999999999863
 30
0.0
 11
280.6740206475603
 21
84.99999999999863
 31
0.0
  0
LINE
  5
873
330
1F
100
AcDbEntity
  8
10
100
AcDbLine
 10
281.662188049089
 20
85.78645344529878
 30
0.0
 11
280.6740206475603
 21
85.69999999999982
 31
0.0
  0
LINE
  5
874
330
1F
100
AcDbEntity
  8
10
100
AcDbLine
 10
281.662188049089
 20
91.21354655469986
 30
0.0
 11
280.6740206475603
 21
91.29999999999881
 31
0.0
  0
ARC
  5
875
330
1F
100
AcDbEntity
  8
10
100
AcDbCircle
 10
278.0740206475598
 20
88.49999999999999
 30
0.0
 40
5.0
100
AcDbArc
 50
336.4528627629333
 51
23.54713723706668
  0
ARC
  5
876
330
1F
100
AcDbEntity
  8
10
100
AcDbCircle
 10
281.557601157792
 20
90.01811291699004
 30
0.0
 40
1.199999999999999
100
AcDbArc
 50
23.54713723706668
 51
84.99999999997401
  0
ARC
  5
877
330
1F
100
AcDbEntity
  8
10
100
AcDbCircle
 10
281.557601157792
 20
86.98188708300904
 30
0.0
 40
1.199999999999999
100
AcDbArc
 50
275.0000000000259
 51
336.4528627629333
  0
LINE
  5
878
330
1F
100
AcDbEntity
  8
10
100
AcDbLine
 10
280.6740206475603
 20
87.15324999999984
 30
0.0
 11
280.6740206475603
 21
85.69999999999982
 31
0.0
  0
LINE
  5
879
330
1F
100
AcDbEntity
  8
10
100
AcDbLine
 10
280.6740206475603
 20
91.29999999999881
 30
0.0
 11
280.6740206475603
 21
89.8467499999988
 31
0.0
  0
LINE
  5
87A
330
1F
100
AcDbEntity
  8
10
100
AcDbLine
 10
280.6740206475603
 20
89.8467499999988
 30
0.0
 11
280.6740206475603
 21
87.15324999999984
 31
0.0
  0
LWPOLYLINE
  5
87B
330
1F
100
AcDbEntity
  8
10
100
AcDbPolyline
 90
        4
 70
     0
 43
0.0
 10
279.6740206475603
 20
92.99999999999863
 10
280.1740206475603
 20
92.99999999999863
 10
280.1740206475603
 20
84.0
 10
279.6740206475603
 20
84.0
  0
LWPOLYLINE
  5
87C
330
1F
100
AcDbEntity
  8
10
100
AcDbPolyline
 90
        4
 70
     0
 43
0.0
 10
279.6740206475603
 20
14.89999999999872
 10
280.1740206475603
 20
14.89999999999872
 10
280.1740206475603
 20
5.899999999998726
 10
279.6740206475603
 20
5.899999999998726
  0
LINE
  5
87D
330
1F
100
AcDbEntity
  8
10
100
AcDbLine
 10
280.6740206475603
 20
11.74674999999842
 30
0.0
 11
280.6740206475603
 21
9.053249999999934
 31
0.0
  0
LINE
  5
87E
330
1F
100
AcDbEntity
  8
10
100
AcDbLine
 10
280.6740206475603
 20
13.19999999999845
 30
0.0
 11
280.6740206475603
 21
11.74674999999842
 31
0.0
  0
LINE
  5
87F
330
1F
100
AcDbEntity
  8
10
100
AcDbLine
 10
280.6740206475603
 20
9.053249999999934
 30
0.0
 11
280.6740206475603
 21
7.599999999998544
 31
0.0
  0
ARC
  5
880
330
1F
100
AcDbEntity
  8
10
100
AcDbCircle
 10
281.557601157792
 20
8.881887083008678
 30
0.0
 40
1.199999999999999
100
AcDbArc
 50
275.0000000000259
 51
336.4528627629333
  0
ARC
  5
881
330
1F
100
AcDbEntity
  8
10
100
AcDbCircle
 10
281.557601157792
 20
11.91811291699013
 30
0.0
 40
1.199999999999999
100
AcDbArc
 50
23.54713723706668
 51
84.99999999997401
  0
ARC
  5
882
330
1F
100
AcDbEntity
  8
10
100
AcDbCircle
 10
278.0740206475598
 20
10.39999999999872
 30
0.0
 40
5.0
100
AcDbArc
 50
336.4528627629333
 51
23.54713723706668
  0
LINE
  5
883
330
1F
100
AcDbEntity
  8
10
100
AcDbLine
 10
281.662188049089
 20
13.11354655469995
 30
0.0
 11
280.6740206475603
 21
13.19999999999845
 31
0.0
  0
LINE
  5
884
330
1F
100
AcDbEntity
  8
10
100
AcDbLine
 10
281.662188049089
 20
7.686453445297502
 30
0.0
 11
280.6740206475603
 21
7.599999999998544
 31
0.0
  0
LINE
  5
885
330
1F
100
AcDbEntity
  8
10
100
AcDbLine
 10
280.1740206475603
 20
6.899999999998726
 30
0.0
 11
280.6740206475603
 21
6.899999999998726
 31
0.0
  0
LINE
  5
886
330
1F
100
AcDbEntity
  8
10
100
AcDbLine
 10
280.6740206475603
 20
13.89999999999872
 30
0.0
 11
280.1740206475603
 21
13.89999999999872
 31
0.0
  0
LINE
  5
887
330
1F
100
AcDbEntity
  8
10
100
AcDbLine
 10
280.1740206475603
 20
13.89999999999872
 30
0.0
 11
280.1740206475603
 21
6.899999999998726
 31
0.0
  0
LINE
  5
888
330
1F
100
AcDbEntity
  8
10
100
AcDbLine
 10
280.6740206475603
 20
6.899999999998726
 30
0.0
 11
280.6740206475603
 21
13.89999999999872
 31
0.0
  0
LINE
  5
889
330
1F
100
AcDbEntity
  8
10
100
AcDbLine
 10
217.1740206475603
 20
16.49999999999863
 30
0.0
 11
217.1740206475603
 21
94.0
 31
0.0
  0
LINE
  5
88A
330
1F
100
AcDbEntity
  8
10
100
AcDbLine
 10
217.1740206475603
 20
94.0
 30
0.0
 11
278.1740206475601
 21
94.0
 31
0.0
  0
LINE
  5
88B
330
1F
100
AcDbEntity
  8
10
100
AcDbLine
 10
278.1740206475601
 20
94.0
 30
0.0
 11
278.1740206475601
 21
16.49999999999863
 31
0.0
  0
LINE
  5
88C
330
1F
100
AcDbEntity
  8
10
100
AcDbLine
 10
217.1740206475603
 20
15.89999999999872
 30
0.0
 11
217.1740206475603
 21
4.899999999998726
 31
0.0
  0
LWPOLYLINE
  5
88D
330
1F
100
AcDbEntity
  8
10
100
AcDbPolyline
 90
        4
 70
     0
 43
0.0
 10
217.1740206475603
 20
4.899999999998726
 10
278.1740206475601
 20
4.899999999998726
 10
278.1740206475601
 20
15.89999999999872
 10
217.1740206475603
 20
15.89999999999872
  0
LWPOLYLINE
  5
88E
330
1F
100
AcDbEntity
  8
10
100
AcDbPolyline
 90
        2
 70
     0
 43
0.0
 10
279.6740206475603
 20
16.49999999999863
 10
217.1740206475603
 20
16.49999999999863
  0
ARC
  5
88F
330
1F
100
AcDbEntity
  8
10
100
AcDbCircle
 10
211.669894753282
 20
86.11781249999467
 30
0.0
 40
1.404125894278186
100
AcDbArc
 50
334.4384694047563
 51
34.43846940471554
  0
LINE
  5
890
330
1F
100
AcDbEntity
  8
10
100
AcDbLine
 10
213.0740206475597
 20
85.74999999999453
 30
0.0
 11
213.0740206475597
 21
91.24999999999454
 31
0.0
  0
ARC
  5
891
330
1F
100
AcDbEntity
  8
10
100
AcDbCircle
 10
207.8266603988101
 20
88.49999999999454
 30
0.0
 40
5.247360248749637
100
AcDbArc
 50
342.3830311596232
 51
17.61696884037677
  0
ARC
  5
892
330
1F
100
AcDbEntity
  8
10
100
AcDbCircle
 10
211.669894753282
 20
90.88218749999487
 30
0.0
 40
1.404125894278186
100
AcDbArc
 50
325.5615305952844
 51
25.56153059524364
  0
LINE
  5
893
330
1F
100
AcDbEntity
  8
10
100
AcDbLine
 10
212.827925095318
 20
91.67624999999452
 30
0.0
 11
213.0740206475597
 21
91.24999999999454
 31
0.0
  0
LINE
  5
894
330
1F
100
AcDbEntity
  8
10
100
AcDbLine
 10
212.827925095318
 20
85.32374999999365
 30
0.0
 11
213.0740206475597
 21
85.74999999999453
 31
0.0
  0
LINE
  5
895
330
1F
100
AcDbEntity
  8
10
100
AcDbLine
 10
213.0740206475597
 20
91.99999999999453
 30
0.0
 11
213.0740206475597
 21
91.24999999999454
 31
0.0
  0
LINE
  5
896
330
1F
100
AcDbEntity
  8
10
100
AcDbLine
 10
213.0740206475597
 20
91.24999999999454
 30
0.0
 11
213.0740206475597
 21
85.74999999999453
 31
0.0
  0
LINE
  5
897
330
1F
100
AcDbEntity
  8
10
100
AcDbLine
 10
213.0740206475597
 20
85.74999999999453
 30
0.0
 11
213.0740206475597
 21
84.99999999999454
 31
0.0
  0
LINE
  5
898
330
1F
100
AcDbEntity
  8
10
100
AcDbLine
 10
213.5740206475598
 20
84.99999999999454
 30
0.0
 11
213.5740206475598
 21
91.99999999999453
 31
0.0
  0
LINE
  5
899
330
1F
100
AcDbEntity
  8
10
100
AcDbLine
 10
213.0740206475597
 20
84.99999999999454
 30
0.0
 11
213.5740206475598
 21
84.99999999999454
 31
0.0
  0
LINE
  5
89A
330
1F
100
AcDbEntity
  8
10
100
AcDbLine
 10
213.5740206475598
 20
91.99999999999453
 30
0.0
 11
213.0740206475597
 21
91.99999999999453
 31
0.0
  0
LWPOLYLINE
  5
89B
330
1F
100
AcDbEntity
  8
10
100
AcDbPolyline
 90
        4
 70
     0
 43
0.0
 10
214.0740206475598
 20
92.99999999999863
 10
213.5740206475598
 20
92.99999999999863
 10
213.5740206475598
 20
84.0
 10
214.0740206475598
 20
84.0
  0
LWPOLYLINE
  5
89C
330
1F
100
AcDbEntity
  8
10
100
AcDbPolyline
 90
        4
 70
     0
 43
0.0
 10
215.6740206475603
 20
14.89999999999872
 10
215.1740206475603
 20
14.89999999999872
 10
215.1740206475603
 20
5.899999999998726
 10
215.6740206475603
 20
5.899999999998726
  0
LINE
  5
89D
330
1F
100
AcDbEntity
  8
10
100
AcDbLine
 10
215.1740206475603
 20
13.89999999999463
 30
0.0
 11
214.6740206475604
 21
13.89999999999463
 31
0.0
  0
LINE
  5
89E
330
1F
100
AcDbEntity
  8
10
100
AcDbLine
 10
214.6740206475604
 20
6.899999999994633
 30
0.0
 11
215.1740206475603
 21
6.899999999994633
 31
0.0
  0
LINE
  5
89F
330
1F
100
AcDbEntity
  8
10
100
AcDbLine
 10
215.1740206475603
 20
6.899999999994633
 30
0.0
 11
215.1740206475603
 21
13.89999999999463
 31
0.0
  0
LINE
  5
8A0
330
1F
100
AcDbEntity
  8
10
100
AcDbLine
 10
214.6740206475604
 20
7.649999999994633
 30
0.0
 11
214.6740206475604
 21
6.899999999994633
 31
0.0
  0
LINE
  5
8A1
330
1F
100
AcDbEntity
  8
10
100
AcDbLine
 10
214.6740206475604
 20
13.14999999999463
 30
0.0
 11
214.6740206475604
 21
7.649999999994633
 31
0.0
  0
LINE
  5
8A2
330
1F
100
AcDbEntity
  8
10
100
AcDbLine
 10
214.6740206475604
 20
13.89999999999463
 30
0.0
 11
214.6740206475604
 21
13.14999999999463
 31
0.0
  0
LINE
  5
8A3
330
1F
100
AcDbEntity
  8
10
100
AcDbLine
 10
214.4279250953184
 20
7.223749999993742
 30
0.0
 11
214.6740206475604
 21
7.649999999994633
 31
0.0
  0
LINE
  5
8A4
330
1F
100
AcDbEntity
  8
10
100
AcDbLine
 10
214.4279250953184
 20
13.57624999999461
 30
0.0
 11
214.6740206475604
 21
13.14999999999463
 31
0.0
  0
ARC
  5
8A5
330
1F
100
AcDbEntity
  8
10
100
AcDbCircle
 10
213.2698947532822
 20
12.7821874999945
 30
0.0
 40
1.404125894278186
100
AcDbArc
 50
325.5615305952844
 51
25.56153059524364
  0
ARC
  5
8A6
330
1F
100
AcDbEntity
  8
10
100
AcDbCircle
 10
209.4266603988105
 20
10.39999999999372
 30
0.0
 40
5.247360248749637
100
AcDbArc
 50
342.3830311596232
 51
17.61696884037677
  0
LINE
  5
8A7
330
1F
100
AcDbEntity
  8
10
100
AcDbLine
 10
214.6740206475604
 20
7.649999999994633
 30
0.0
 11
214.6740206475604
 21
13.14999999999463
 31
0.0
  0
ARC
  5
8A8
330
1F
100
AcDbEntity
  8
10
100
AcDbCircle
 10
213.2698947532822
 20
8.017812499993851
 30
0.0
 40
1.404125894278186
100
AcDbArc
 50
334.4384694047563
 51
34.43846940471554
  0
CIRCLE
  5
8A9
330
1F
100
AcDbEntity
  8
10
100
AcDbCircle
 10
5.0
 20
10.39999999999872
 30
0.0
 40
3.5
  0
LINE
  5
8AA
330
1F
100
AcDbEntity
  8
12
 48
5.0
100
AcDbLine
 10
-1.5
 20
10.39999999999872
 30
0.0
 11
11.5
 21
10.39999999999872
 31
0.0
  0
LINE
  5
8AB
330
1F
100
AcDbEntity
  8
12
 48
5.0
100
AcDbLine
 10
5.0
 20
16.89999999999872
 30
0.0
 11
5.0
 21
3.899999999998726
 31
0.0
  0
LINE
  5
8AD
330
1F
100
AcDbEntity
  8
10
100
AcDbLine
 10
2.25
 20
8.812286759727612
 30
0.0
 11
5.0
 21
7.224573519455589
 31
0.0
  0
LINE
  5
8AE
330
1F
100
AcDbEntity
  8
10
100
AcDbLine
 10
5.0
 20
7.224573519455589
 30
0.0
 11
7.75
 21
8.812286759727612
 31
0.0
  0
LINE
  5
8AF
330
1F
100
AcDbEntity
  8
10
100
AcDbLine
 10
7.75
 20
8.812286759727612
 30
0.0
 11
7.75
 21
11.98771324026984
 31
0.0
  0
LINE
  5
8B0
330
1F
100
AcDbEntity
  8
10
100
AcDbLine
 10
7.75
 20
11.98771324026984
 30
0.0
 11
5.0
 21
13.57542648054186
 31
0.0
  0
LINE
  5
8B1
330
1F
100
AcDbEntity
  8
10
100
AcDbLine
 10
5.0
 20
13.57542648054186
 30
0.0
 11
2.25
 21
11.98771324026984
 31
0.0
  0
LINE
  5
8B2
330
1F
100
AcDbEntity
  8
10
100
AcDbLine
 10
2.25
 20
11.98771324026984
 30
0.0
 11
2.25
 21
8.812286759727612
 31
0.0
  0
CIRCLE
  5
8B3
330
1F
100
AcDbEntity
  8
10
100
AcDbCircle
 10
5.0
 20
10.39999999999872
 30
0.0
 40
2.75
  0
CIRCLE
  5
8B5
330
1F
100
AcDbEntity
  8
10
100
AcDbCircle
 10
5.0
 20
88.49999999999999
 30
0.0
 40
3.5
  0
LINE
  5
8B6
330
1F
100
AcDbEntity
  8
12
 48
5.0
100
AcDbLine
 10
-1.5
 20
88.49999999999999
 30
0.0
 11
11.5
 21
88.49999999999999
 31
0.0
  0
LINE
  5
8B7
330
1F
100
AcDbEntity
  8
12
 48
5.0
100
AcDbLine
 10
5.0
 20
94.99999999999863
 30
0.0
 11
5.0
 21
81.99999999999864
 31
0.0
  0
LINE
  5
8B9
330
1F
100
AcDbEntity
  8
10
100
AcDbLine
 10
2.25
 20
86.91228675972752
 30
0.0
 11
5.0
 21
85.32457351945595
 31
0.0
  0
LINE
  5
8BA
330
1F
100
AcDbEntity
  8
10
100
AcDbLine
 10
5.0
 20
85.32457351945595
 30
0.0
 11
7.75
 21
86.91228675972752
 31
0.0
  0
LINE
  5
8BB
330
1F
100
AcDbEntity
  8
10
100
AcDbLine
 10
7.75
 20
86.91228675972752
 30
0.0
 11
7.75
 21
90.08771324027065
 31
0.0
  0
LINE
  5
8BC
330
1F
100
AcDbEntity
  8
10
100
AcDbLine
 10
7.75
 20
90.08771324027065
 30
0.0
 11
5.0
 21
91.67542648054178
 31
0.0
  0
LINE
  5
8BD
330
1F
100
AcDbEntity
  8
10
100
AcDbLine
 10
5.0
 20
91.67542648054178
 30
0.0
 11
2.25
 21
90.08771324027065
 31
0.0
  0
LINE
  5
8BE
330
1F
100
AcDbEntity
  8
10
100
AcDbLine
 10
2.25
 20
90.08771324027065
 30
0.0
 11
2.25
 21
86.91228675972752
 31
0.0
  0
CIRCLE
  5
8BF
330
1F
100
AcDbEntity
  8
10
100
AcDbCircle
 10
5.0
 20
88.49999999999999
 30
0.0
 40
2.75
  0
LWPOLYLINE
  5
8C1
330
1F
100
AcDbEntity
  8
10
100
AcDbPolyline
 90
        2
 70
     0
 43
0.0
 10
53.75
 20
1.5
 10
0.0
 20
1.5
  0
LWPOLYLINE
  5
8C2
330
1F
100
AcDbEntity
  8
10
100
AcDbPolyline
 90
        3
 70
     0
 43
0.0
 10
0.0
 20
84.0
 10
0.0
 20
0.0
 10
53.75
 20
0.0
  0
CIRCLE
  5
8C3
330
1F
100
AcDbEntity
  8
10
100
AcDbCircle
 10
5.0
 20
10.39999999999872
 30
0.0
 40
4.5
1001
GENIUS_GENOREF_13
1005
0
1005
0
1005
0
  0
LWPOLYLINE
  5
8C4
330
1F
100
AcDbEntity
  8
10
100
AcDbPolyline
 90
        4
 70
     1
 43
0.0
 10
0.0
 20
84.0
 10
107.4999999999999
 20
84.0
 10
107.4999999999999
 20
108.9999999999986
 10
0.0
 20
108.9999999999986
1001
GENIUS_GENREC_14
1002
{
1000
PYDIR
1011
0.0
1021
108.9999999999986
1031
0.0
1002
}
1002
{
1000
PXDIR
1011
107.4999999999999
1021
84.0
1031
0.0
1002
}
1002
{
1000
PORI
1011
0.0
1021
84.0
1031
0.0
1002
}
1002
{
1000
PINS
1011
0.0
1021
84.0
1031
0.0
1002
}
1002
{
1000
PINS2
1011
107.4999999999999
1021
108.9999999999986
1031
0.0
1002
}
1002
{
1000
C
1070
     1
1002
}
1001
GENIUS_GENODEF_13
1002
{
1000
HIER
1070
     0
1002
}
1002
{
1000
MANEDIT
1070
     0
1002
}
1002
{
1000
NOSEL
1070
     0
1002
}
1002
{
1000
BEHIND
1070
     0
1002
}
1002
{
1000
OTHER
1070
     0
1002
}
1002
{
1000
REACTOR
1002
}
1001
GENIUS_GENOBJ-N-REC_13
1002
{
1000
OWNER
1000
GEN
1002
}
  0
LWPOLYLINE
  5
8C5
330
1F
100
AcDbEntity
  8
10
100
AcDbPolyline
 90
        2
 70
     0
 43
0.0
 10
0.0
 20
15.89999999999872
 10
0.0
 20
16.49999999999863
  0
CIRCLE
  5
8C6
330
1F
100
AcDbEntity
  8
10
100
AcDbCircle
 10
102.5000000000001
 20
10.39999999999872
 30
0.0
 40
3.5
  0
LINE
  5
8C7
330
1F
100
AcDbEntity
  8
12
 48
5.0
100
AcDbLine
 10
96.00000000000012
 20
10.39999999999872
 30
0.0
 11
109.0
 21
10.39999999999872
 31
0.0
  0
LINE
  5
8CA
330
1F
100
AcDbEntity
  8
10
100
AcDbLine
 10
99.75000000000012
 20
8.812286759727612
 30
0.0
 11
102.5000000000001
 21
7.224573519455589
 31
0.0
  0
LINE
  5
8CB
330
1F
100
AcDbEntity
  8
10
100
AcDbLine
 10
102.5000000000001
 20
7.224573519455589
 30
0.0
 11
105.2499999999999
 21
8.812286759727612
 31
0.0
  0
LINE
  5
8CC
330
1F
100
AcDbEntity
  8
10
100
AcDbLine
 10
105.2499999999999
 20
8.812286759727612
 30
0.0
 11
105.2499999999999
 21
11.98771324026984
 31
0.0
  0
LINE
  5
8CD
330
1F
100
AcDbEntity
  8
10
100
AcDbLine
 10
105.2499999999999
 20
11.98771324026984
 30
0.0
 11
102.5000000000001
 21
13.57542648054186
 31
0.0
  0
LINE
  5
8CE
330
1F
100
AcDbEntity
  8
10
100
AcDbLine
 10
102.5000000000001
 20
13.57542648054186
 30
0.0
 11
99.75000000000012
 21
11.98771324026984
 31
0.0
  0
LINE
  5
8CF
330
1F
100
AcDbEntity
  8
10
100
AcDbLine
 10
99.75000000000012
 20
11.98771324026984
 30
0.0
 11
99.75000000000012
 21
8.812286759727612
 31
0.0
  0
CIRCLE
  5
8D0
330
1F
100
AcDbEntity
  8
10
100
AcDbCircle
 10
102.5000000000001
 20
10.39999999999872
 30
0.0
 40
2.75
  0
LINE
  5
8D1
330
1F
100
AcDbEntity
  8
12
 48
5.0
100
AcDbLine
 10
102.5000000000001
 20
16.57542648054186
 30
0.0
 11
102.5000000000001
 21
4.224573519455589
 31
0.0
  0
CIRCLE
  5
8D2
330
1F
100
AcDbEntity
  8
10
100
AcDbCircle
 10
102.5000000000001
 20
88.49999999999999
 30
0.0
 40
3.5
  0
LINE
  5
8D3
330
1F
100
AcDbEntity
  8
12
 48
5.0
100
AcDbLine
 10
96.00000000000012
 20
88.49999999999999
 30
0.0
 11
109.0
 21
88.49999999999999
 31
0.0
  0
LINE
  5
8D4
330
1F
100
AcDbEntity
  8
12
 48
5.0
100
AcDbLine
 10
102.5000000000001
 20
94.99999999999863
 30
0.0
 11
102.5000000000001
 21
81.99999999999864
 31
0.0
  0
LINE
  5
8D6
330
1F
100
AcDbEntity
  8
10
100
AcDbLine
 10
99.75000000000012
 20
86.91228675972752
 30
0.0
 11
102.5000000000001
 21
85.32457351945595
 31
0.0
  0
LINE
  5
8D7
330
1F
100
AcDbEntity
  8
10
100
AcDbLine
 10
102.5000000000001
 20
85.32457351945595
 30
0.0
 11
105.2499999999999
 21
86.91228675972752
 31
0.0
  0
LINE
  5
8D8
330
1F
100
AcDbEntity
  8
10
100
AcDbLine
 10
105.2499999999999
 20
86.91228675972752
 30
0.0
 11
105.2499999999999
 21
90.08771324027065
 31
0.0
  0
LINE
  5
8D9
330
1F
100
AcDbEntity
  8
10
100
AcDbLine
 10
105.2499999999999
 20
90.08771324027065
 30
0.0
 11
102.5000000000001
 21
91.67542648054178
 31
0.0
  0
LINE
  5
8DA
330
1F
100
AcDbEntity
  8
10
100
AcDbLine
 10
102.5000000000001
 20
91.67542648054178
 30
0.0
 11
99.75000000000012
 21
90.08771324027065
 31
0.0
  0
LINE
  5
8DB
330
1F
100
AcDbEntity
  8
10
100
AcDbLine
 10
99.75000000000012
 20
90.08771324027065
 30
0.0
 11
99.75000000000012
 21
86.91228675972752
 31
0.0
  0
CIRCLE
  5
8DC
330
1F
100
AcDbEntity
  8
10
100
AcDbCircle
 10
102.5000000000001
 20
88.49999999999999
 30
0.0
 40
2.75
  0
CIRCLE
  5
8DE
330
1F
100
AcDbEntity
  8
10
100
AcDbCircle
 10
102.5000000000001
 20
10.39999999999872
 30
0.0
 40
4.5
1001
GENIUS_GENOREF_13
1005
0
1005
0
1005
0
  0
LWPOLYLINE
  5
8DF
330
1F
100
AcDbEntity
  8
10
100
AcDbPolyline
 90
        3
 70
     0
 43
0.0
 10
107.4999999999999
 20
84.49999999999864
 10
107.4999999999999
 20
0.0
 10
53.75
 20
0.0
  0
LWPOLYLINE
  5
8E0
330
1F
100
AcDbEntity
  8
10
100
AcDbPolyline
 90
        2
 70
     0
 43
0.0
 10
53.75
 20
1.5
 10
107.4999999999999
 20
1.5
  0
LWPOLYLINE
  5
8E1
330
1F
100
AcDbEntity
  8
12
100
AcDbPolyline
 90
        2
 70
     0
 43
0.0
 10
91.25000000000012
 20
2.641733689759803
 10
91.25000000000012
 20
-2.212272190197381
  0
LWPOLYLINE
  5
8E2
330
1F
100
AcDbEntity
  8
10
100
AcDbPolyline
 90
        2
 70
     0
 43
0.0
 10
97.50000000000012
 20
16.49999999999863
 10
97.50000000000012
 20
16.49999999999863
  0
LWPOLYLINE
  5
8E3
330
1F
100
AcDbEntity
  8
10
100
AcDbPolyline
 90
        5
 70
     0
 43
0.0
 10
10.0
 20
16.49999999999863
 10
11.0
 20
16.49999999999863
 10
11.0
 20
82.99999999999863
 10
42.75000000000011
 20
82.99999999999863
 10
42.75000000000011
 20
81.49999999999863
  0
LWPOLYLINE
  5
8E4
330
1F
100
AcDbEntity
  8
12
100
AcDbPolyline
 90
        2
 70
     0
 43
0.0
 10
16.25
 20
2.641733689759803
 10
16.25
 20
-2.212272190197381
  0
LWPOLYLINE
  5
8E5
330
1F
100
AcDbEntity
  8
10
100
AcDbPolyline
 90
        4
 70
     0
 43
0.0
 10
42.75000000000011
 20
17.99999999999863
 10
42.75000000000011
 20
16.49999999999863
 10
64.75
 20
16.49999999999863
 10
64.75
 20
17.99999999999863
  0
LWPOLYLINE
  5
8E6
330
1F
100
AcDbEntity
  8
10
100
AcDbPolyline
 90
        5
 70
     0
 43
0.0
 10
64.75
 20
81.5
 10
64.75
 20
82.99999999999863
 10
96.5
 20
82.99999999999863
 10
96.5
 20
16.49999999999863
 10
97.50000000000012
 20
16.49999999999863
  0
LWPOLYLINE
  5
8E7
330
1F
100
AcDbEntity
  8
10
100
AcDbPolyline
 90
        2
 70
     0
 43
0.0
 10
10.0
 20
15.89999999999872
 10
97.50000000000012
 20
15.89999999999872
  0
LWPOLYLINE
  5
8E8
330
1F
100
AcDbEntity
  8
10
100
AcDbPolyline
 90
        4
 70
     0
 43
0.0
 10
97.50000000000012
 20
84.0
 10
97.50000000000012
 20
14.99999999999863
 10
10.0
 20
14.99999999999863
 10
10.0
 20
84.0
  0
LWPOLYLINE
  5
8E9
330
1F
100
AcDbEntity
  8
10
100
AcDbPolyline
 90
        4
 70
     1
 43
0.0
 10
11.5
 20
81.5
 10
96.00000000000012
 20
81.5
 10
96.00000000000012
 20
17.99999999999863
 10
11.5
 20
17.99999999999863
1001
GENIUS_GENREC_14
1002
{
1000
PYDIR
1011
11.5
1021
17.99999999999863
1031
0.0
1002
}
1002
{
1000
PXDIR
1011
96.00000000000012
1021
81.5
1031
0.0
1002
}
1002
{
1000
PORI
1011
11.5
1021
81.5
1031
0.0
1002
}
1002
{
1000
PINS
1011
11.5
1021
81.5
1031
0.0
1002
}
1002
{
1000
PINS2
1011
96.00000000000012
1021
17.99999999999863
1031
0.0
1002
}
1002
{
1000
C
1070
     1
1002
}
1001
GENIUS_GENODEF_13
1002
{
1000
HIER
1070
     0
1002
}
1002
{
1000
MANEDIT
1070
     0
1002
}
1002
{
1000
NOSEL
1070
     0
1002
}
1002
{
1000
BEHIND
1070
     0
1002
}
1002
{
1000
OTHER
1070
     0
1002
}
1002
{
1000
REACTOR
1002
}
1001
GENIUS_GENOBJ-N-REC_13
1002
{
1000
OWNER
1000
GEN
1002
}
  0
LWPOLYLINE
  5
8EA
330
1F
100
AcDbEntity
  8
10
100
AcDbPolyline
 90
        2
 70
     0
 43
0.0
 10
97.50000000000012
 20
16.49999999999863
 10
10.0
 20
16.49999999999863
  0
CIRCLE
  5
8EB
330
1F
100
AcDbEntity
  8
10
100
AcDbCircle
 10
102.5000000000001
 20
88.49999999999864
 30
0.0
 40
4.5
1001
GENIUS_GENOREF_13
1005
0
1005
0
1005
0
  0
CIRCLE
  5
8EC
330
1F
100
AcDbEntity
  8
10
100
AcDbCircle
 10
5.0
 20
88.49999999999999
 30
0.0
 40
4.5
1001
GENIUS_GENOREF_13
1005
0
1005
0
1005
0
  0
LINE
  5
8ED
330
1F
100
AcDbEntity
  8
10
100
AcDbLine
 10
81.1249925311314
 20
130.4999999999999
 30
0.0
 11
81.12499253113128
 21
139.4999999999986
 31
0.0
  0
LINE
  5
8EE
330
1F
100
AcDbEntity
  8
10
100
AcDbLine
 10
77.6249925311314
 20
116.9999999999986
 30
0.0
 11
77.62499253113128
 21
136.4999999999986
 31
0.0
  0
LINE
  5
8EF
330
1F
100
AcDbEntity
  8
10
100
AcDbLine
 10
79.12499253113129
 20
136.4999999999986
 30
0.0
 11
79.12499253113139
 21
116.9999999999986
 31
0.0
  0
LINE
  5
8F0
330
1F
100
AcDbEntity
  8
10
100
AcDbLine
 10
77.62499253113128
 20
136.4999999999986
 30
0.0
 11
77.6249925311314
 21
116.9999999999986
 31
0.0
  0
LINE
  5
8F1
330
1F
100
AcDbEntity
  8
10
100
AcDbLine
 10
44.99999999999988
 20
136.4999999999986
 30
0.0
 11
45.0
 21
116.9999999999986
 31
0.0
  0
LINE
  5
8F2
330
1F
100
AcDbEntity
  8
10
100
AcDbLine
 10
46.5
 20
116.9999999999986
 30
0.0
 11
46.49999999999988
 21
136.4999999999986
 31
0.0
  0
LINE
  5
8F3
330
1F
100
AcDbEntity
  8
10
100
AcDbLine
 10
28.3750074688686
 20
136.4999999999986
 30
0.0
 11
28.37500746886871
 21
116.9999999999986
 31
0.0
  0
LINE
  5
8F4
330
1F
100
AcDbEntity
  8
10
100
AcDbLine
 10
29.87500746886871
 20
116.9999999999986
 30
0.0
 11
29.8750074688686
 21
136.4999999999986
 31
0.0
  0
LINE
  5
8F5
330
1F
100
AcDbEntity
  8
10
100
AcDbLine
 10
26.3750074688686
 20
130.4999999999999
 30
0.0
 11
26.3750074688686
 21
139.4999999999986
 31
0.0
  0
LINE
  5
8F6
330
1F
100
AcDbEntity
  8
10
100
AcDbLine
 10
61.0
 20
136.4999999999986
 30
0.0
 11
61.00000000000012
 21
116.9999999999986
 31
0.0
  0
LINE
  5
8F7
330
1F
100
AcDbEntity
  8
10
100
AcDbLine
 10
62.50000000000011
 20
116.9999999999986
 30
0.0
 11
62.5
 21
136.4999999999986
 31
0.0
  0
LINE
  5
8F8
330
1F
100
AcDbEntity
  8
10
100
AcDbLine
 10
20.1250074688686
 20
108.9999999999986
 30
0.0
 11
87.3749925311314
 21
108.9999999999986
 31
0.0
  0
LINE
  5
8F9
330
1F
100
AcDbEntity
  8
10
100
AcDbLine
 10
46.49999999999988
 20
125.0
 30
0.0
 11
61.0
 21
125.0
 31
0.0
  0
LINE
  5
8FA
330
1F
100
AcDbEntity
  8
10
100
AcDbLine
 10
61.0
 20
130.4999999999999
 30
0.0
 11
57.09485185213566
 21
130.4999999999999
 31
0.0
  0
LINE
  5
8FB
330
1F
100
AcDbEntity
  8
10
100
AcDbLine
 10
50.42402055132345
 20
130.4999999999999
 30
0.0
 11
46.49999999999988
 21
130.4999999999999
 31
0.0
  0
LINE
  5
8FC
330
1F
100
AcDbEntity
  8
10
100
AcDbLine
 10
20.1250074688686
 20
116.9999999999986
 30
0.0
 11
20.1250074688686
 21
108.9999999999986
 31
0.0
  0
LINE
  5
8FD
330
1F
100
AcDbEntity
  8
10
100
AcDbLine
 10
20.1250074688686
 20
116.9999999999986
 30
0.0
 11
28.1250074688686
 21
116.9999999999986
 31
0.0
  0
LINE
  5
8FE
330
1F
100
AcDbEntity
  8
10
100
AcDbLine
 10
28.3750074688686
 20
116.9999999999986
 30
0.0
 11
20.1250074688686
 21
116.9999999999986
 31
0.0
  0
LINE
  5
8FF
330
1F
100
AcDbEntity
  8
10
100
AcDbLine
 10
29.8750074688686
 20
125.0
 30
0.0
 11
44.99999999999988
 21
125.0
 31
0.0
  0
LINE
  5
900
330
1F
100
AcDbEntity
  8
10
100
AcDbLine
 10
28.37500746886871
 20
116.9999999999986
 30
0.0
 11
29.87500746886871
 21
116.9999999999986
 31
0.0
  0
LINE
  5
901
330
1F
100
AcDbEntity
  8
10
100
AcDbLine
 10
45.0
 20
116.9999999999986
 30
0.0
 11
46.5
 21
116.9999999999986
 31
0.0
  0
LINE
  5
902
330
1F
100
AcDbEntity
  8
10
100
AcDbLine
 10
44.99999999999988
 20
130.4999999999999
 30
0.0
 11
40.78235558656956
 21
130.4999999999999
 31
0.0
  0
LINE
  5
903
330
1F
100
AcDbEntity
  8
10
100
AcDbLine
 10
34.11152428575883
 20
130.4999999999999
 30
0.0
 11
29.8750074688686
 21
130.4999999999999
 31
0.0
  0
LINE
  5
904
330
1F
100
AcDbEntity
  8
10
100
AcDbLine
 10
28.3750074688686
 20
130.4999999999999
 30
0.0
 11
26.3750074688686
 21
130.4999999999999
 31
0.0
  0
LINE
  5
905
330
1F
100
AcDbEntity
  8
10
100
AcDbLine
 10
87.3749925311314
 20
116.9999999999986
 30
0.0
 11
87.3749925311314
 21
108.9999999999986
 31
0.0
  0
LINE
  5
906
330
1F
100
AcDbEntity
  8
10
100
AcDbLine
 10
79.12499253113139
 20
116.9999999999986
 30
0.0
 11
87.3749925311314
 21
116.9999999999986
 31
0.0
  0
LINE
  5
907
330
1F
100
AcDbEntity
  8
10
100
AcDbLine
 10
62.5
 20
125.0
 30
0.0
 11
77.6249925311314
 21
125.0
 31
0.0
  0
LINE
  5
908
330
1F
100
AcDbEntity
  8
10
100
AcDbLine
 10
61.00000000000012
 20
116.9999999999986
 30
0.0
 11
62.50000000000011
 21
116.9999999999986
 31
0.0
  0
LINE
  5
909
330
1F
100
AcDbEntity
  8
10
100
AcDbLine
 10
79.12499253113139
 20
116.9999999999986
 30
0.0
 11
77.6249925311314
 21
116.9999999999986
 31
0.0
  0
LINE
  5
90A
330
1F
100
AcDbEntity
  8
10
100
AcDbLine
 10
77.6249925311314
 20
130.4999999999999
 30
0.0
 11
73.40734811770096
 21
130.4999999999999
 31
0.0
  0
LINE
  5
90B
330
1F
100
AcDbEntity
  8
10
100
AcDbLine
 10
66.73651681689034
 20
130.4999999999999
 30
0.0
 11
62.5
 21
130.4999999999999
 31
0.0
  0
LINE
  5
90C
330
1F
100
AcDbEntity
  8
10
100
AcDbLine
 10
79.12499253113139
 20
130.4999999999999
 30
0.0
 11
81.1249925311314
 21
130.4999999999999
 31
0.0
  0
LINE
  5
90D
330
1F
100
AcDbEntity
  8
10
100
AcDbLine
 10
27.3750074688686
 20
137.7499999999999
 30
0.0
 11
80.12499253113128
 21
137.7499999999999
 31
0.0
  0
LINE
  5
90E
330
1F
100
AcDbEntity
  8
10
100
AcDbLine
 10
80.12499253113128
 20
137.2499999999986
 30
0.0
 11
27.3750074688686
 21
137.2499999999986
 31
0.0
  0
LINE
  5
90F
330
1F
100
AcDbEntity
  8
10
100
AcDbLine
 10
29.8750074688686
 20
138.5
 30
0.0
 11
29.8750074688686
 21
139.4999999999986
 31
0.0
  0
LINE
  5
910
330
1F
100
AcDbEntity
  8
10
100
AcDbLine
 10
27.3750074688686
 20
138.5
 30
0.0
 11
29.8750074688686
 21
138.5
 31
0.0
  0
LINE
  5
911
330
1F
100
AcDbEntity
  8
10
100
AcDbLine
 10
27.3750074688686
 20
136.4999999999986
 30
0.0
 11
27.3750074688686
 21
138.5
 31
0.0
  0
LINE
  5
912
330
1F
100
AcDbEntity
  8
10
100
AcDbLine
 10
28.3750074688686
 20
136.4999999999986
 30
0.0
 11
27.3750074688686
 21
136.4999999999986
 31
0.0
  0
LINE
  5
913
330
1F
100
AcDbEntity
  8
10
100
AcDbLine
 10
27.3750074688686
 20
137.2499999999986
 30
0.0
 11
27.3750074688686
 21
137.7499999999999
 31
0.0
  0
LINE
  5
914
330
1F
100
AcDbEntity
  8
10
100
AcDbLine
 10
29.8750074688686
 20
136.4999999999986
 30
0.0
 11
28.3750074688686
 21
136.4999999999986
 31
0.0
  0
LINE
  5
915
330
1F
100
AcDbEntity
  8
10
100
AcDbLine
 10
26.3750074688686
 20
139.4999999999986
 30
0.0
 11
29.8750074688686
 21
139.4999999999986
 31
0.0
  0
LINE
  5
916
330
1F
100
AcDbEntity
  8
10
100
AcDbLine
 10
46.49999999999988
 20
136.4999999999986
 30
0.0
 11
44.99999999999988
 21
136.4999999999986
 31
0.0
  0
LINE
  5
917
330
1F
100
AcDbEntity
  8
10
100
AcDbLine
 10
62.5
 20
136.4999999999986
 30
0.0
 11
61.0
 21
136.4999999999986
 31
0.0
  0
LINE
  5
918
330
1F
100
AcDbEntity
  8
10
100
AcDbLine
 10
80.12499253113128
 20
137.2499999999986
 30
0.0
 11
80.12499253113128
 21
137.7499999999999
 31
0.0
  0
LINE
  5
919
330
1F
100
AcDbEntity
  8
10
100
AcDbLine
 10
81.12499253113128
 20
139.4999999999986
 30
0.0
 11
77.62499253113128
 21
139.4999999999986
 31
0.0
  0
LINE
  5
91A
330
1F
100
AcDbEntity
  8
10
100
AcDbLine
 10
77.62499253113128
 20
136.4999999999986
 30
0.0
 11
79.12499253113129
 21
136.4999999999986
 31
0.0
  0
LINE
  5
91B
330
1F
100
AcDbEntity
  8
10
100
AcDbLine
 10
79.12499253113129
 20
136.4999999999986
 30
0.0
 11
80.12499253113128
 21
136.4999999999986
 31
0.0
  0
LINE
  5
91C
330
1F
100
AcDbEntity
  8
10
100
AcDbLine
 10
80.12499253113128
 20
136.4999999999986
 30
0.0
 11
80.12499253113128
 21
138.5
 31
0.0
  0
LINE
  5
91D
330
1F
100
AcDbEntity
  8
10
100
AcDbLine
 10
80.12499253113128
 20
138.5
 30
0.0
 11
77.62499253113128
 21
138.5
 31
0.0
  0
LINE
  5
91E
330
1F
100
AcDbEntity
  8
10
100
AcDbLine
 10
77.62499253113128
 20
138.5
 30
0.0
 11
77.62499253113128
 21
139.4999999999986
 31
0.0
  0
ARC
  5
91F
330
1F
100
AcDbEntity
  8
10
100
AcDbCircle
 10
35.31152428575785
 20
128.9000000000001
 30
0.0
 40
2.0
100
AcDbArc
 50
90.0
 51
148.6677485024069
  0
LINE
  5
920
330
1F
100
AcDbEntity
  8
10
100
AcDbLine
 10
32.84693993616417
 20
126.2999999999997
 30
0.0
 11
42.04693993616399
 21
126.2999999999997
 31
0.0
  0
LINE
  5
921
330
1F
100
AcDbEntity
  8
10
100
AcDbLine
 10
42.04693993616399
 20
127.5999999999999
 30
0.0
 11
32.84693993616417
 21
127.5999999999999
 31
0.0
  0
ARC
  5
922
330
1F
100
AcDbEntity
  8
10
100
AcDbCircle
 10
37.44693993616408
 20
127.5999999999999
 30
0.0
 40
4.5
100
AcDbArc
 50
148.6677485024069
 51
180.0
  0
LINE
  5
923
330
1F
100
AcDbEntity
  8
10
100
AcDbLine
 10
32.84693993616417
 20
127.5999999999999
 30
0.0
 11
32.84693993616417
 21
126.2999999999997
 31
0.0
  0
ARC
  5
924
330
1F
100
AcDbEntity
  8
10
100
AcDbCircle
 10
37.44693993616408
 20
127.5999999999999
 30
0.0
 40
4.5
100
AcDbArc
 50
0.0
 51
31.33225149759307
  0
LINE
  5
925
330
1F
100
AcDbEntity
  8
10
100
AcDbLine
 10
37.73326478007027
 20
127.5999999999999
 30
0.0
 11
39.03326478007056
 21
126.2999999999997
 31
0.0
  0
LINE
  5
926
330
1F
100
AcDbEntity
  8
10
100
AcDbLine
 10
37.43750373443436
 20
126.2999999999997
 30
0.0
 11
36.13750373443417
 21
127.5999999999999
 31
0.0
  0
LINE
  5
927
330
1F
100
AcDbEntity
  8
10
100
AcDbLine
 10
42.04693993616399
 20
126.2999999999997
 30
0.0
 11
42.04693993616399
 21
127.5999999999999
 31
0.0
  0
ARC
  5
928
330
1F
100
AcDbEntity
  8
10
100
AcDbCircle
 10
39.58235558657031
 20
128.9000000000001
 30
0.0
 40
2.0
100
AcDbArc
 50
31.33225149759307
 51
90.0
  0
ARC
  5
929
330
1F
100
AcDbEntity
  8
10
100
AcDbCircle
 10
37.44693993616408
 20
129.3999999999987
 30
0.0
 40
1.5
100
AcDbArc
 50
90.0
 51
180.0
  0
ARC
  5
92A
330
1F
100
AcDbEntity
  8
10
100
AcDbCircle
 10
37.44693993616408
 20
129.3999999999987
 30
0.0
 40
1.5
100
AcDbArc
 50
0.0
 51
90.0
  0
LINE
  5
92B
330
1F
100
AcDbEntity
  8
10
100
AcDbLine
 10
35.31152428575785
 20
130.9
 30
0.0
 11
39.58235558657031
 21
130.9
 31
0.0
  0
LINE
  5
92C
330
1F
100
AcDbEntity
  8
10
100
AcDbLine
 10
32.83750373443445
 20
125.0
 30
0.0
 11
42.03750373443426
 21
125.0
 31
0.0
  0
LINE
  5
92D
330
1F
100
AcDbEntity
  8
10
100
AcDbLine
 10
42.03750373443426
 20
126.2999999999997
 30
0.0
 11
32.83750373443445
 21
126.2999999999997
 31
0.0
  0
LINE
  5
92E
330
1F
100
AcDbEntity
  8
10
100
AcDbLine
 10
32.83750373443445
 20
126.2999999999997
 30
0.0
 11
32.83750373443445
 21
125.0
 31
0.0
  0
LINE
  5
92F
330
1F
100
AcDbEntity
  8
10
100
AcDbLine
 10
42.03750373443426
 20
125.0
 30
0.0
 11
42.03750373443426
 21
126.2999999999997
 31
0.0
  0
ARC
  5
930
330
1F
100
AcDbEntity
  8
10
100
AcDbCircle
 10
51.62402055132361
 20
128.9000000000001
 30
0.0
 40
2.0
100
AcDbArc
 50
90.0
 51
148.6677485024069
  0
LINE
  5
931
330
1F
100
AcDbEntity
  8
10
100
AcDbLine
 10
49.15943620172993
 20
126.2999999999997
 30
0.0
 11
58.35943620172975
 21
126.2999999999997
 31
0.0
  0
LINE
  5
932
330
1F
100
AcDbEntity
  8
10
100
AcDbLine
 10
58.35943620172975
 20
127.5999999999999
 30
0.0
 11
49.15943620172993
 21
127.5999999999999
 31
0.0
  0
ARC
  5
933
330
1F
100
AcDbEntity
  8
10
100
AcDbCircle
 10
53.75943620172984
 20
127.5999999999999
 30
0.0
 40
4.5
100
AcDbArc
 50
148.6677485024069
 51
180.0
  0
LINE
  5
934
330
1F
100
AcDbEntity
  8
10
100
AcDbLine
 10
49.15943620172993
 20
127.5999999999999
 30
0.0
 11
49.15943620172993
 21
126.2999999999997
 31
0.0
  0
ARC
  5
935
330
1F
100
AcDbEntity
  8
10
100
AcDbCircle
 10
53.75943620172984
 20
127.5999999999999
 30
0.0
 40
4.5
100
AcDbArc
 50
0.0
 51
31.33225149759307
  0
LINE
  5
936
330
1F
100
AcDbEntity
  8
10
100
AcDbLine
 10
54.04576104563602
 20
127.5999999999999
 30
0.0
 11
55.34576104563621
 21
126.2999999999997
 31
0.0
  0
LINE
  5
937
330
1F
100
AcDbEntity
  8
10
100
AcDbLine
 10
53.75
 20
126.2999999999997
 30
0.0
 11
52.44999999999982
 21
127.5999999999999
 31
0.0
  0
LINE
  5
938
330
1F
100
AcDbEntity
  8
10
100
AcDbLine
 10
58.35943620172975
 20
126.2999999999997
 30
0.0
 11
58.35943620172975
 21
127.5999999999999
 31
0.0
  0
ARC
  5
939
330
1F
100
AcDbEntity
  8
10
100
AcDbCircle
 10
55.89485185213607
 20
128.9000000000001
 30
0.0
 40
2.0
100
AcDbArc
 50
31.33225149759307
 51
90.0
  0
ARC
  5
93A
330
1F
100
AcDbEntity
  8
10
100
AcDbCircle
 10
53.75943620172984
 20
129.3999999999987
 30
0.0
 40
1.5
100
AcDbArc
 50
90.0
 51
180.0
  0
ARC
  5
93B
330
1F
100
AcDbEntity
  8
10
100
AcDbCircle
 10
53.75943620172984
 20
129.3999999999987
 30
0.0
 40
1.5
100
AcDbArc
 50
0.0
 51
90.0
  0
LINE
  5
93C
330
1F
100
AcDbEntity
  8
10
100
AcDbLine
 10
51.62402055132361
 20
130.9
 30
0.0
 11
55.89485185213607
 21
130.9
 31
0.0
  0
LINE
  5
93D
330
1F
100
AcDbEntity
  8
10
100
AcDbLine
 10
49.15000000000009
 20
125.0
 30
0.0
 11
58.34999999999991
 21
125.0
 31
0.0
  0
LINE
  5
93E
330
1F
100
AcDbEntity
  8
10
100
AcDbLine
 10
58.34999999999991
 20
126.2999999999997
 30
0.0
 11
49.15000000000009
 21
126.2999999999997
 31
0.0
  0
LINE
  5
93F
330
1F
100
AcDbEntity
  8
10
100
AcDbLine
 10
49.15000000000009
 20
126.2999999999997
 30
0.0
 11
49.15000000000009
 21
125.0
 31
0.0
  0
LINE
  5
940
330
1F
100
AcDbEntity
  8
10
100
AcDbLine
 10
58.34999999999991
 20
125.0
 30
0.0
 11
58.34999999999991
 21
126.2999999999997
 31
0.0
  0
ARC
  5
941
330
1F
100
AcDbEntity
  8
10
100
AcDbCircle
 10
67.93651681688925
 20
128.9000000000001
 30
0.0
 40
2.0
100
AcDbArc
 50
90.0
 51
148.6677485024069
  0
LINE
  5
942
330
1F
100
AcDbEntity
  8
10
100
AcDbLine
 10
65.47193246729557
 20
126.2999999999997
 30
0.0
 11
74.6719324672955
 21
126.2999999999997
 31
0.0
  0
LINE
  5
943
330
1F
100
AcDbEntity
  8
10
100
AcDbLine
 10
74.6719324672955
 20
127.5999999999999
 30
0.0
 11
65.47193246729557
 21
127.5999999999999
 31
0.0
  0
ARC
  5
944
330
1F
100
AcDbEntity
  8
10
100
AcDbCircle
 10
70.07193246729548
 20
127.5999999999999
 30
0.0
 40
4.5
100
AcDbArc
 50
148.6677485024069
 51
180.0
  0
LINE
  5
945
330
1F
100
AcDbEntity
  8
10
100
AcDbLine
 10
65.47193246729557
 20
127.5999999999999
 30
0.0
 11
65.47193246729557
 21
126.2999999999997
 31
0.0
  0
ARC
  5
946
330
1F
100
AcDbEntity
  8
10
100
AcDbCircle
 10
70.07193246729548
 20
127.5999999999999
 30
0.0
 40
4.5
100
AcDbArc
 50
0.0
 51
31.33225149759307
  0
LINE
  5
947
330
1F
100
AcDbEntity
  8
10
100
AcDbLine
 10
70.35825731120167
 20
127.5999999999999
 30
0.0
 11
71.65825731120185
 21
126.2999999999997
 31
0.0
  0
LINE
  5
948
330
1F
100
AcDbEntity
  8
10
100
AcDbLine
 10
70.06249626556575
 20
126.2999999999997
 30
0.0
 11
68.76249626556546
 21
127.5999999999999
 31
0.0
  0
LINE
  5
949
330
1F
100
AcDbEntity
  8
10
100
AcDbLine
 10
74.6719324672955
 20
126.2999999999997
 30
0.0
 11
74.6719324672955
 21
127.5999999999999
 31
0.0
  0
ARC
  5
94A
330
1F
100
AcDbEntity
  8
10
100
AcDbCircle
 10
72.20734811770171
 20
128.9000000000001
 30
0.0
 40
2.0
100
AcDbArc
 50
31.33225149759307
 51
90.0
  0
ARC
  5
94B
330
1F
100
AcDbEntity
  8
10
100
AcDbCircle
 10
70.07193246729548
 20
129.3999999999987
 30
0.0
 40
1.5
100
AcDbArc
 50
90.0
 51
180.0
  0
ARC
  5
94C
330
1F
100
AcDbEntity
  8
10
100
AcDbCircle
 10
70.07193246729548
 20
129.3999999999987
 30
0.0
 40
1.5
100
AcDbArc
 50
0.0
 51
90.0
  0
LINE
  5
94D
330
1F
100
AcDbEntity
  8
10
100
AcDbLine
 10
67.93651681688925
 20
130.9
 30
0.0
 11
72.20734811770171
 21
130.9
 31
0.0
  0
LINE
  5
94E
330
1F
100
AcDbEntity
  8
10
100
AcDbLine
 10
65.46249626556573
 20
125.0
 30
0.0
 11
74.66249626556555
 21
125.0
 31
0.0
  0
LINE
  5
94F
330
1F
100
AcDbEntity
  8
10
100
AcDbLine
 10
74.66249626556555
 20
126.2999999999997
 30
0.0
 11
65.46249626556573
 21
126.2999999999997
 31
0.0
  0
LINE
  5
950
330
1F
100
AcDbEntity
  8
10
100
AcDbLine
 10
65.46249626556573
 20
126.2999999999997
 30
0.0
 11
65.46249626556573
 21
125.0
 31
0.0
  0
LINE
  5
951
330
1F
100
AcDbEntity
  8
10
100
AcDbLine
 10
74.66249626556555
 20
125.0
 30
0.0
 11
74.66249626556555
 21
126.2999999999997
 31
0.0
  0
ARC
  5
952
330
1F
100
AcDbEntity
  8
10
100
AcDbCircle
 10
81.70466322228241
 20
120.0999999999985
 30
0.0
 40
1.5
100
AcDbArc
 50
90.0
 51
146.6329870307554
  0
LINE
  5
953
330
1F
100
AcDbEntity
  8
10
100
AcDbLine
 10
86.8749925311314
 20
117.9999999999986
 30
0.0
 11
79.87499253113139
 21
117.9999999999986
 31
0.0
  0
LINE
  5
954
330
1F
100
AcDbEntity
  8
10
100
AcDbLine
 10
86.8749925311314
 20
119.0
 30
0.0
 11
79.87499253113139
 21
119.0
 31
0.0
  0
ARC
  5
955
330
1F
100
AcDbEntity
  8
10
100
AcDbCircle
 10
83.3749925311314
 20
119.0
 30
0.0
 40
3.5
100
AcDbArc
 50
146.632987030788
 51
180.0
  0
LINE
  5
956
330
1F
100
AcDbEntity
  8
10
100
AcDbLine
 10
79.87499253113139
 20
119.0
 30
0.0
 11
79.87499253113139
 21
117.9999999999986
 31
0.0
  0
ARC
  5
957
330
1F
100
AcDbEntity
  8
10
100
AcDbCircle
 10
83.3749925311314
 20
120.0999999999985
 30
0.0
 40
1.5
100
AcDbArc
 50
90.0
 51
180.0
  0
ARC
  5
958
330
1F
100
AcDbEntity
  8
10
100
AcDbCircle
 10
83.3749925311314
 20
119.0
 30
0.0
 40
3.5
100
AcDbArc
 50
0.0
 51
33.36701296921199
  0
ARC
  5
959
330
1F
100
AcDbEntity
  8
10
100
AcDbCircle
 10
83.3749925311314
 20
120.0999999999985
 30
0.0
 40
1.5
100
AcDbArc
 50
0.0
 51
90.0
  0
LINE
  5
95A
330
1F
100
AcDbEntity
  8
10
100
AcDbLine
 10
84.90645284598235
 20
117.9999999999986
 30
0.0
 11
83.90645284598225
 21
119.0
 31
0.0
  0
LINE
  5
95B
330
1F
100
AcDbEntity
  8
10
100
AcDbLine
 10
83.55733375413093
 20
117.9999999999986
 30
0.0
 11
82.55733375413091
 21
119.0
 31
0.0
  0
LINE
  5
95C
330
1F
100
AcDbEntity
  8
10
100
AcDbLine
 10
86.8749925311314
 20
117.9999999999986
 30
0.0
 11
86.8749925311314
 21
119.0
 31
0.0
  0
ARC
  5
95D
330
1F
100
AcDbEntity
  8
10
100
AcDbCircle
 10
85.04532183998037
 20
120.0999999999985
 30
0.0
 40
1.5
100
AcDbArc
 50
33.36701296921199
 51
90.0
  0
LINE
  5
95E
330
1F
100
AcDbEntity
  8
10
100
AcDbLine
 10
83.3749925311314
 20
121.5999999999985
 30
0.0
 11
83.3749925311314
 21
121.5999999999985
 31
0.0
  0
LINE
  5
95F
330
1F
100
AcDbEntity
  8
10
100
AcDbLine
 10
81.70466322228241
 20
121.5999999999985
 30
0.0
 11
85.04532183998037
 21
121.5999999999985
 31
0.0
  0
LINE
  5
960
330
1F
100
AcDbEntity
  8
10
100
AcDbLine
 10
86.8749925311314
 20
116.9999999999986
 30
0.0
 11
79.87499253113139
 21
116.9999999999986
 31
0.0
  0
LINE
  5
961
330
1F
100
AcDbEntity
  8
10
100
AcDbLine
 10
86.8749925311314
 20
117.9999999999986
 30
0.0
 11
79.87499253113139
 21
117.9999999999986
 31
0.0
  0
LINE
  5
962
330
1F
100
AcDbEntity
  8
10
100
AcDbLine
 10
79.87499253113139
 20
117.9999999999986
 30
0.0
 11
79.87499253113139
 21
116.9999999999986
 31
0.0
  0
LINE
  5
963
330
1F
100
AcDbEntity
  8
10
100
AcDbLine
 10
86.8749925311314
 20
116.9999999999986
 30
0.0
 11
86.8749925311314
 21
117.9999999999986
 31
0.0
  0
ARC
  5
964
330
1F
100
AcDbEntity
  8
10
100
AcDbCircle
 10
25.79533677771769
 20
120.0999999999985
 30
0.0
 40
1.5
100
AcDbArc
 50
33.3670129692445
 51
90.0
  0
LINE
  5
965
330
1F
100
AcDbEntity
  8
10
100
AcDbLine
 10
20.62500746886871
 20
117.9999999999986
 30
0.0
 11
27.62500746886871
 21
117.9999999999986
 31
0.0
  0
LINE
  5
966
330
1F
100
AcDbEntity
  8
10
100
AcDbLine
 10
20.62500746886871
 20
119.0
 30
0.0
 11
27.62500746886871
 21
119.0
 31
0.0
  0
ARC
  5
967
330
1F
100
AcDbEntity
  8
10
100
AcDbCircle
 10
24.12500746886871
 20
119.0
 30
0.0
 40
3.5
100
AcDbArc
 50
0.0
 51
33.36701296921199
  0
LINE
  5
968
330
1F
100
AcDbEntity
  8
10
100
AcDbLine
 10
27.62500746886871
 20
119.0
 30
0.0
 11
27.62500746886871
 21
117.9999999999986
 31
0.0
  0
ARC
  5
969
330
1F
100
AcDbEntity
  8
10
100
AcDbCircle
 10
24.12500746886871
 20
120.0999999999985
 30
0.0
 40
1.5
100
AcDbArc
 50
0.0
 51
90.0
  0
ARC
  5
96A
330
1F
100
AcDbEntity
  8
10
100
AcDbCircle
 10
24.12500746886871
 20
119.0
 30
0.0
 40
3.5
100
AcDbArc
 50
146.632987030788
 51
180.0
  0
ARC
  5
96B
330
1F
100
AcDbEntity
  8
10
100
AcDbCircle
 10
24.12500746886871
 20
120.0999999999985
 30
0.0
 40
1.5
100
AcDbArc
 50
90.0
 51
180.0
  0
LINE
  5
96C
330
1F
100
AcDbEntity
  8
10
100
AcDbLine
 10
22.59354715401775
 20
117.9999999999986
 30
0.0
 11
23.59354715401775
 21
119.0
 31
0.0
  0
LINE
  5
96D
330
1F
100
AcDbEntity
  8
10
100
AcDbLine
 10
23.94266624586896
 20
117.9999999999986
 30
0.0
 11
24.94266624586896
 21
119.0
 31
0.0
  0
LINE
  5
96E
330
1F
100
AcDbEntity
  8
10
100
AcDbLine
 10
20.62500746886871
 20
117.9999999999986
 30
0.0
 11
20.62500746886871
 21
119.0
 31
0.0
  0
ARC
  5
96F
330
1F
100
AcDbEntity
  8
10
100
AcDbCircle
 10
22.45467816001974
 20
120.0999999999985
 30
0.0
 40
1.5
100
AcDbArc
 50
90.0
 51
146.632987030788
  0
LINE
  5
970
330
1F
100
AcDbEntity
  8
10
100
AcDbLine
 10
24.12500746886871
 20
121.5999999999985
 30
0.0
 11
24.12500746886871
 21
121.5999999999985
 31
0.0
  0
LINE
  5
971
330
1F
100
AcDbEntity
  8
10
100
AcDbLine
 10
25.79533677771769
 20
121.5999999999985
 30
0.0
 11
22.45467816001974
 21
121.5999999999985
 31
0.0
  0
LINE
  5
972
330
1F
100
AcDbEntity
  8
10
100
AcDbLine
 10
20.62500746886871
 20
116.9999999999986
 30
0.0
 11
27.62500746886871
 21
116.9999999999986
 31
0.0
  0
LINE
  5
973
330
1F
100
AcDbEntity
  8
10
100
AcDbLine
 10
20.62500746886871
 20
117.9999999999986
 30
0.0
 11
27.62500746886871
 21
117.9999999999986
 31
0.0
  0
LINE
  5
974
330
1F
100
AcDbEntity
  8
10
100
AcDbLine
 10
27.62500746886871
 20
117.9999999999986
 30
0.0
 11
27.62500746886871
 21
116.9999999999986
 31
0.0
  0
LINE
  5
975
330
1F
100
AcDbEntity
  8
10
100
AcDbLine
 10
20.62500746886871
 20
116.9999999999986
 30
0.0
 11
20.62500746886871
 21
117.9999999999986
 31
0.0
  0
LINE
  5
978
330
1F
100
AcDbEntity
  8
10
100
AcDbLine
 10
249.6699073135125
 20
127.2499999999999
 30
0.0
 11
289.6699073135131
 21
127.2499999999999
 31
0.0
  0
LINE
  5
979
330
1F
100
AcDbEntity
  8
10
100
AcDbLine
 10
304.6699073135132
 20
112.25
 30
0.0
 11
304.6699073135134
 21
110.5764939443947
 31
0.0
  0
ARC
  5
97A
330
1F
100
AcDbEntity
  8
10
100
AcDbCircle
 10
289.6699073135132
 20
112.25
 30
0.0
 40
15.0
100
AcDbArc
 50
0.0
 51
90.0
  0
LINE
  5
97B
330
1F
100
AcDbEntity
  8
10
100
AcDbLine
 10
303.7656675349585
 20
107.7086117626395
 30
0.0
 11
294.3479246604216
 21
94.2586810483599
 31
0.0
  0
ARC
  5
97C
330
1F
100
AcDbEntity
  8
10
100
AcDbCircle
 10
299.6699073135134
 20
110.5764939443947
 30
0.0
 40
5.0
100
AcDbArc
 50
324.9999999999908
 51
0.0
  0
LINE
  5
97D
330
1F
100
AcDbEntity
  8
10
100
AcDbLine
 10
292.5394451033119
 20
88.52291668484985
 30
0.0
 11
292.5394451033119
 21
81.5
 31
0.0
  0
ARC
  5
97E
330
1F
100
AcDbEntity
  8
10
100
AcDbCircle
 10
302.5394451033116
 20
88.52291668484985
 30
0.0
 40
10.0
100
AcDbArc
 50
144.9999999999909
 51
180.0
  0
LINE
  5
97F
330
1F
100
AcDbEntity
  8
10
 48
2.0
100
AcDbLine
 10
259.6703071747017
 20
137.5
 30
0.0
 11
259.6703071747017
 21
137.0
 31
0.0
  0
LINE
  5
980
330
1F
100
AcDbEntity
  8
10
 48
2.0
100
AcDbLine
 10
194.6699073135138
 20
137.5
 30
0.0
 11
194.6699073135138
 21
137.0
 31
0.0
  0
LINE
  5
981
330
1F
100
AcDbEntity
  8
10
 48
2.0
100
AcDbLine
 10
259.6703071747014
 20
137.0
 30
0.0
 11
249.6699073135121
 21
136.9999999999986
 31
0.0
  0
LINE
  5
982
330
1F
100
AcDbEntity
  8
10
 48
2.0
100
AcDbLine
 10
208.6699073135121
 20
137.0
 30
0.0
 11
194.6699073135138
 21
137.0
 31
0.0
  0
LINE
  5
983
330
1F
100
AcDbEntity
  8
10
 48
2.0
100
AcDbLine
 10
259.6703071747014
 20
137.5
 30
0.0
 11
233.6699073135128
 21
137.5
 31
0.0
  0
LINE
  5
984
330
1F
100
AcDbEntity
  8
10
 48
2.0
100
AcDbLine
 10
224.669907313513
 20
137.5
 30
0.0
 11
213.6699073135131
 21
137.5
 31
0.0
  0
LINE
  5
985
330
1F
100
AcDbEntity
  8
10
 48
2.0
100
AcDbLine
 10
208.6699073135121
 20
137.5
 30
0.0
 11
194.6699073135138
 21
137.5
 31
0.0
  0
ARC
  5
986
330
1F
100
AcDbEntity
  8
10
100
AcDbCircle
 10
238.7761232883149
 20
120.0999999999985
 30
0.0
 40
1.5
100
AcDbArc
 50
33.3670129692445
 51
90.0
  0
LINE
  5
987
330
1F
100
AcDbEntity
  8
10
100
AcDbLine
 10
233.6057939794659
 20
117.9999999999986
 30
0.0
 11
240.6057939794659
 21
117.9999999999986
 31
0.0
  0
LINE
  5
988
330
1F
100
AcDbEntity
  8
10
100
AcDbLine
 10
233.6057939794659
 20
118.9999999999986
 30
0.0
 11
240.6057939794659
 21
118.9999999999986
 31
0.0
  0
ARC
  5
989
330
1F
100
AcDbEntity
  8
10
100
AcDbCircle
 10
237.1057939794659
 20
118.9999999999986
 30
0.0
 40
3.500000000000001
100
AcDbArc
 50
0.0
 51
33.36701296921199
  0
LINE
  5
98A
330
1F
100
AcDbEntity
  8
10
100
AcDbLine
 10
240.6057939794659
 20
118.9999999999986
 30
0.0
 11
240.6057939794659
 21
117.9999999999986
 31
0.0
  0
ARC
  5
98B
330
1F
100
AcDbEntity
  8
10
100
AcDbCircle
 10
237.1057939794659
 20
120.0999999999985
 30
0.0
 40
1.5
100
AcDbArc
 50
0.0
 51
90.0
  0
ARC
  5
98C
330
1F
100
AcDbEntity
  8
10
100
AcDbCircle
 10
237.1057939794659
 20
118.9999999999986
 30
0.0
 40
3.500000000000001
100
AcDbArc
 50
146.632987030788
 51
180.0
  0
ARC
  5
98D
330
1F
100
AcDbEntity
  8
10
100
AcDbCircle
 10
237.1057939794659
 20
120.0999999999985
 30
0.0
 40
1.5
100
AcDbArc
 50
90.0
 51
180.0
  0
LINE
  5
98E
330
1F
100
AcDbEntity
  8
10
100
AcDbLine
 10
235.574333664615
 20
117.9999999999986
 30
0.0
 11
236.5743336646149
 21
118.9999999999986
 31
0.0
  0
LINE
  5
98F
330
1F
100
AcDbEntity
  8
10
100
AcDbLine
 10
236.9234527564661
 20
117.9999999999986
 30
0.0
 11
237.9234527564662
 21
118.9999999999986
 31
0.0
  0
LINE
  5
990
330
1F
100
AcDbEntity
  8
10
100
AcDbLine
 10
233.6057939794659
 20
117.9999999999986
 30
0.0
 11
233.6057939794659
 21
118.9999999999986
 31
0.0
  0
ARC
  5
991
330
1F
100
AcDbEntity
  8
10
100
AcDbCircle
 10
235.4354646706169
 20
120.0999999999985
 30
0.0
 40
1.5
100
AcDbArc
 50
90.0
 51
146.632987030788
  0
LINE
  5
992
330
1F
100
AcDbEntity
  8
10
100
AcDbLine
 10
238.7761232883149
 20
121.5999999999985
 30
0.0
 11
235.4354646706169
 21
121.5999999999985
 31
0.0
  0
LINE
  5
993
330
1F
100
AcDbEntity
  8
10
100
AcDbLine
 10
233.6057939794659
 20
116.9999999999986
 30
0.0
 11
240.6057939794659
 21
116.9999999999986
 31
0.0
  0
LINE
  5
994
330
1F
100
AcDbEntity
  8
10
100
AcDbLine
 10
233.6057939794659
 20
117.9999999999986
 30
0.0
 11
240.6057939794659
 21
117.9999999999986
 31
0.0
  0
LINE
  5
995
330
1F
100
AcDbEntity
  8
10
100
AcDbLine
 10
240.6057939794659
 20
117.9999999999986
 30
0.0
 11
240.6057939794659
 21
116.9999999999986
 31
0.0
  0
LINE
  5
996
330
1F
100
AcDbEntity
  8
10
100
AcDbLine
 10
233.6057939794659
 20
116.9999999999986
 30
0.0
 11
233.6057939794659
 21
117.9999999999986
 31
0.0
  0
LINE
  5
997
330
1F
100
AcDbEntity
  8
10
100
AcDbLine
 10
249.6699073135121
 20
137.5
 30
0.0
 11
249.669907313513
 21
116.9999999999986
 31
0.0
  0
LINE
  5
998
330
1F
100
AcDbEntity
  8
10
100
AcDbLine
 10
208.6699073135121
 20
137.4999999999986
 30
0.0
 11
208.6699073135131
 21
116.9999999999986
 31
0.0
  0
ARC
  5
999
330
1F
100
AcDbEntity
  8
10
100
AcDbCircle
 10
210.669907313512
 20
137.4999999999986
 30
0.0
 40
2.0
100
AcDbArc
 50
90.0
 51
180.0
  0
LINE
  5
99A
330
1F
100
AcDbEntity
  8
10
100
AcDbLine
 10
247.6699073135121
 20
139.4999999999986
 30
0.0
 11
244.6699073135135
 21
139.4999999999986
 31
0.0
  0
ARC
  5
99B
330
1F
100
AcDbEntity
  8
10
100
AcDbCircle
 10
247.6699073135121
 20
137.4999999999986
 30
0.0
 40
2.0
100
AcDbArc
 50
0.0
 51
90.0
  0
LINE
  5
99C
330
1F
100
AcDbEntity
  8
10
100
AcDbLine
 10
231.6699073135129
 20
139.4999999999986
 30
0.0
 11
226.6699073135129
 21
139.4999999999986
 31
0.0
  0
ARC
  5
99D
330
1F
100
AcDbEntity
  8
10
100
AcDbCircle
 10
231.6699073135129
 20
137.4999999999986
 30
0.0
 40
2.0
100
AcDbArc
 50
0.0
 51
90.0
  0
LINE
  5
99E
330
1F
100
AcDbEntity
  8
10
100
AcDbLine
 10
213.6699073135125
 20
139.4999999999986
 30
0.0
 11
210.669907313512
 21
139.4999999999986
 31
0.0
  0
LINE
  5
99F
330
1F
100
AcDbEntity
  8
10
100
AcDbLine
 10
244.1699073135125
 20
108.9999999999986
 30
0.0
 11
214.1699073135121
 21
108.9999999999986
 31
0.0
  0
LINE
  5
9A0
330
1F
100
AcDbEntity
  8
10
100
AcDbLine
 10
244.669907313513
 20
137.0
 30
0.0
 11
233.6699073135128
 21
137.0
 31
0.0
  0
LINE
  5
9A1
330
1F
100
AcDbEntity
  8
10
100
AcDbLine
 10
224.6699073135129
 20
137.0
 30
0.0
 11
213.6699073135131
 21
137.0
 31
0.0
  0
LINE
  5
9A2
330
1F
100
AcDbEntity
  8
10
100
AcDbLine
 10
233.6699073135128
 20
137.4999999999986
 30
0.0
 11
233.6699073135124
 21
130.4999999999986
 31
0.0
  0
LINE
  5
9A3
330
1F
100
AcDbEntity
  8
10
100
AcDbLine
 10
233.6699073135124
 20
116.9999999999986
 30
0.0
 11
233.6699073135128
 21
108.9999999999986
 31
0.0
  0
LINE
  5
9A4
330
1F
100
AcDbEntity
  8
10
100
AcDbLine
 10
224.6699073135129
 20
137.4999999999986
 30
0.0
 11
224.6699073135129
 21
130.4999999999986
 31
0.0
  0
ARC
  5
9A5
330
1F
100
AcDbEntity
  8
10
100
AcDbCircle
 10
226.6699073135129
 20
137.4999999999986
 30
0.0
 40
2.0
100
AcDbArc
 50
90.0
 51
180.0
  0
LINE
  5
9A6
330
1F
100
AcDbEntity
  8
10
100
AcDbLine
 10
213.6699073135125
 20
139.4999999999986
 30
0.0
 11
213.6699073135131
 21
137.0
 31
0.0
  0
LINE
  5
9A7
330
1F
100
AcDbEntity
  8
10
100
AcDbLine
 10
214.1699073135126
 20
116.9999999999986
 30
0.0
 11
214.1699073135126
 21
108.9999999999986
 31
0.0
  0
LINE
  5
9A8
330
1F
100
AcDbEntity
  8
10
100
AcDbLine
 10
244.669907313513
 20
139.4999999999986
 30
0.0
 11
244.669907313513
 21
137.0
 31
0.0
  0
LINE
  5
9A9
330
1F
100
AcDbEntity
  8
10
100
AcDbLine
 10
244.1699073135125
 20
116.9999999999986
 30
0.0
 11
244.1699073135125
 21
108.9999999999986
 31
0.0
  0
LINE
  5
9AA
330
1F
100
AcDbEntity
  8
10
100
AcDbLine
 10
249.6699073135131
 20
116.9999999999986
 30
0.0
 11
233.6699073135124
 21
116.9999999999986
 31
0.0
  0
LINE
  5
9AB
330
1F
100
AcDbEntity
  8
10
100
AcDbLine
 10
214.1699073135126
 20
116.9999999999986
 30
0.0
 11
208.6699073135131
 21
116.9999999999986
 31
0.0
  0
LINE
  5
9AC
330
1F
100
AcDbEntity
  8
10
100
AcDbLine
 10
233.6699073135124
 20
130.4999999999986
 30
0.0
 11
224.6699073135129
 21
130.4999999999986
 31
0.0
  0
LINE
  5
9AD
330
1F
100
AcDbEntity
  8
10
100
AcDbLine
 10
239.1057939794659
 20
104.9999999999986
 30
0.0
 11
239.1057939794659
 21
107.3999999999987
 31
0.0
  0
LINE
  5
9AE
330
1F
100
AcDbEntity
  8
10
100
AcDbLine
 10
235.1057939794659
 20
107.3999999999987
 30
0.0
 11
235.1057939794659
 21
104.9999999999986
 31
0.0
  0
LINE
  5
9AF
330
1F
100
AcDbEntity
  8
10
100
AcDbLine
 10
235.1057939794659
 20
104.9999999999986
 30
0.0
 11
239.1057939794659
 21
104.9999999999986
 31
0.0
  0
VIEWPORT
  5
409
330
23
100
AcDbEntity
 67
     1
  8
0
100
AcDbViewport
 10
142.6315765380859
 20
99.1129140853882
 30
0.0
 40
314.2372683715819
 41
259.7433703258352
 68
     1
 69
     1
1001
ACAD
1000
MVIEW
1002
{
1070
    16
1010
0.0
1020
0.0
1030
0.0
1010
0.0
1020
0.0
1030
1.0
1040
0.0
1040
259.7433703258352
1040
142.6315765380859
1040
99.1129140853882
1040
50.0
1040
0.0
1040
0.0
1070
     0
1070
   100
1070
     1
1070
     1
1070
     0
1070
     0
1070
     0
1070
     0
1040
0.0
1040
0.0
1040
0.0
1040
10.0
1040
10.0
1040
10.0
1040
10.0
1070
     0
1002
{
1002
}
1002
}
  0
VIEWPORT
  5
40B
330
23
100
AcDbEntity
 67
     1
  8
0
100
AcDbViewport
 10
142.6315770149231
 20
99.11291456222535
 30
0.0
 40
228.2105232238769
 41
158.5806632995605
 68
     2
 69
     2
1001
ACAD
1000
MVIEW
1002
{
1070
    16
1010
0.0
1020
0.0
1030
0.0
1010
0.0
1020
0.0
1030
1.0
1040
0.0
1040
437.7797658097811
1040
303.2144175903108
1040
233.3590858733038
1040
50.0
1040
0.0
1040
0.0
1070
     0
1070
   100
1070
     1
1070
     3
1070
     0
1070
     0
1070
     0
1070
     0
1040
0.0
1040
0.0
1040
0.0
1040
10.0
1040
10.0
1040
10.0
1040
10.0
1070
     0
1002
{
1002
}
1002
}
  0
ENDSEC
  0
SECTION
  2
OBJECTS
  0
DICTIONARY
  5
C
330
0
100
AcDbDictionary
  3
ACAD_GROUP
350
D
  3
ACAD_LAYOUT
350
1A
  3
ACAD_MLINESTYLE
350
17
  3
ACAD_PLOTSETTINGS
350
19
  3
ACAD_PLOTSTYLENAME
350
E
  3
ACAMCATALOGSTATE
350
5BA
  3
ACASAPPOBJECT
350
53F
  3
ACASGREF_MASTER
350
587
  3
ACDBHEADERROUNDTRIPXREC
350
A75
  3
ACDBVARIABLEDICTIONARY
350
40D
  3
ACDMSYSVARMGR
350
519
  3
ACGREF_MASTER
350
513
  3
ACGREFACAD_MASTER
350
53B
  3
ACMDICTIONARY
350
5B6
  3
ACME_BOM_MANAGER_NAME
350
50C
  3
ACME_COMMAND_HISTORY
350
507
  3
ACME_SCOPE_NAME
350
506
  3
ACMESTATEMGR
350
511
  3
ACMESYSVARMANAGER
350
508
  3
ACMSYSTEMVARIABLEMANAGER
350
5C4
  3
AD_APPL
350
59E
  3
AD_GREF_MODULE
350
588
  3
AD_MAPI_MODULE
350
5A0
  3
ADSYSVARMGR
350
590
  3
AMDTNAMEDDWGMGR
350
536
  3
AMG
350
4FD
  3
AMGSNAPSETTINGS
350
5D0
  3
AMI_MASTER
350
53E
  3
ASURF_STATIC_VARS
350
540
  3
AUTOCAD_ASSEMBLIES_PROJECT
350
5AB
  3
AUTOSURF_SYSVARS
350
541
  3
DESIGNER_ASSEMBLIES_SYSVARS
350
5A2
  3
DWGPROPS
350
5B9
  3
GREFAM_MODULE
350
58A
  3
MAPISURF_MODULE
350
589
  0
DICTIONARY
  5
41
330
2
100
AcDbDictionary
280
     1
  3
ACAD_LAYERFILTERS
360
3FF
  3
ACAD_LAYERSTATES
360
42
  0
DICTIONARY
  5
438
330
1F
100
AcDbDictionary
280
     1
  3
ACAD_INDEX
360
5D7
  3
ACAD_LAYOUTSELFREF
360
A95
  0
DICTIONARY
  5
43A
330
23
100
AcDbDictionary
280
     1
  3
ACAD_LAYOUTSELFREF
360
A96
  0
DICTIONARY
  5
D
102
{ACAD_REACTORS
330
C
102
}
330
C
100
AcDbDictionary
  0
DICTIONARY
  5
1A
102
{ACAD_REACTORS
330
C
102
}
330
C
100
AcDbDictionary
  0
DICTIONARY
  5
17
102
{ACAD_REACTORS
330
C
102
}
330
C
100
AcDbDictionary
  3
STANDARD
350
18
  0
DICTIONARY
  5
19
102
{ACAD_REACTORS
330
C
102
}
330
C
100
AcDbDictionary
  0
ACDBDICTIONARYWDFLT
  5
E
102
{ACAD_REACTORS
330
C
102
}
330
C
100
AcDbDictionary
281
     1
  3
Normal
350
F
100
AcDbDictionaryWithDefault
340
F
  0
ACAD_PROXY_OBJECT
  5
5BA
102
{ACAD_REACTORS
330
C
102
}
330
C
100
AcDbProxyObject
 90
      499
 91
      574
 93
      880
310
3FFFFFFFE00A0284402B0AE2E189C9917189B1C17189719182E32B733B4B732B2B934B733AE32B733B4B732B2B934B733AE26A2A2C5E34B58AE181C1898189A2FA6A2A2AF99222FC6F6483EAE39B4B5BCBAAE232916A420A62FA422A62FA1A0A22E4728C6B641B340ADC1AF400AA00
 94
        0
1001
ACAD
1000
AcadProxyRoundTripData
1071
      565
1071
   851991
1070
     0
  0
ACAD_PROXY_OBJECT
  5
53F
102
{ACAD_REACTORS
330
C
102
}
330
C
100
AcDbProxyObject
 90
      499
 91
      574
 93
       10
310
4041
 94
        0
1001
ACAD
1000
AcadProxyRoundTripData
1071
      537
1071
   851991
1070
     0
  0
ACAD_PROXY_OBJECT
  5
587
102
{ACAD_REACTORS
330
C
102
}
330
C
100
AcDbProxyObject
 90
      499
 91
      574
 93
       34
310
010000404B
 94
        0
1001
ACAD
1000
AcadProxyRoundTripData
1071
      543
1071
   851991
1070
     0
  0
DICTIONARY
  5
A75
102
{ACAD_REACTORS
330
C
102
}
330
C
100
AcDbDictionary
  3
CEPSNTYPE
350
A7F
  3
FINGERPRINTGUID
350
A80
  3
HYPERLINKBASE
350
A78
  3
INSUNITS
350
A7E
  3
LAYOUTDICT
350
A7A
  3
LWETCUNION
350
A7D
  3
PLOTSETDICT
350
A7B
  3
PLOTSTYLNAMDICT
350
A7C
  3
PSVPSCALE
350
A82
  3
PUCSBASE
350
A85
  3
PUCSORGBACK
350
A8B
  3
PUCSORGBOTTOM
350
A87
  3
PUCSORGFRONT
350
A8A
  3
PUCSORGLEFT
350
A88
  3
PUCSORGRIGHT
350
A89
  3
PUCSORGTOP
350
A86
  3
PUCSORTHOREF
350
A83
  3
PUCSORTHOVIEW
350
A84
  3
STYLESHEET
350
A79
  3
TSTACKALIGN
350
A76
  3
TSTACKSIZE
350
A77
  3
UCSBASE
350
A8E
  3
UCSORGBACK
350
A94
  3
UCSORGBOTTOM
350
A90
  3
UCSORGFRONT
350
A93
  3
UCSORGLEFT
350
A91
  3
UCSORGRIGHT
350
A92
  3
UCSORGTOP
350
A8F
  3
UCSORTHOREF
350
A8C
  3
UCSORTHOVIEW
350
A8D
  3
VERSIONGUID
350
A81
  0
DICTIONARY
  5
40D
102
{ACAD_REACTORS
330
C
102
}
330
C
100
AcDbDictionary
  3
DIMASSOC
350
40F
  3
HIDETEXT
350
40E
  3
INDEXCTL
350
5DF
  0
ACAD_PROXY_OBJECT
  5
519
102
{ACAD_REACTORS
330
C
102
}
330
C
100
AcDbProxyObject
 90
      499
 91
      574
 93
      240
310
4C51A482000000000000000000000000000000000000000000000000000000
330
51A
330
51B
330
51C
330
51D
330
51E
330
51F
330
520
330
523
330
524
330
525
330
526
330
527
330
528
330
529
330
52A
330
52B
330
52C
330
52D
330
52E
330
52F
330
530
330
531
330
532
330
533
330
534
330
535
 94
        0
1001
ACAD
1000
AcadProxyRoundTripData
1071
      516
1071
   851991
1070
     0
  0
ACAD_PROXY_OBJECT
  5
513
102
{ACAD_REACTORS
330
C
102
}
330
C
100
AcDbProxyObject
 90
      499
 91
      574
 93
       34
310
040000428B
 94
        0
1001
ACAD
1000
AcadProxyRoundTripData
1071
      525
1071
   851991
1070
     0
  0
ACAD_PROXY_OBJECT
  5
53B
102
{ACAD_REACTORS
330
C
102
}
330
C
100
AcDbProxyObject
 90
      499
 91
      574
 93
      114
310
04000041C000000000000000000012
 94
        0
1001
ACAD
1000
AcadProxyRoundTripData
1071
      533
1071
   851991
1070
     0
  0
DICTIONARY
  5
5B6
102
{ACAD_REACTORS
330
C
102
}
330
C
100
AcDbDictionary
  3
ACMBOMDATA
350
5B7
  0
ACAD_PROXY_OBJECT
  5
50C
102
{ACAD_REACTORS
330
C
102
}
330
C
100
AcDbProxyObject
 90
      499
 91
      574
 93
       50
310
00000040400013
330
0
330
0
330
50D
 94
        0
1001
ACAD
1000
AcadProxyRoundTripData
1071
      519
1071
   851991
1070
     0
  0
ACAD_PROXY_OBJECT
  5
507
102
{ACAD_REACTORS
330
C
102
}
330
C
100
AcDbProxyObject
 90
      499
 91
      574
 93
      778
310
424050E414D4454524553455444424D4F4440805084E202D20554E444F014213880B4815539113C0507544F4F4C42415280504554E444F80504554E444F80504554E444F80504554E444F80504554E444F8050545524153458050653415645415380
 94
        0
1001
ACAD
1000
AcadProxyRoundTripData
1071
      515
1071
   851991
1070
     0
  0
ACAD_PROXY_OBJECT
  5
506
102
{ACAD_REACTORS
330
C
102
}
330
C
100
AcDbProxyObject
 90
      499
 91
      574
 93
     1242
310
06000044400000000000000000001840000400020000000000000000000000000000000000000000000000000000000000000000000000000000000000000000000000000000000000000000000000000000000000000000000000000000000000000000000000000000000000000000000000000000000000000000000000
310
00000000000000000000000000000000000000000000000000AAAAAAA1
360
509
360
50A
360
50B
360
50D
360
514
360
515
360
516
360
517
360
51A
360
51B
360
51C
360
51D
360
51E
360
51F
360
520
360
523
360
524
360
525
360
526
360
527
360
528
360
529
360
52A
360
52B
360
52C
360
52D
360
52E
360
52F
360
530
360
531
360
532
360
533
360
534
360
535
360
542
360
543
360
544
360
545
360
546
360
547
360
548
360
549
360
54A
360
54B
360
54C
360
54D
360
54E
360
54F
360
550
360
551
360
552
360
553
360
554
360
555
360
556
360
557
360
558
360
559
360
55A
360
55B
360
55C
360
55D
360
55E
360
55F
360
560
360
561
360
562
360
563
360
564
360
565
360
566
360
567
360
568
360
569
360
56A
360
56B
360
56C
360
56D
360
56E
360
56F
360
570
360
571
360
572
360
573
360
574
360
575
360
576
360
577
360
578
360
579
360
57A
360
57B
360
57C
360
57D
360
57E
360
57F
360
580
360
581
360
582
360
583
360
58C
360
58D
360
58E
360
58F
360
591
360
592
360
593
360
594
360
595
360
596
360
597
360
598
360
599
360
59A
360
59B
360
59C
360
59D
360
5A3
360
5A4
360
5A5
360
5A6
360
5A7
360
5A8
360
5A9
360
5AA
360
5AF
360
5B0
360
5B1
360
5B2
360
5B3
360
5B4
360
5C5
 94
        0
1001
ACAD
1000
AcadProxyRoundTripData
1071
      514
1071
   851991
1070
     0
  0
ACAD_PROXY_OBJECT
  5
511
102
{ACAD_REACTORS
330
C
102
}
330
C
100
AcDbProxyObject
 90
      499
 91
      574
 93
       50
310
060000416412A5
 94
        0
1001
ACAD
1000
AcadProxyRoundTripData
1071
      524
1071
   851991
1070
     0
  0
ACAD_PROXY_OBJECT
  5
508
102
{ACAD_REACTORS
330
C
102
}
330
C
100
AcDbProxyObject
 90
      499
 91
      574
 93
       48
310
90342200000011
330
509
330
50A
330
50B
 94
        0
1001
ACAD
1000
AcadProxyRoundTripData
1071
      516
1071
   851991
1070
     0
  0
ACAD_PROXY_OBJECT
  5
5C4
102
{ACAD_REACTORS
330
C
102
}
330
C
100
AcDbProxyObject
 90
      499
 91
      574
 93
       32
310
901422004B
330
5C5
 94
        0
1001
ACAD
1000
AcadProxyRoundTripData
1071
      516
1071
   851991
1070
     0
  0
ACAD_PROXY_OBJECT
  5
59E
102
{ACAD_REACTORS
330
C
102
}
330
C
100
AcDbProxyObject
 90
      499
 91
      574
 93
       42
310
0006000043C4
330
58C
 94
        0
1001
ACAD
1000
AcadProxyRoundTripData
1071
      552
1071
   851991
1070
     0
  0
ACAD_PROXY_OBJECT
  5
588
102
{ACAD_REACTORS
330
C
102
}
330
C
100
AcDbProxyObject
 90
      499
 91
      574
 93
      114
310
000000438000000000000000000026
 94
        0
1001
ACAD
1000
AcadProxyRoundTripData
1071
      544
1071
   851991
1070
     0
  0
ACAD_PROXY_OBJECT
  5
5A0
102
{ACAD_REACTORS
330
C
102
}
330
C
100
AcDbProxyObject
 90
      499
 91
      574
 93
       34
310
05000044CB
 94
        0
1001
ACAD
1000
AcadProxyRoundTripData
1071
      554
1071
   851991
1070
     0
  0
ACAD_PROXY_OBJECT
  5
590
102
{ACAD_REACTORS
330
C
102
}
330
C
100
AcDbProxyObject
 90
      499
 91
      574
 93
      128
310
90D4420000000000000000000000000054
330
591
330
592
330
593
330
594
330
595
330
596
330
597
330
598
330
599
330
59A
330
59B
330
59C
330
59D
 94
        0
1001
ACAD
1000
AcadProxyRoundTripData
1071
      516
1071
   851991
1070
     0
  0
ACAD_PROXY_OBJECT
  5
536
102
{ACAD_REACTORS
330
C
102
}
330
C
100
AcDbProxyObject
 90
      499
 91
      574
 93
       42
310
000100005AC4
330
514
 94
        0
1001
ACAD
1000
AcadProxyRoundTripData
1071
      530
1071
   851991
1070
     0
  0
DICTIONARY
  5
4FD
102
{ACAD_REACTORS
330
C
102
}
330
C
100
AcDbDictionary
  3
ACMGSETTINGS
350
4FE
  3
AMGLAYCFG
350
5C3
  0
DICTIONARY
  5
5D0
102
{ACAD_REACTORS
330
C
102
}
330
C
100
AcDbDictionary
  3
DIMENSION
350
5D5
  3
FEA
350
5D4
  3
HATCH__1_
350
5D1
  3
HATCH__2_
350
5D2
  3
SIMPLE_WELD
350
5D6
  3
SYMBOLS
350
5D3
  0
ACAD_PROXY_OBJECT
  5
53E
102
{ACAD_REACTORS
330
C
102
}
330
C
100
AcDbProxyObject
 90
      499
 91
      574
 93
       34
310
050000428B
 94
        0
1001
ACAD
1000
AcadProxyRoundTripData
1071
      536
1071
   851991
1070
     0
  0
ACAD_PROXY_OBJECT
  5
540
102
{ACAD_REACTORS
330
C
102
}
330
C
100
AcDbProxyObject
 90
      499
 91
      574
 93
      424
310
585315020000000000000000000000000000000000000000000000000000000000000000000000000000000000000000000000000075
330
553
330
554
330
555
330
556
330
557
330
558
330
559
330
55A
330
55B
330
55C
330
55D
330
55E
330
55F
330
560
330
561
330
562
330
563
330
564
330
565
330
566
330
567
330
568
330
569
330
56A
330
56B
330
56C
330
56D
330
56E
330
56F
330
570
330
571
330
572
330
573
330
574
330
575
330
576
330
577
330
578
330
579
330
57A
330
57B
330
57C
330
57D
330
57E
330
57F
330
580
330
581
330
582
330
583
 94
        0
1001
ACAD
1000
AcadProxyRoundTripData
1071
      538
1071
   851991
1070
     0
  0
ACAD_PROXY_OBJECT
  5
5AB
102
{ACAD_REACTORS
330
C
102
}
330
C
100
AcDbProxyObject
 90
      499
 91
      574
 93
       74
310
0600004A400000000013
330
5B2
330
0
330
5B3
330
0
330
0
 94
        0
1001
ACAD
1000
AcadProxyRoundTripData
1071
      556
1071
   851991
1070
     0
  0
ACAD_PROXY_OBJECT
  5
541
102
{ACAD_REACTORS
330
C
102
}
330
C
100
AcDbProxyObject
 90
      499
 91
      574
 93
      168
310
4C511482000000000000000000000000000000000004
330
542
330
543
330
544
330
545
330
546
330
547
330
548
330
549
330
54A
330
54B
330
54C
330
54D
330
54E
330
54F
330
550
330
551
330
552
 94
        0
1001
ACAD
1000
AcadProxyRoundTripData
1071
      516
1071
   851991
1070
     0
  0
ACAD_PROXY_OBJECT
  5
5A2
102
{ACAD_REACTORS
330
C
102
}
330
C
100
AcDbProxyObject
 90
      499
 91
      574
 93
       88
310
90842200000000000000006F
330
5A3
330
5A4
330
5A5
330
5A6
330
5A7
330
5A8
330
5A9
330
5AA
 94
        0
1001
ACAD
1000
AcadProxyRoundTripData
1071
      516
1071
   851991
1070
     0
  0
XRECORD
  5
5B9
102
{ACAD_REACTORS
330
C
102
}
330
C
100
AcDbXrecord
  1
DWGPROPS COOKIE
  2

  3

  4

  6

  7

  8

  9

300
AmdtFileType=84
301
=
302
=
303
=
304
=
305
=
306
=
307
=
308
=
309
=
 40
0.005163125
 41
2454596.550355717
 42
2454596.675773645
  1

 90
        1
  0
ACAD_PROXY_OBJECT
  5
58A
102
{ACAD_REACTORS
330
C
102
}
330
C
100
AcDbProxyObject
 90
      499
 91
      574
 93
        8
310
0504
 94
        0
1001
ACAD
1000
AcadProxyRoundTripData
1071
      546
1071
   851991
1070
     0
  0
ACAD_PROXY_OBJECT
  5
589
102
{ACAD_REACTORS
330
C
102
}
330
C
100
AcDbProxyObject
 90
      499
 91
      574
 93
        8
310
0404
 94
        0
1001
ACAD
1000
AcadProxyRoundTripData
1071
      545
1071
   851991
1070
     0
  0
DICTIONARY
  5
3FF
102
{ACAD_REACTORS
330
41
102
}
330
41
100
AcDbDictionary
280
     1
  0
DICTIONARY
  5
42
102
{ACAD_REACTORS
330
41
102
}
330
41
100
AcDbDictionary
  0
DICTIONARY
  5
5D7
102
{ACAD_REACTORS
330
438
102
}
330
438
100
AcDbDictionary
  3
*A1
350
5D8
  0
XRECORD
  5
A95
102
{ACAD_REACTORS
330
438
102
}
330
438
100
AcDbXrecord
340
1F
  0
XRECORD
  5
A96
102
{ACAD_REACTORS
330
43A
102
}
330
43A
100
AcDbXrecord
340
23
  0
MLINESTYLE
  5
18
102
{ACAD_REACTORS
330
17
102
}
330
17
100
AcDbMlineStyle
  2
STANDARD
 70
     0
  3

 62
   256
 51
90.0
 52
90.0
 71
     2
 49
0.5
 62
   256
  6
BYLAYER
 49
-0.5
 62
   256
  6
BYLAYER
  0
ACDBPLACEHOLDER
  5
F
102
{ACAD_REACTORS
330
E
102
}
330
E
100
AcDbPlaceHolder
280
     0
  0
XRECORD
  5
A7F
102
{ACAD_REACTORS
330
A75
102
}
330
A75
100
AcDbXrecord
 90
        0
  0
XRECORD
  5
A80
102
{ACAD_REACTORS
330
A75
102
}
330
A75
100
AcDbXrecord
  1
{025C7157-5529-449E-A239-D8CA396FD83B}
  0
XRECORD
  5
A78
102
{ACAD_REACTORS
330
A75
102
}
330
A75
100
AcDbXrecord
  1

  0
XRECORD
  5
A7E
102
{ACAD_REACTORS
330
A75
102
}
330
A75
100
AcDbXrecord
 90
        4
  0
XRECORD
  5
A7A
102
{ACAD_REACTORS
330
A75
102
}
330
A75
100
AcDbXrecord
340
1A
  0
XRECORD
  5
A7D
102
{ACAD_REACTORS
330
A75
102
}
330
A75
100
AcDbXrecord
 90
    10781
  0
XRECORD
  5
A7B
102
{ACAD_REACTORS
330
A75
102
}
330
A75
100
AcDbXrecord
340
19
  0
XRECORD
  5
A7C
102
{ACAD_REACTORS
330
A75
102
}
330
A75
100
AcDbXrecord
340
E
  0
XRECORD
  5
A82
102
{ACAD_REACTORS
330
A75
102
}
330
A75
100
AcDbXrecord
 40
0.0
  0
XRECORD
  5
A85
102
{ACAD_REACTORS
330
A75
102
}
330
A75
100
AcDbXrecord
340
0
  0
XRECORD
  5
A8B
102
{ACAD_REACTORS
330
A75
102
}
330
A75
100
AcDbXrecord
 10
0.0
 20
0.0
 30
0.0
  0
XRECORD
  5
A87
102
{ACAD_REACTORS
330
A75
102
}
330
A75
100
AcDbXrecord
 10
0.0
 20
0.0
 30
0.0
  0
XRECORD
  5
A8A
102
{ACAD_REACTORS
330
A75
102
}
330
A75
100
AcDbXrecord
 10
0.0
 20
0.0
 30
0.0
  0
XRECORD
  5
A88
102
{ACAD_REACTORS
330
A75
102
}
330
A75
100
AcDbXrecord
 10
0.0
 20
0.0
 30
0.0
  0
XRECORD
  5
A89
102
{ACAD_REACTORS
330
A75
102
}
330
A75
100
AcDbXrecord
 10
0.0
 20
0.0
 30
0.0
  0
XRECORD
  5
A86
102
{ACAD_REACTORS
330
A75
102
}
330
A75
100
AcDbXrecord
 10
0.0
 20
0.0
 30
0.0
  0
XRECORD
  5
A83
102
{ACAD_REACTORS
330
A75
102
}
330
A75
100
AcDbXrecord
340
0
  0
XRECORD
  5
A84
102
{ACAD_REACTORS
330
A75
102
}
330
A75
100
AcDbXrecord
 70
     0
  0
XRECORD
  5
A79
102
{ACAD_REACTORS
330
A75
102
}
330
A75
100
AcDbXrecord
  1

  0
XRECORD
  5
A76
102
{ACAD_REACTORS
330
A75
102
}
330
A75
100
AcDbXrecord
 90
        1
  0
XRECORD
  5
A77
102
{ACAD_REACTORS
330
A75
102
}
330
A75
100
AcDbXrecord
 90
       70
  0
XRECORD
  5
A8E
102
{ACAD_REACTORS
330
A75
102
}
330
A75
100
AcDbXrecord
340
0
  0
XRECORD
  5
A94
102
{ACAD_REACTORS
330
A75
102
}
330
A75
100
AcDbXrecord
 10
0.0
 20
0.0
 30
0.0
  0
XRECORD
  5
A90
102
{ACAD_REACTORS
330
A75
102
}
330
A75
100
AcDbXrecord
 10
0.0
 20
0.0
 30
0.0
  0
XRECORD
  5
A93
102
{ACAD_REACTORS
330
A75
102
}
330
A75
100
AcDbXrecord
 10
0.0
 20
0.0
 30
0.0
  0
XRECORD
  5
A91
102
{ACAD_REACTORS
330
A75
102
}
330
A75
100
AcDbXrecord
 10
0.0
 20
0.0
 30
0.0
  0
XRECORD
  5
A92
102
{ACAD_REACTORS
330
A75
102
}
330
A75
100
AcDbXrecord
 10
0.0
 20
0.0
 30
0.0
  0
XRECORD
  5
A8F
102
{ACAD_REACTORS
330
A75
102
}
330
A75
100
AcDbXrecord
 10
0.0
 20
0.0
 30
0.0
  0
XRECORD
  5
A8C
102
{ACAD_REACTORS
330
A75
102
}
330
A75
100
AcDbXrecord
340
0
  0
XRECORD
  5
A8D
102
{ACAD_REACTORS
330
A75
102
}
330
A75
100
AcDbXrecord
 70
     0
  0
XRECORD
  5
A81
102
{ACAD_REACTORS
330
A75
102
}
330
A75
100
AcDbXrecord
  1
{CAC2C76A-0805-49C5-8890-BDC70BAF55DA}
  0
DICTIONARYVAR
  5
40F
102
{ACAD_REACTORS
330
40D
102
}
330
40D
100
DictionaryVariables
280
     0
  1
2
  0
DICTIONARYVAR
  5
40E
102
{ACAD_REACTORS
330
40D
102
}
330
40D
100
DictionaryVariables
280
     0
  1
1
  0
DICTIONARYVAR
  5
5DF
102
{ACAD_REACTORS
330
40D
102
}
330
40D
100
DictionaryVariables
280
     0
  1
1
  0
ACAD_PROXY_OBJECT
  5
5B7
102
{ACAD_REACTORS
330
5B6
102
}
330
5B6
100
AcDbProxyObject
 90
      499
 91
      574
 93
      118
310
405010040CA904C415CD5B07571028
350
5B8
 94
        0
1001
ACAD
1000
AcadProxyRoundTripData
1071
      563
1071
   851991
1070
     0
  0
ACAD_PROXY_OBJECT
  5
509
330
0
100
AcDbProxyObject
 90
      499
 91
      574
 93
      156
310
00010143D050D351505391D5531054925390D495
330
506
 94
        0
1001
ACAD
1000
AcadProxyRoundTripData
1071
      517
1071
   851991
1070
     0
  0
ACAD_PROXY_OBJECT
  5
50A
330
0
100
AcDbProxyObject
 90
      499
 91
      574
 93
      148
310
000101439050D351531253915054925390D494
330
506
 94
        0
1001
ACAD
1000
AcadProxyRoundTripData
1071
      517
1071
   851991
1070
     0
  0
ACAD_PROXY_OBJECT
  5
50B
330
0
100
AcDbProxyObject
 90
      499
 91
      574
 93
      156
310
000101439050D35154D6535093D314D256915085
330
506
 94
        0
1001
ACAD
1000
AcadProxyRoundTripData
1071
      518
1071
   851991
1070
     0
  0
ACAD_PROXY_OBJECT
  5
50D
330
0
100
AcDbProxyObject
 90
      499
 91
      574
 93
      120
310
000101422565255A6557080C402B00DD
330
506
330
0
330
0
 94
        0
1001
ACAD
1000
AcadProxyRoundTripData
1071
      520
1071
   851991
1070
     0
  0
ACAD_PROXY_OBJECT
  5
514
330
0
100
AcDbProxyObject
 90
      499
 91
      574
 93
      358
310
0001014124FEA55D00507362E332E302E31014124FEA55D00507362E332E302E3140501000041505391D311658
330
506
330
515
330
519
 94
        0
1001
ACAD
1000
AcadProxyRoundTripData
1071
      526
1071
   851991
1070
     0
  0
ACAD_PROXY_OBJECT
  5
515
330
0
100
AcDbProxyObject
 90
      499
 91
      574
 93
       48
310
00019014220011
330
506
330
516
 94
        0
1001
ACAD
1000
AcadProxyRoundTripData
1071
      527
1071
   851991
1070
     0
  0
ACAD_PROXY_OBJECT
  5
516
330
0
100
AcDbProxyObject
 90
      499
 91
      574
 93
       48
310
0001AA00000011
330
506
330
4F8
330
517
330
0
 94
        0
1001
ACAD
1000
AcadProxyRoundTripData
1071
      528
1071
   851991
1070
     0
  0
ACAD_PROXY_OBJECT
  5
517
330
0
100
AcDbProxyObject
 90
      499
 91
      574
 93
       28
310
0001AAAE
330
506
 94
        0
1001
ACAD
1000
AcadProxyRoundTripData
1071
      529
1071
   851991
1070
     0
  0
ACAD_PROXY_OBJECT
  5
51A
330
0
100
AcDbProxyObject
 90
      499
 91
      574
 93
      108
310
000101421053521310D05310D010
330
506
 94
        0
1001
ACAD
1000
AcadProxyRoundTripData
1071
      518
1071
   851991
1070
     0
  0
ACAD_PROXY_OBJECT
  5
51B
330
0
100
AcDbProxyObject
 90
      499
 91
      574
 93
      124
310
00010142905354915554D15112535010
330
506
 94
        0
1001
ACAD
1000
AcadProxyRoundTripData
1071
      518
1071
   851991
1070
     0
  0
ACAD_PROXY_OBJECT
  5
51C
330
0
100
AcDbProxyObject
 90
      499
 91
      574
 93
      132
310
00010143105354D150D51253D391125360
330
506
 94
        0
1001
ACAD
1000
AcadProxyRoundTripData
1071
      518
1071
   851991
1070
     0
  0
ACAD_PROXY_OBJECT
  5
51D
330
0
100
AcDbProxyObject
 90
      499
 91
      574
 93
      124
310
00010142905355941093D49111549013
330
506
 94
        0
1001
ACAD
1000
AcadProxyRoundTripData
1071
      518
1071
   851991
1070
     0
  0
ACAD_PROXY_OBJECT
  5
51E
330
0
100
AcDbProxyObject
 90
      499
 91
      574
 93
      116
310
0001014290535115D1D0D3D313D4A0
330
506
 94
        0
1001
ACAD
1000
AcadProxyRoundTripData
1071
      518
1071
   851991
1070
     0
  0
ACAD_PROXY_OBJECT
  5
51F
330
0
100
AcDbProxyObject
 90
      499
 91
      574
 93
      148
310
00010143505355925155D49151949154D21010
330
506
 94
        0
1001
ACAD
1000
AcadProxyRoundTripData
1071
      518
1071
   851991
1070
     0
  0
ACAD_PROXY_OBJECT
  5
520
330
0
100
AcDbProxyObject
 90
      499
 91
      574
 93
      172
310
00010144105350539393D51154149154D15495915010
330
506
 94
        0
1001
ACAD
1000
AcadProxyRoundTripData
1071
      518
1071
   851991
1070
     0
  0
ACAD_PROXY_OBJECT
  5
523
330
0
100
AcDbProxyObject
 90
      499
 91
      574
 93
      172
310
00010144105350555513D11253505494905391D15010
330
506
 94
        0
1001
ACAD
1000
AcadProxyRoundTripData
1071
      518
1071
   851991
1070
     0
  0
ACAD_PROXY_OBJECT
  5
524
330
0
100
AcDbProxyObject
 90
      499
 91
      574
 93
      124
310
00010142D05351561514915191125364
330
506
 94
        0
1001
ACAD
1000
AcadProxyRoundTripData
1071
      518
1071
   851991
1070
     0
  0
ACAD_PROXY_OBJECT
  5
525
330
0
100
AcDbProxyObject
 90
      499
 91
      574
 93
      132
310
00010142D05355105410539393D5115010
330
506
 94
        0
1001
ACAD
1000
AcadProxyRoundTripData
1071
      518
1071
   851991
1070
     0
  0
ACAD_PROXY_OBJECT
  5
526
330
0
100
AcDbProxyObject
 90
      499
 91
      574
 93
      108
310
00010142105350555513D0D31015
330
506
 94
        0
1001
ACAD
1000
AcadProxyRoundTripData
1071
      518
1071
   851991
1070
     0
  0
ACAD_PROXY_OBJECT
  5
527
330
0
100
AcDbProxyObject
 90
      499
 91
      574
 93
      108
310
00010142105350D3119150551055
330
506
 94
        0
1001
ACAD
1000
AcadProxyRoundTripData
1071
      518
1071
   851991
1070
     0
  0
ACAD_PROXY_OBJECT
  5
528
330
0
100
AcDbProxyObject
 90
      499
 91
      574
 93
      108
310
00010142105350D315925155D3F5
330
506
 94
        0
1001
ACAD
1000
AcadProxyRoundTripData
1071
      518
1071
   851991
1070
     0
  0
ACAD_PROXY_OBJECT
  5
529
330
0
100
AcDbProxyObject
 90
      499
 91
      574
 93
      148
310
0001014350535212511156915493D112535011
330
506
 94
        0
1001
ACAD
1000
AcadProxyRoundTripData
1071
      518
1071
   851991
1070
     0
  0
ACAD_PROXY_OBJECT
  5
52A
330
0
100
AcDbProxyObject
 90
      499
 91
      574
 93
      124
310
00010142905352105510D21254D3D012
330
506
 94
        0
1001
ACAD
1000
AcadProxyRoundTripData
1071
      518
1071
   851991
1070
     0
  0
ACAD_PROXY_OBJECT
  5
52B
330
0
100
AcDbProxyObject
 90
      499
 91
      574
 93
      148
310
00010143905354D25391D31152105513105661
330
506
 94
        0
1001
ACAD
1000
AcadProxyRoundTripData
1071
      518
1071
   851991
1070
     0
  0
ACAD_PROXY_OBJECT
  5
52C
330
0
100
AcDbProxyObject
 90
      499
 91
      574
 93
      124
310
00010142D0535115D1D193111254D423
330
506
 94
        0
1001
ACAD
1000
AcadProxyRoundTripData
1071
      518
1071
   851991
1070
     0
  0
ACAD_PROXY_OBJECT
  5
52D
330
0
100
AcDbProxyObject
 90
      499
 91
      574
 93
      100
310
00010142105350555513D213A2
330
506
 94
        0
1001
ACAD
1000
AcadProxyRoundTripData
1071
      518
1071
   851991
1070
     0
  0
ACAD_PROXY_OBJECT
  5
52E
330
0
100
AcDbProxyObject
 90
      499
 91
      574
 93
      116
310
000101425053521390D3D553951014
330
506
 94
        0
1001
ACAD
1000
AcadProxyRoundTripData
1071
      518
1071
   851991
1070
     0
  0
ACAD_PROXY_OBJECT
  5
52F
330
0
100
AcDbProxyObject
 90
      499
 91
      574
 93
      108
310
0001014210535213941493D29010
330
506
 94
        0
1001
ACAD
1000
AcadProxyRoundTripData
1071
      518
1071
   851991
1070
     0
  0
ACAD_PROXY_OBJECT
  5
530
330
0
100
AcDbProxyObject
 90
      499
 91
      574
 93
      108
310
0001014210535213951654115070
330
506
 94
        0
1001
ACAD
1000
AcadProxyRoundTripData
1071
      518
1071
   851991
1070
     0
  0
ACAD_PROXY_OBJECT
  5
531
330
0
100
AcDbProxyObject
 90
      499
 91
      574
 93
      108
310
000101421053521395925155D0F0
330
506
 94
        0
1001
ACAD
1000
AcadProxyRoundTripData
1071
      518
1071
   851991
1070
     0
  0
ACAD_PROXY_OBJECT
  5
532
330
0
100
AcDbProxyObject
 90
      499
 91
      574
 93
      140
310
00010143505354D150D51253D390D3D41666
330
506
 94
        0
1001
ACAD
1000
AcadProxyRoundTripData
1071
      518
1071
   851991
1070
     0
  0
ACAD_PROXY_OBJECT
  5
533
330
0
100
AcDbProxyObject
 90
      499
 91
      574
 93
      108
310
00010142105350D3141493D29030
330
506
 94
        0
1001
ACAD
1000
AcadProxyRoundTripData
1071
      518
1071
   851991
1070
     0
  0
ACAD_PROXY_OBJECT
  5
534
330
0
100
AcDbProxyObject
 90
      499
 91
      574
 93
      212
310
00010143905350555513D2105510D21493D500000000000002E400
330
506
 94
        0
1001
ACAD
1000
AcadProxyRoundTripData
1071
      517
1071
   851991
1070
     0
  0
ACAD_PROXY_OBJECT
  5
535
330
0
100
AcDbProxyObject
 90
      499
 91
      574
 93
      156
310
00010143905350555513D2105510D21111551010
330
506
 94
        0
1001
ACAD
1000
AcadProxyRoundTripData
1071
      518
1071
   851991
1070
     0
  0
ACAD_PROXY_OBJECT
  5
542
330
0
100
AcDbProxyObject
 90
      499
 91
      574
 93
      116
310
000101425053541051D15311539190
330
506
 94
        0
1001
ACAD
1000
AcadProxyRoundTripData
1071
      518
1071
   851991
1070
     0
  0
ACAD_PROXY_OBJECT
  5
543
330
0
100
AcDbProxyObject
 90
      499
 91
      574
 93
      108
310
000101421053555312539154D051
330
506
 94
        0
1001
ACAD
1000
AcadProxyRoundTripData
1071
      518
1071
   851991
1070
     0
  0
ACAD_PROXY_OBJECT
  5
544
330
0
100
AcDbProxyObject
 90
      499
 91
      574
 93
      108
310
000101421053559312539154D031
330
506
 94
        0
1001
ACAD
1000
AcadProxyRoundTripData
1071
      518
1071
   851991
1070
     0
  0
ACAD_PROXY_OBJECT
  5
545
330
0
100
AcDbProxyObject
 90
      499
 91
      574
 93
      140
310
00010143105354D1911254D41353D1115010
330
506
 94
        0
1001
ACAD
1000
AcadProxyRoundTripData
1071
      518
1071
   851991
1070
     0
  0
ACAD_PROXY_OBJECT
  5
546
330
0
100
AcDbProxyObject
 90
      499
 91
      574
 93
      172
310
00010142505354119255105391C1C052DC9A6F104400
330
506
 94
        0
1001
ACAD
1000
AcadProxyRoundTripData
1071
      517
1071
   851991
1070
     0
  0
ACAD_PROXY_OBJECT
  5
547
330
0
100
AcDbProxyObject
 90
      499
 91
      574
 93
      164
310
000101421053559150D05551C000000000000E03F4
330
506
 94
        0
1001
ACAD
1000
AcadProxyRoundTripData
1071
      517
1071
   851991
1070
     0
  0
ACAD_PROXY_OBJECT
  5
548
330
0
100
AcDbProxyObject
 90
      499
 91
      574
 93
      180
310
00010142905350931153911513D307B14AE47E17A843F0
330
506
 94
        0
1001
ACAD
1000
AcadProxyRoundTripData
1071
      517
1071
   851991
1070
     0
  0
ACAD_PROXY_OBJECT
  5
549
330
0
100
AcDbProxyObject
 90
      499
 91
      574
 93
      172
310
0001014250535293D25391D05407B14AE47E17A843F3
330
506
 94
        0
1001
ACAD
1000
AcadProxyRoundTripData
1071
      517
1071
   851991
1070
     0
  0
ACAD_PROXY_OBJECT
  5
54A
330
0
100
AcDbProxyObject
 90
      499
 91
      574
 93
      172
310
000101425053541192551311538000000FC83D797413
330
506
 94
        0
1001
ACAD
1000
AcadProxyRoundTripData
1071
      517
1071
   851991
1070
     0
  0
ACAD_PROXY_OBJECT
  5
54B
330
0
100
AcDbProxyObject
 90
      499
 91
      574
 93
      156
310
00010141D053559150D4D18000000000000E03F9
330
506
 94
        0
1001
ACAD
1000
AcadProxyRoundTripData
1071
      517
1071
   851991
1070
     0
  0
ACAD_PROXY_OBJECT
  5
54C
330
0
100
AcDbProxyObject
 90
      499
 91
      574
 93
      156
310
00010141D05354D19513D309A9999999999993F9
330
506
 94
        0
1001
ACAD
1000
AcadProxyRoundTripData
1071
      517
1071
   851991
1070
     0
  0
ACAD_PROXY_OBJECT
  5
54D
330
0
100
AcDbProxyObject
 90
      499
 91
      574
 93
      172
310
000101425053541192551513D307B14AE47E17A843F3
330
506
 94
        0
1001
ACAD
1000
AcadProxyRoundTripData
1071
      517
1071
   851991
1070
     0
  0
ACAD_PROXY_OBJECT
  5
54E
330
0
100
AcDbProxyObject
 90
      499
 91
      574
 93
      188
310
00010142D05354D151D192551513D307B14AE47E17A843F0
330
506
 94
        0
1001
ACAD
1000
AcadProxyRoundTripData
1071
      517
1071
   851991
1070
     0
  0
ACAD_PROXY_OBJECT
  5
54F
330
0
100
AcDbProxyObject
 90
      499
 91
      574
 93
      148
310
000101419053541311538000000FC83D797414
330
506
 94
        0
1001
ACAD
1000
AcadProxyRoundTripData
1071
      517
1071
   851991
1070
     0
  0
ACAD_PROXY_OBJECT
  5
550
330
0
100
AcDbProxyObject
 90
      499
 91
      574
 93
      172
310
00010142505354105391D513D301C052DC9A6F104408
330
506
 94
        0
1001
ACAD
1000
AcadProxyRoundTripData
1071
      517
1071
   851991
1070
     0
  0
ACAD_PROXY_OBJECT
  5
551
330
0
100
AcDbProxyObject
 90
      499
 91
      574
 93
      132
310
0001014114D2569140000000000002440C
330
506
 94
        0
1001
ACAD
1000
AcadProxyRoundTripData
1071
      517
1071
   851991
1070
     0
  0
ACAD_PROXY_OBJECT
  5
552
330
0
100
AcDbProxyObject
 90
      499
 91
      574
 93
      156
310
00010142905351D4941491519256005034153470
330
506
 94
        0
1001
ACAD
1000
AcadProxyRoundTripData
1071
      539
1071
   851991
1070
     0
  0
ACAD_PROXY_OBJECT
  5
553
330
0
100
AcDbProxyObject
 90
      499
 91
      574
 93
      314
310
00014080509646973745363616C650000000000003C2FC000000000000F0BF0000003F20F5E5D040
330
506
 94
        0
1001
ACAD
1000
AcadProxyRoundTripData
1071
      540
1071
   851991
1070
     0
  0
ACAD_PROXY_OBJECT
  5
554
330
0
100
AcDbProxyObject
 90
      499
 91
      574
 93
      322
310
0001408050A65646175526F74617465060B51153EC87E4FC182D4454FB2119C0060B51153EC8465000
330
506
 94
        0
1001
ACAD
1000
AcadProxyRoundTripData
1071
      540
1071
   851991
1070
     0
  0
ACAD_PROXY_OBJECT
  5
555
330
0
100
AcDbProxyObject
 90
      499
 91
      574
 93
      314
310
00014080509656461755477697374060B51153EC846500000000FC83D797C10000003F20F5E5D050
330
506
 94
        0
1001
ACAD
1000
AcadProxyRoundTripData
1071
      540
1071
   851991
1070
     0
  0
ACAD_PROXY_OBJECT
  5
556
330
0
100
AcDbProxyObject
 90
      499
 91
      574
 93
      294
310
000140C050A656467654F75747075740144F3B7F635ECB74A140A4817D41BDB1E5B1A5B995
330
506
 94
        0
1001
ACAD
1000
AcadProxyRoundTripData
1071
      541
1071
   851991
1070
     0
  0
ACAD_PROXY_OBJECT
  5
557
330
0
100
AcDbProxyObject
 90
      499
 91
      574
 93
      154
310
0001404050B6564697450726576696577406407F
330
506
 94
        0
1001
ACAD
1000
AcadProxyRoundTripData
1071
      542
1071
   851991
1070
     0
  0
ACAD_PROXY_OBJECT
  5
558
330
0
100
AcDbProxyObject
 90
      499
 91
      574
 93
      170
310
0001404050A666C6F77556C696E657342A3A00C0001E
330
506
 94
        0
1001
ACAD
1000
AcadProxyRoundTripData
1071
      542
1071
   851991
1070
     0
  0
ACAD_PROXY_OBJECT
  5
559
330
0
100
AcDbProxyObject
 90
      499
 91
      574
 93
      170
310
0001404050A666C6F77566C696E657342A3A00C0001E
330
506
 94
        0
1001
ACAD
1000
AcadProxyRoundTripData
1071
      542
1071
   851991
1070
     0
  0
ACAD_PROXY_OBJECT
  5
55A
330
0
100
AcDbProxyObject
 90
      499
 91
      574
 93
      322
310
0001408050A666C7366456E645261640000000000003C2FC000000000000F0BF0000003F20F5E5D040
330
506
 94
        0
1001
ACAD
1000
AcadProxyRoundTripData
1071
      540
1071
   851991
1070
     0
  0
ACAD_PROXY_OBJECT
  5
55B
330
0
100
AcDbProxyObject
 90
      499
 91
      574
 93
      246
310
000140C05086A6E33644D6F64650143E3BA24EB8A134A4817D3585B9D585B0
330
506
 94
        0
1001
ACAD
1000
AcadProxyRoundTripData
1071
      541
1071
   851991
1070
     0
  0
ACAD_PROXY_OBJECT
  5
55C
330
0
100
AcDbProxyObject
 90
      499
 91
      574
 93
      294
310
000140C050A6A6E33644F75747075740144F3B7F635ECB74A140A4817D41BDB1E5B1A5B994
330
506
 94
        0
1001
ACAD
1000
AcadProxyRoundTripData
1071
      541
1071
   851991
1070
     0
  0
ACAD_PROXY_OBJECT
  5
55D
330
0
100
AcDbProxyObject
 90
      499
 91
      574
 93
      306
310
000140805086C656E675065726300000000002016D002D431CEBE2361A3F0000003F20F5E5D065
330
506
 94
        0
1001
ACAD
1000
AcadProxyRoundTripData
1071
      540
1071
   851991
1070
     0
  0
ACAD_PROXY_OBJECT
  5
55E
330
0
100
AcDbProxyObject
 90
      499
 91
      574
 93
      266
310
0001408050B6D61737344656E7369747942D431CEBE2361A3F0000003F20F5E5D07F
330
506
 94
        0
1001
ACAD
1000
AcadProxyRoundTripData
1071
      540
1071
   851991
1070
     0
  0
ACAD_PROXY_OBJECT
  5
55F
330
0
100
AcDbProxyObject
 90
      499
 91
      574
 93
      186
310
000140805096D617373546869636BA0000003F20F5E5D05A
330
506
 94
        0
1001
ACAD
1000
AcadProxyRoundTripData
1071
      540
1071
   851991
1070
     0
  0
ACAD_PROXY_OBJECT
  5
560
330
0
100
AcDbProxyObject
 90
      499
 91
      574
 93
      230
310
000140C05086D6173735479706501436F2AB64A14CA4817D4DA195B1B3
330
506
 94
        0
1001
ACAD
1000
AcadProxyRoundTripData
1071
      541
1071
   851991
1070
     0
  0
ACAD_PROXY_OBJECT
  5
561
330
0
100
AcDbProxyObject
 90
      499
 91
      574
 93
      242
310
000140805086F667366446973744000000FC83D797C10000003F20F5E5D075
330
506
 94
        0
1001
ACAD
1000
AcadProxyRoundTripData
1071
      540
1071
   851991
1070
     0
  0
ACAD_PROXY_OBJECT
  5
562
330
0
100
AcDbProxyObject
 90
      499
 91
      574
 93
      258
310
0001408050A7072696D52616469757342D431CEBE2361A3F0000003F20F5E5D050
330
506
 94
        0
1001
ACAD
1000
AcadProxyRoundTripData
1071
      540
1071
   851991
1070
     0
  0
ACAD_PROXY_OBJECT
  5
563
330
0
100
AcDbProxyObject
 90
      499
 91
      574
 93
      194
310
0001408050A7072696D546F70526164A0000003F20F5E5D040
330
506
 94
        0
1001
ACAD
1000
AcadProxyRoundTripData
1071
      540
1071
   851991
1070
     0
  0
ACAD_PROXY_OBJECT
  5
564
330
0
100
AcDbProxyObject
 90
      499
 91
      574
 93
      266
310
0001408050B7072696D5475626552616442D431CEBE2361A3F0000003F20F5E5D07F
330
506
 94
        0
1001
ACAD
1000
AcadProxyRoundTripData
1071
      540
1071
   851991
1070
     0
  0
ACAD_PROXY_OBJECT
  5
565
330
0
100
AcDbProxyObject
 90
      499
 91
      574
 93
      258
310
0001408050A7072696D4865696768744000000FC83D797C10000003F20F5E5D050
330
506
 94
        0
1001
ACAD
1000
AcadProxyRoundTripData
1071
      540
1071
   851991
1070
     0
  0
ACAD_PROXY_OBJECT
  5
566
330
0
100
AcDbProxyObject
 90
      499
 91
      574
 93
      250
310
000140805097072696D5374416E678182D4454FB2119C0060B51153EC8465010
330
506
 94
        0
1001
ACAD
1000
AcadProxyRoundTripData
1071
      540
1071
   851991
1070
     0
  0
ACAD_PROXY_OBJECT
  5
567
330
0
100
AcDbProxyObject
 90
      499
 91
      574
 93
      322
310
0001408050A7072696D456E64416E67060B51153EC846500182D4454FB2119C0060B51153EC8465000
330
506
 94
        0
1001
ACAD
1000
AcadProxyRoundTripData
1071
      540
1071
   851991
1070
     0
  0
ACAD_PROXY_OBJECT
  5
568
330
0
100
AcDbProxyObject
 90
      499
 91
      574
 93
      242
310
000140805087265765374416E678182D4454FB2119C0060B51153EC8465019
330
506
 94
        0
1001
ACAD
1000
AcadProxyRoundTripData
1071
      540
1071
   851991
1070
     0
  0
ACAD_PROXY_OBJECT
  5
569
330
0
100
AcDbProxyObject
 90
      499
 91
      574
 93
      314
310
00014080509726576456E64416E67060B51153EC846500182D4454FB2119C0060B51153EC8465010
330
506
 94
        0
1001
ACAD
1000
AcadProxyRoundTripData
1071
      540
1071
   851991
1070
     0
  0
ACAD_PROXY_OBJECT
  5
56A
330
0
100
AcDbProxyObject
 90
      499
 91
      574
 93
      194
310
0001404050C7266736655706174636865734290139C0C0002D
330
506
 94
        0
1001
ACAD
1000
AcadProxyRoundTripData
1071
      542
1071
   851991
1070
     0
  0
ACAD_PROXY_OBJECT
  5
56B
330
0
100
AcDbProxyObject
 90
      499
 91
      574
 93
      194
310
0001404050C7266736656706174636865734290139C0C0002D
330
506
 94
        0
1001
ACAD
1000
AcadProxyRoundTripData
1071
      542
1071
   851991
1070
     0
  0
ACAD_PROXY_OBJECT
  5
56C
330
0
100
AcDbProxyObject
 90
      499
 91
      574
 93
      246
310
000140C0508747562654D6F64650143E3BA24EB8A134A4817D3585B9D585B0
330
506
 94
        0
1001
ACAD
1000
AcadProxyRoundTripData
1071
      541
1071
   851991
1070
     0
  0
ACAD_PROXY_OBJECT
  5
56D
330
0
100
AcDbProxyObject
 90
      499
 91
      574
 93
      274
310
0001408050C747562654469616D6574657242D431CEBE2361A3F0000003F20F5E5D055
330
506
 94
        0
1001
ACAD
1000
AcadProxyRoundTripData
1071
      540
1071
   851991
1070
     0
  0
ACAD_PROXY_OBJECT
  5
56E
330
0
100
AcDbProxyObject
 90
      499
 91
      574
 93
      130
310
00014040509696E746572506F6C79A4057
330
506
 94
        0
1001
ACAD
1000
AcadProxyRoundTripData
1071
      542
1071
   851991
1070
     0
  0
ACAD_PROXY_OBJECT
  5
56F
330
0
100
AcDbProxyObject
 90
      499
 91
      574
 93
      162
310
0001404050D696E746572417567506F696E74A405C
330
506
 94
        0
1001
ACAD
1000
AcadProxyRoundTripData
1071
      542
1071
   851991
1070
     0
  0
ACAD_PROXY_OBJECT
  5
570
330
0
100
AcDbProxyObject
 90
      499
 91
      574
 93
      238
310
000140C0509696E7465727472696D014365EF257ECA108A4817D09BDD1A3
330
506
 94
        0
1001
ACAD
1000
AcadProxyRoundTripData
1071
      541
1071
   851991
1070
     0
  0
ACAD_PROXY_OBJECT
  5
571
330
0
100
AcDbProxyObject
 90
      499
 91
      574
 93
      230
310
000140C0509696E7465727479706501433136344A150A4817D51C9A5B5
330
506
 94
        0
1001
ACAD
1000
AcadProxyRoundTripData
1071
      541
1071
   851991
1070
     0
  0
ACAD_PROXY_OBJECT
  5
572
330
0
100
AcDbProxyObject
 90
      499
 91
      574
 93
      146
310
0001404050A636F726E65727472696D4064063
330
506
 94
        0
1001
ACAD
1000
AcadProxyRoundTripData
1071
      542
1071
   851991
1070
     0
  0
ACAD_PROXY_OBJECT
  5
573
330
0
100
AcDbProxyObject
 90
      499
 91
      574
 93
      130
310
000140405086F6673666B6565704064046
330
506
 94
        0
1001
ACAD
1000
AcadProxyRoundTripData
1071
      542
1071
   851991
1070
     0
  0
ACAD_PROXY_OBJECT
  5
574
330
0
100
AcDbProxyObject
 90
      499
 91
      574
 93
      146
310
0001404050A70726F6A4F757470757440A40E3
330
506
 94
        0
1001
ACAD
1000
AcadProxyRoundTripData
1071
      542
1071
   851991
1070
     0
  0
ACAD_PROXY_OBJECT
  5
575
330
0
100
AcDbProxyObject
 90
      499
 91
      574
 93
      270
310
000140C050D70726F6A446972656374696F6E014372F7AB6C0A124A4817DD92595DC
330
506
 94
        0
1001
ACAD
1000
AcadProxyRoundTripData
1071
      541
1071
   851991
1070
     0
  0
ACAD_PROXY_OBJECT
  5
576
330
0
100
AcDbProxyObject
 90
      499
 91
      574
 93
      130
310
0001404050870726F6A4B6565704064056
330
506
 94
        0
1001
ACAD
1000
AcadProxyRoundTripData
1071
      542
1071
   851991
1070
     0
  0
ACAD_PROXY_OBJECT
  5
577
330
0
100
AcDbProxyObject
 90
      499
 91
      574
 93
      278
310
000140C050B70726F6A53706163696E670144237164D2CA13CA4817D3DC1D1A5B585B1
330
506
 94
        0
1001
ACAD
1000
AcadProxyRoundTripData
1071
      541
1071
   851991
1070
     0
  0
ACAD_PROXY_OBJECT
  5
578
330
0
100
AcDbProxyObject
 90
      499
 91
      574
 93
      250
310
0001408050970726F6A54617065728182D4454FB21F9BF060B51153EC87E4FE5
330
506
 94
        0
1001
ACAD
1000
AcadProxyRoundTripData
1071
      540
1071
   851991
1070
     0
  0
ACAD_PROXY_OBJECT
  5
579
330
0
100
AcDbProxyObject
 90
      499
 91
      574
 93
      130
310
00014040508647261674B656570406406D
330
506
 94
        0
1001
ACAD
1000
AcadProxyRoundTripData
1071
      542
1071
   851991
1070
     0
  0
ACAD_PROXY_OBJECT
  5
57A
330
0
100
AcDbProxyObject
 90
      499
 91
      574
 93
      302
310
000140C050F647261674F7269656E746174696F6E0143E590243F0A138A4817D39BDC9B585B2
330
506
 94
        0
1001
ACAD
1000
AcadProxyRoundTripData
1071
      541
1071
   851991
1070
     0
  0
ACAD_PROXY_OBJECT
  5
57B
330
0
100
AcDbProxyObject
 90
      499
 91
      574
 93
      286
310
000140C050E647261675472616E736974696F6E0143A3B6A4DE0A10CA4817DCD0D85B195
330
506
 94
        0
1001
ACAD
1000
AcadProxyRoundTripData
1071
      541
1071
   851991
1070
     0
  0
ACAD_PROXY_OBJECT
  5
57C
330
0
100
AcDbProxyObject
 90
      499
 91
      574
 93
      318
310
000140C051061646A757374436F6E74696E7569747901442F746C2F778A14CA4817D4DB5BDBDD1A0
330
506
 94
        0
1001
ACAD
1000
AcadProxyRoundTripData
1071
      541
1071
   851991
1070
     0
  0
ACAD_PROXY_OBJECT
  5
57D
330
0
100
AcDbProxyObject
 90
      499
 91
      574
 93
      138
310
0001404050A61646A7573744B656570A4067
330
506
 94
        0
1001
ACAD
1000
AcadProxyRoundTripData
1071
      542
1071
   851991
1070
     0
  0
ACAD_PROXY_OBJECT
  5
57E
330
0
100
AcDbProxyObject
 90
      499
 91
      574
 93
      250
310
0001408050972756C65576964746842D431CEBE2361A3F0000003F20F5E5D064
330
506
 94
        0
1001
ACAD
1000
AcadProxyRoundTripData
1071
      540
1071
   851991
1070
     0
  0
ACAD_PROXY_OBJECT
  5
57F
330
0
100
AcDbProxyObject
 90
      499
 91
      574
 93
      274
310
0001408050C616E616C797A65447261667421D139D28615ED8FE060B51153EC842500D
330
506
 94
        0
1001
ACAD
1000
AcadProxyRoundTripData
1071
      540
1071
   851991
1070
     0
  0
ACAD_PROXY_OBJECT
  5
580
330
0
100
AcDbProxyObject
 90
      499
 91
      574
 93
      210
310
0001404050F616E616C797A654E756D4C696E65734163FDFC00006
330
506
 94
        0
1001
ACAD
1000
AcadProxyRoundTripData
1071
      542
1071
   851991
1070
     0
  0
ACAD_PROXY_OBJECT
  5
581
330
0
100
AcDbProxyObject
 90
      499
 91
      574
 93
      202
310
00014040512616E616C797A65526F746174654C696E6573A4040
330
506
 94
        0
1001
ACAD
1000
AcadProxyRoundTripData
1071
      542
1071
   851991
1070
     0
  0
ACAD_PROXY_OBJECT
  5
582
330
0
100
AcDbProxyObject
 90
      499
 91
      574
 93
      210
310
00014040513616E616C797A65446973706C61794C696E6573A4046
330
506
 94
        0
1001
ACAD
1000
AcadProxyRoundTripData
1071
      542
1071
   851991
1070
     0
  0
ACAD_PROXY_OBJECT
  5
583
330
0
100
AcDbProxyObject
 90
      499
 91
      574
 93
      258
310
00014040519616E616C797A655472616E736C7563656E7453757266616365A4042
330
506
 94
        0
1001
ACAD
1000
AcadProxyRoundTripData
1071
      542
1071
   851991
1070
     0
  0
ACAD_PROXY_OBJECT
  5
58C
330
0
100
AcDbProxyObject
 90
      499
 91
      574
 93
      698
310
0001000000009AA6A9AA4051E4D6F6E204F63742031332030303A33373A353920323030382028555443290141CD8B8D0B8C0B8C405184D6F6E204F63742031332030393A34313A333120323030380141CD8B8D0B8C0B8C74
330
506
330
58D
330
58E
330
590
330
0
 94
        0
1001
ACAD
1000
AcadProxyRoundTripData
1071
      548
1071
   851991
1070
     0
  0
ACAD_PROXY_OBJECT
  5
58D
330
0
100
AcDbProxyObject
 90
      499
 91
      574
 93
       70
310
0001AAA80820000001
330
506
330
58D
330
58D
 94
        0
1001
ACAD
1000
AcadProxyRoundTripData
1071
      549
1071
   851991
1070
     0
  0
ACAD_PROXY_OBJECT
  5
58E
330
0
100
AcDbProxyObject
 90
      499
 91
      574
 93
       48
310
00010000000011
330
506
330
0
330
58F
330
0
330
0
 94
        0
1001
ACAD
1000
AcadProxyRoundTripData
1071
      550
1071
   851991
1070
     0
  0
ACAD_PROXY_OBJECT
  5
58F
330
0
100
AcDbProxyObject
 90
      499
 91
      574
 93
       40
310
000100AAAA04
330
506
330
0
 94
        0
1001
ACAD
1000
AcadProxyRoundTripData
1071
      551
1071
   851991
1070
     0
  0
ACAD_PROXY_OBJECT
  5
591
330
0
100
AcDbProxyObject
 90
      499
 91
      574
 93
      124
310
00010142905350D3D39114D414D69050
330
506
 94
        0
1001
ACAD
1000
AcadProxyRoundTripData
1071
      518
1071
   851991
1070
     0
  0
ACAD_PROXY_OBJECT
  5
592
330
0
100
AcDbProxyObject
 90
      499
 91
      574
 93
      124
310
000101429053549553115353D1115010
330
506
 94
        0
1001
ACAD
1000
AcadProxyRoundTripData
1071
      518
1071
   851991
1070
     0
  0
ACAD_PROXY_OBJECT
  5
593
330
0
100
AcDbProxyObject
 90
      499
 91
      574
 93
      108
310
00010142105354D2D353D1115011
330
506
 94
        0
1001
ACAD
1000
AcadProxyRoundTripData
1071
      518
1071
   851991
1070
     0
  0
ACAD_PROXY_OBJECT
  5
594
330
0
100
AcDbProxyObject
 90
      499
 91
      574
 93
      140
310
000101435053511253511254D41353D11166
330
506
 94
        0
1001
ACAD
1000
AcadProxyRoundTripData
1071
      518
1071
   851991
1070
     0
  0
ACAD_PROXY_OBJECT
  5
595
330
0
100
AcDbProxyObject
 90
      499
 91
      574
 93
      180
310
00010142905354D2D05391D513D3000000000000010402
330
506
 94
        0
1001
ACAD
1000
AcadProxyRoundTripData
1071
      517
1071
   851991
1070
     0
  0
ACAD_PROXY_OBJECT
  5
596
330
0
100
AcDbProxyObject
 90
      499
 91
      574
 93
      164
310
00010142505354D2D4D516531140505434F4E542A1
330
506
 94
        0
1001
ACAD
1000
AcadProxyRoundTripData
1071
      539
1071
   851991
1070
     0
  0
ACAD_PROXY_OBJECT
  5
597
330
0
100
AcDbProxyObject
 90
      499
 91
      574
 93
      108
310
00010142105350D3511112535010
330
506
 94
        0
1001
ACAD
1000
AcadProxyRoundTripData
1071
      518
1071
   851991
1070
     0
  0
ACAD_PROXY_OBJECT
  5
598
330
0
100
AcDbProxyObject
 90
      499
 91
      574
 93
      108
310
00010142105350D3D35414D59010
330
506
 94
        0
1001
ACAD
1000
AcadProxyRoundTripData
1071
      518
1071
   851991
1070
     0
  0
ACAD_PROXY_OBJECT
  5
599
330
0
100
AcDbProxyObject
 90
      499
 91
      574
 93
      164
310
0001014290535410549514D4119600504CADFB0C21
330
506
 94
        0
1001
ACAD
1000
AcadProxyRoundTripData
1071
      539
1071
   851991
1070
     0
  0
ACAD_PROXY_OBJECT
  5
59A
330
0
100
AcDbProxyObject
 90
      499
 91
      574
 93
      220
310
0001014350535513D3D31093D11654119600508C2B0D9CEDEC3DEA83
330
506
 94
        0
1001
ACAD
1000
AcadProxyRoundTripData
1071
      539
1071
   851991
1070
     0
  0
ACAD_PROXY_OBJECT
  5
59B
330
0
100
AcDbProxyObject
 90
      499
 91
      574
 93
      116
310
000101425053511254D410D3D39014
330
506
 94
        0
1001
ACAD
1000
AcadProxyRoundTripData
1071
      518
1071
   851991
1070
     0
  0
ACAD_PROXY_OBJECT
  5
59C
330
0
100
AcDbProxyObject
 90
      499
 91
      574
 93
      108
310
00010142105350D3D39114D41010
330
506
 94
        0
1001
ACAD
1000
AcadProxyRoundTripData
1071
      518
1071
   851991
1070
     0
  0
ACAD_PROXY_OBJECT
  5
59D
330
0
100
AcDbProxyObject
 90
      499
 91
      574
 93
      124
310
0001014290535490511114D414D69191
330
506
 94
        0
1001
ACAD
1000
AcadProxyRoundTripData
1071
      518
1071
   851991
1070
     0
  0
ACAD_PROXY_OBJECT
  5
5A3
330
0
100
AcDbProxyObject
 90
      499
 91
      574
 93
      132
310
00010142D05050555513D4D3D315915016
330
506
 94
        0
1001
ACAD
1000
AcadProxyRoundTripData
1071
      518
1071
   851991
1070
     0
  0
ACAD_PROXY_OBJECT
  5
5A4
330
0
100
AcDbProxyObject
 90
      499
 91
      574
 93
      156
310
00010143905050555513D054D4D153509311501C
330
506
 94
        0
1001
ACAD
1000
AcadProxyRoundTripData
1071
      518
1071
   851991
1070
     0
  0
ACAD_PROXY_OBJECT
  5
5A5
330
0
100
AcDbProxyObject
 90
      499
 91
      574
 93
      148
310
00010143505055925155D49154D513D4915010
330
506
 94
        0
1001
ACAD
1000
AcadProxyRoundTripData
1071
      518
1071
   851991
1070
     0
  0
ACAD_PROXY_OBJECT
  5
5A6
330
0
100
AcDbProxyObject
 90
      499
 91
      574
 93
      124
310
00010142D050525394D15495105094E4
330
506
 94
        0
1001
ACAD
1000
AcadProxyRoundTripData
1071
      518
1071
   851991
1070
     0
  0
ACAD_PROXY_OBJECT
  5
5A7
330
0
100
AcDbProxyObject
 90
      499
 91
      574
 93
      148
310
00010143505054D0D153915554111055115010
330
506
 94
        0
1001
ACAD
1000
AcadProxyRoundTripData
1071
      518
1071
   851991
1070
     0
  0
ACAD_PROXY_OBJECT
  5
5A8
330
0
100
AcDbProxyObject
 90
      499
 91
      574
 93
      172
310
00010143105054D5509054D4D354119600503535542D
330
506
 94
        0
1001
ACAD
1000
AcadProxyRoundTripData
1071
      539
1071
   851991
1070
     0
  0
ACAD_PROXY_OBJECT
  5
5A9
330
0
100
AcDbProxyObject
 90
      499
 91
      574
 93
      172
310
00010142905054D0D15391541196005055343454E45D
330
506
 94
        0
1001
ACAD
1000
AcadProxyRoundTripData
1071
      539
1071
   851991
1070
     0
  0
ACAD_PROXY_OBJECT
  5
5AA
330
0
100
AcDbProxyObject
 90
      499
 91
      574
 93
      148
310
00010143505350555513D313D0D2D4D0D39014
330
506
 94
        0
1001
ACAD
1000
AcadProxyRoundTripData
1071
      518
1071
   851991
1070
     0
  0
ACAD_PROXY_OBJECT
  5
5AF
330
0
100
AcDbProxyObject
 90
      499
 91
      574
 93
       32
310
000100004A
330
506
340
5AC
330
5B1
330
5AC
 94
        0
1001
ACAD
1000
AcadProxyRoundTripData
1071
      557
1071
   851991
1070
     0
  0
ACAD_PROXY_OBJECT
  5
5B0
330
0
100
AcDbProxyObject
 90
      499
 91
      574
 93
       18
310
000188
330
506
 94
        0
1001
ACAD
1000
AcadProxyRoundTripData
1071
      558
1071
   851991
1070
     0
  0
ACAD_PROXY_OBJECT
  5
5B1
330
0
100
AcDbProxyObject
 90
      499
 91
      574
 93
      111
310
0001014150D5930C0D5050055400
330
506
330
5AF
330
5B0
 94
        0
1001
ACAD
1000
AcadProxyRoundTripData
1071
      559
1071
   851991
1070
     0
  0
ACAD_PROXY_OBJECT
  5
5B2
330
0
100
AcDbProxyObject
 90
      499
 91
      574
 93
       40
310
000100AAAA04
330
506
330
5B1
 94
        0
1001
ACAD
1000
AcadProxyRoundTripData
1071
      560
1071
   851991
1070
     0
  0
ACAD_PROXY_OBJECT
  5
5B3
330
0
100
AcDbProxyObject
 90
      499
 91
      574
 93
      108
310
0001901422000000000000AAAAA0
330
506
330
5B4
330
5B4
330
5B4
330
5B4
330
5B4
330
0
 94
        0
1001
ACAD
1000
AcadProxyRoundTripData
1071
      561
1071
   851991
1070
     0
  0
ACAD_PROXY_OBJECT
  5
5B4
330
0
100
AcDbProxyObject
 90
      499
 91
      574
 93
       51
310
00010000AAAA80
330
506
330
5B3
330
5B1
 94
        0
1001
ACAD
1000
AcadProxyRoundTripData
1071
      562
1071
   851991
1070
     0
  0
ACAD_PROXY_OBJECT
  5
5C5
330
0
100
AcDbProxyObject
 90
      499
 91
      574
 93
      140
310
00010142105350D55494D5110050349534F4
330
506
 94
        0
1001
ACAD
1000
AcadProxyRoundTripData
1071
      539
1071
   851991
1070
     0
  0
DICTIONARY
  5
4FE
102
{ACAD_REACTORS
330
4FD
102
}
330
4FD
100
AcDbDictionary
  3
DWGSETTINGS
350
4FF
  0
ACAD_PROXY_OBJECT
  5
5C3
102
{ACAD_REACTORS
330
4FD
102
}
330
4FD
100
AcDbProxyObject
 90
      499
 91
      574
 93
    12938
310
41102491013041105357CC1074CA404C504414D5F31439329013241105357CC9054CA404CD04414D5F33419199013441105357CD103466404D504414D5F3540D199013641105357CD90248E404DD04414D5F37411199013841105357CE101466404E504414D5F397F641102324141505357CC4C1074CA408D10505414D5F31
310
3140D19902495041505357CC4C9074C902408C13905414D5F304E41D32902314E41505357CC5390E4CA408C93905414D5F324E41532902334E41505357CCD3906466408D13905414D5F344E40D19902354E41505357CD53903466408D93905414D5F364E40923902374E41505357CDD3904466408E13905414D5F384E40519
310
902394E41505357CE539FD90440CC9053906414D5F31304E41D3290334414E41905357CC4C5390346640D25413906414D5F31324E41D32409044B4C494E41505357D0D3101465094112539193D08414D5F50415245464111942D055241484D3541905357D093D49074C9094115925155D08414D5F56494557534051942D064
310
24548494E4441905357D253959FD90D415514905253105414D5F545240D194250348494441905357D212511074650940D59254D06414D5F56495341D324250650415244494D42505357D410549112535034650941949151911253509414D5F52454644494D4111942553411092139590139CFFFFFFFF415092139594D06424
310
548494E44CFFFFFFFF411093D48C9055241484D3540519411093D48CD055241484D3540923411093D48D5055241484D35CFFFFFFFF4110D0530C90134CFFFFFFFF4110D0530CD0134409234110D0530D5013441D324110D0530DD0134479464110D1539390137CFFFFFFFF4110D15395D0137CFFFFFFFF4110D312539044B4
310
C494ECFFFFFFFF4110D3D38C50130CFFFFFFFF4110D3D38C90131CFFFFFFFF4110D3D38CD0132CFFFFFFFF4110D3D38D10132CFFFFFFFF411111551050134CFFFFFFFF4111125051D0135CFFFFFFFF411112531250135CFFFFFFFF411112535410650415244494DCFFFFFFFF411112535490652454644494DCFFFFFFFF4111
310
91535390138CFFFFFFFF4151915354139013840CFFFFFFFF4151915354D41023441CFFFFFFFF4151915354D5102344140D1941519153559390132CFFFFFFFF4151915355951013240D194112105510D0138CFFFFFFFF411212511390133CFFFFFFFF4112125115D0133CFFFFFFFF411213125390134CFFFFFFFF411213D0D3
310
90137CFFFFFFFF411213D0D5D0137CFFFFFFFF4112539193D04494E464FCFFFFFFFF411311505110135CFFFFFFFF419397D0921395902394ECFFFFFFFF419397D0D3D38C502304ECFFFFFFFF419397D0D3D38C902314ECFFFFFFFF419397D0D3D38CD02324ECFFFFFFFF419397D0D3D38D102324ECFFFFFFFF419397D0D153
310
93902374ECFFFFFFFF419397D0D15395D02374ECFFFFFFFF419397D1125312502354ECFFFFFFFF419397D2105510D02384ECFFFFFFFF419397D2125113902334ECFFFFFFFF419397D2125115D02334ECFFFFFFFF419397D3115051102354ECFFFFFFFF419397D391D25410349504ECFFFFFFFF419397D412105390334414EC
310
FFFFFFFF419397D510D3D3902304ECFFFFFFFF419397D5121312502344ECFFFFFFFF419397D5131153902304ECFFFFFFFF419397D594131250332414ECFFFFFFFF411391D2541024950CFFFFFFFF411410530C9055241484D3540519411410530CD055241484D3540923411410530D5055241484D35CFFFFFFFF4114121053
310
9023441CFFFFFFFF411413D4D390135CFFFFFFFF411490D1D390137CFFFFFFFF411490D1D5D0137CFFFFFFFF4114D09492D0134CFFFFFFFF4114D150D510134CFFFFFFFF4114D6508CD013540923411354D6535013540923411510D3D390130CFFFFFFFF411512131250134CFFFFFFFF411512550C9055241484D354051941
310
1512550CD055241484D3540923411512550D5055241484D35CFFFFFFFF411513115390130CFFFFFFFF415514905253105545241494CCFFFFFFFF411514931250134CFFFFFFFF411516150C5013640D19411516150C9013640D19411516150CD0136CFFFFFFFF411516150D5013641D32411516150DD0136479464115925155
310
D0456494557CFFFFFFFF4115915112103484944CFFFFFFFF4115915115903564953CFFFFFFFF41159413125023241CFFFFFFFF411692569050134CFFFFFFFFAA9FD404FE4290E4C9074C906465054C904465034650248D014651E519FDBF
340
16
340
16
340
16
340
5C6
340
16
340
16
340
16
340
5C7
340
16
340
16
340
5C7
340
5C8
340
16
340
16
340
16
340
16
340
5C6
340
16
340
16
340
16
340
5C7
340
16
340
16
340
5C7
340
5C8
340
16
340
5C9
340
16
340
16
340
16
340
16
340
16
340
5C6
340
16
340
16
340
16
340
15
340
15
340
15
340
15
340
15
340
15
340
15
340
15
340
15
340
5CA
340
15
340
15
340
15
340
15
340
15
340
15
340
15
340
15
340
15
340
15
340
15
340
15
340
15
340
16
340
15
340
15
340
15
340
15
340
5CB
340
15
340
15
340
5CA
340
15
340
15
340
15
340
15
340
15
340
15
340
15
340
15
340
5CA
340
15
340
15
340
15
340
5CB
340
15
340
15
340
15
340
15
340
15
340
15
340
15
340
15
340
15
340
15
340
15
340
15
340
15
340
15
340
5CA
340
15
340
15
340
15
340
15
340
15
340
15
340
15
340
15
340
15
340
15
340
15
340
15
340
15
340
15
340
15
340
15
340
15
340
15
340
15
340
15
340
15
340
15
340
5CE
 94
        0
1001
ACAD
1000
AcadProxyRoundTripData
1071
      570
1071
   851991
1070
     0
  0
ACAD_PROXY_OBJECT
  5
5D5
102
{ACAD_REACTORS
330
5D0
102
}
330
5D0
100
AcDbProxyObject
 90
      499
 91
      574
 93
      253
310
43D1444494D454E53494F4E2C414D44545F2A5F44494D404A9012A404A9012AC
 94
        0
1001
ACAD
1000
AcadProxyRoundTripData
1071
      571
1071
   851991
1070
     0
  0
ACAD_PROXY_OBJECT
  5
5D4
102
{ACAD_REACTORS
330
5D0
102
}
330
5D0
100
AcDbProxyObject
 90
      499
 91
      574
 93
      181
310
43D012A42D05357D191504B505357CA9012A404A9012AC
 94
        0
1001
ACAD
1000
AcadProxyRoundTripData
1071
      571
1071
   851991
1070
     0
  0
ACAD_PROXY_OBJECT
  5
5D1
102
{ACAD_REACTORS
330
5D0
102
}
330
5D0
100
AcDbProxyObject
 90
      499
 91
      574
 93
      133
310
43D054841544348404A9012A404A9012AC
 94
        0
1001
ACAD
1000
AcadProxyRoundTripData
1071
      571
1071
   851991
1070
     0
  0
ACAD_PROXY_OBJECT
  5
5D2
102
{ACAD_REACTORS
330
5D0
102
}
330
5D0
100
AcDbProxyObject
 90
      499
 91
      574
 93
      549
310
43D044C494E4549CE0B0E138B0A8B4E0B0A8B4E138B105357CE0B105357CE138B0A8B505357CE0B0A8B505357CE139012A404A910494E534552542C5354445041525432449
 94
        0
1001
ACAD
1000
AcadProxyRoundTripData
1071
      571
1071
   851991
1070
     0
  0
ACAD_PROXY_OBJECT
  5
5D6
102
{ACAD_REACTORS
330
5D0
102
}
330
5D0
100
AcDbProxyObject
 90
      499
 91
      574
 93
      181
310
43D0341524341105357CD5012A404C906494E534552544
 94
        0
1001
ACAD
1000
AcadProxyRoundTripData
1071
      571
1071
   851991
1070
     0
  0
ACAD_PROXY_OBJECT
  5
5D3
102
{ACAD_REACTORS
330
5D0
102
}
330
5D0
100
AcDbProxyObject
 90
      499
 91
      574
 93
     1053
310
43D7841434D46434652414D452C41434D444154554D5441524745542C41434D444154554D49442C41434D57454C4453594D2C41434D5355524653594D2C41434D4645415449442C41434D504152545245462C41434D42414C4C4F4F4E2C414D44544544474553594D2C414D47534352455743414C435441424C45404A9012A
310
404A9012AA
 94
        0
1001
ACAD
1000
AcadProxyRoundTripData
1071
      571
1071
   851991
1070
     0
  0
LAYER_INDEX
  5
5D8
102
{ACAD_REACTORS
330
5D7
102
}
330
5D7
100
AcDbIndex
 40
2454756.567402696
100
AcDbLayerIndex
  8
0
360
5D9
 90
        0
  8
10
360
5DA
 90
      347
  8
12
360
5DB
 90
       12
  8
16
360
5DC
 90
        2
  8
19
360
5DD
 90
        1
  8
DEFPOINTS
360
A73
 90
        0
  0
ACAD_PROXY_OBJECT
  5
5B8
102
{ACAD_REACTORS
330
5B7
102
}
330
5B7
100
AcDbProxyObject
 90
      499
 91
      574
 93
      187
310
057356C1D5C406406AA8FFFFFFFF0AE50543564C3035404D
330
1F
330
0
330
5B1
 94
        0
1001
ACAD
1000
AcadProxyRoundTripData
1071
      564
1071
   851991
1070
     0
  0
ACAD_PROXY_OBJECT
  5
4FF
102
{ACAD_REACTORS
330
4FE
102
}
330
4FE
100
AcDbProxyObject
 90
      499
 91
      574
 93
     2270
310
4050B44574753455454494E4753A1286829C8E82A4A482B282A106660F8686AF86C608321A2A720A723A0A849A1ABE1C983E18999AA0C868A9C889282940000000000000488083A1A2A72224A0A9A0A8418983E19183E199820E868A9C8892A6A894000000000000010808321A2A72622A7250000000000000122020C868A9
310
C9E8C8C940000000000000488084A1A624A720A92920ACA0A8418983E19183E19982108698929C8AA8B2A082A0AB098929C8A84A22BA3AAA9A1A0A622A50A0E9882A6A89E849482A02608426A0A5A2AB24A2ABA7E8120CA0A68682988A0C00800010652455649534941501304154D0D0531150540CC4E8C50954494D455354
310
414D504A03D0A805197267341441ED115D1D4D15515125391D4D153911F4
 94
        0
1001
ACAD
1000
AcadProxyRoundTripData
1071
      512
1071
   851991
1070
     0
  0
IDBUFFER
  5
5D9
330
0
100
AcDbIdBuffer
  0
IDBUFFER
  5
5DA
330
0
100
AcDbIdBuffer
330
943
330
944
330
945
330
946
330
947
330
948
330
949
330
94A
330
94B
330
94C
330
94D
330
94E
330
94F
330
950
330
951
330
952
330
953
330
954
330
955
330
956
330
957
330
958
330
959
330
95A
330
95B
330
95C
330
95D
330
95E
330
95F
330
960
330
961
330
962
330
963
330
964
330
965
330
966
330
967
330
968
330
969
330
96A
330
96B
330
96C
330
96D
330
96E
330
96F
330
970
330
971
330
972
330
973
330
974
330
975
330
978
330
979
330
97A
330
97B
330
97C
330
97D
330
97E
330
97F
330
980
330
981
330
982
330
983
330
984
330
985
330
986
330
987
330
988
330
989
330
98A
330
98B
330
98C
330
98D
330
98E
330
98F
330
990
330
991
330
992
330
993
330
994
330
995
330
996
330
997
330
998
330
999
330
99A
330
99B
330
99C
330
99D
330
99E
330
99F
330
9A0
330
9A1
330
9A2
330
9A3
330
9A4
330
9A5
330
9A6
330
9A7
330
9A8
330
9A9
330
9AA
330
9AB
330
9AC
330
9AD
330
9AE
330
9AF
330
83D
330
83E
330
83F
330
840
330
841
330
842
330
843
330
844
330
845
330
846
330
847
330
848
330
849
330
84A
330
84B
330
84C
330
84D
330
84E
330
850
330
851
330
852
330
853
330
854
330
855
330
856
330
857
330
858
330
859
330
85A
330
85B
330
85C
330
85D
330
85E
330
85F
330
860
330
861
330
862
330
863
330
864
330
865
330
866
330
867
330
869
330
86A
330
86B
330
86C
330
86F
330
870
330
871
330
872
330
873
330
874
330
875
330
876
330
877
330
878
330
879
330
87A
330
87B
330
87C
330
87D
330
87E
330
87F
330
880
330
881
330
882
330
883
330
884
330
885
330
886
330
887
330
888
330
889
330
88A
330
88B
330
88C
330
88D
330
88E
330
88F
330
890
330
891
330
892
330
893
330
894
330
895
330
896
330
897
330
898
330
899
330
89A
330
89B
330
89C
330
89D
330
89E
330
89F
330
8A0
330
8A1
330
8A2
330
8A3
330
8A4
330
8A5
330
8A6
330
8A7
330
8A8
330
8A9
330
8AD
330
8AE
330
8AF
330
8B0
330
8B1
330
8B2
330
8B3
330
8B5
330
8B9
330
8BA
330
8BB
330
8BC
330
8BD
330
8BE
330
8BF
330
8C1
330
8C2
330
8C3
330
8C4
330
8C5
330
8C6
330
8CA
330
8CB
330
8CC
330
8CD
330
8CE
330
8CF
330
8D0
330
8D2
330
8D6
330
8D7
330
8D8
330
8D9
330
8DA
330
8DB
330
8DC
330
8DE
330
8DF
330
8E0
330
8E2
330
8E3
330
8E5
330
8E6
330
8E7
330
8E8
330
8E9
330
8EA
330
8EB
330
8EC
330
8ED
330
8EE
330
8EF
330
8F0
330
8F1
330
8F2
330
8F3
330
8F4
330
8F5
330
8F6
330
8F7
330
8F8
330
8F9
330
8FA
330
8FB
330
8FC
330
8FD
330
8FE
330
8FF
330
900
330
901
330
902
330
903
330
904
330
905
330
906
330
907
330
908
330
909
330
90A
330
90B
330
90C
330
90D
330
90E
330
90F
330
910
330
911
330
912
330
913
330
914
330
915
330
916
330
917
330
918
330
919
330
91A
330
91B
330
91C
330
91D
330
91E
330
91F
330
920
330
921
330
922
330
923
330
924
330
925
330
926
330
927
330
928
330
929
330
92A
330
92B
330
92C
330
92D
330
92E
330
92F
330
930
330
931
330
932
330
933
330
934
330
935
330
936
330
937
330
938
330
939
330
93A
330
93B
330
93C
330
93D
330
93E
330
93F
330
940
330
941
330
942
  0
IDBUFFER
  5
5DB
330
0
100
AcDbIdBuffer
330
84F
330
868
330
8AA
330
8AB
330
8B6
330
8B7
330
8C7
330
8D1
330
8D3
330
8D4
330
8E1
330
8E4
  0
IDBUFFER
  5
5DC
330
0
100
AcDbIdBuffer
330
834
330
83A
  0
IDBUFFER
  5
5DD
330
0
100
AcDbIdBuffer
330
5EB
  0
IDBUFFER
  5
A73
330
0
100
AcDbIdBuffer
  0
ENDSEC
  0
EOF
