  0
SECTION
  2
HEADER
  9
$ACADVER
  1
AC1014
  9
$ACADMAINTVER
 70
     9
  9
$DWGCODEPAGE
  3
ANSI_932
  9
$INSBASE
 10
0.0
 20
0.0
 30
0.0
  9
$EXTMIN
 10
-1.507181146371749
 20
-6.39806200229168
 30
-0.0015258207003583
  9
$EXTMAX
 10
396.5858893538943
 20
154.5197801222063
 30
0.0000000349246037
  9
$LIMMIN
 10
0.0
 20
0.0
  9
$LIMMAX
 10
420.0
 20
297.0
  9
$ORTHOMODE
 70
     0
  9
$REGENMODE
 70
     1
  9
$FILLMODE
 70
     1
  9
$QTEXTMODE
 70
     0
  9
$MIRRTEXT
 70
     1
  9
$DRAGMODE
 70
     2
  9
$LTSCALE
 40
1.0
  9
$OSMODE
 70
  3071
  9
$ATTMODE
 70
     1
  9
$TEXTSIZE
 40
2.5
  9
$TRACEWID
 40
1.0
  9
$TEXTSTYLE
  7
STANDARD
  9
$CLAYER
  8
0
  9
$CELTYPE
  6
BYLAYER
  9
$CECOLOR
 62
   256
  9
$CELTSCALE
 40
1.0
  9
$DELOBJ
 70
     1
  9
$DISPSILH
 70
     0
  9
$DIMSCALE
 40
1.0
  9
$DIMASZ
 40
2.5
  9
$DIMEXO
 40
0.625
  9
$DIMDLI
 40
3.75
  9
$DIMRND
 40
0.0
  9
$DIMDLE
 40
0.0
  9
$DIMEXE
 40
1.25
  9
$DIMTP
 40
0.0
  9
$DIMTM
 40
0.0
  9
$DIMTXT
 40
2.5
  9
$DIMCEN
 40
2.5
  9
$DIMTSZ
 40
0.0
  9
$DIMTOL
 70
     0
  9
$DIMLIM
 70
     0
  9
$DIMTIH
 70
     0
  9
$DIMTOH
 70
     0
  9
$DIMSE1
 70
     0
  9
$DIMSE2
 70
     0
  9
$DIMTAD
 70
     1
  9
$DIMZIN
 70
     8
  9
$DIMBLK
  1

  9
$DIMASO
 70
     1
  9
$DIMSHO
 70
     1
  9
$DIMPOST
  1

  9
$DIMAPOST
  1

  9
$DIMALT
 70
     0
  9
$DIMALTD
 70
     3
  9
$DIMALTF
 40
0.03937007874016
  9
$DIMLFAC
 40
1.0
  9
$DIMTOFL
 70
     1
  9
$DIMTVP
 40
0.0
  9
$DIMTIX
 70
     0
  9
$DIMSOXD
 70
     0
  9
$DIMSAH
 70
     0
  9
$DIMBLK1
  1

  9
$DIMBLK2
  1

  9
$DIMSTYLE
  2
ISO-25
  9
$DIMCLRD
 70
     0
  9
$DIMCLRE
 70
     0
  9
$DIMCLRT
 70
     0
  9
$DIMTFAC
 40
1.0
  9
$DIMGAP
 40
0.625
  9
$DIMJUST
 70
     0
  9
$DIMSD1
 70
     0
  9
$DIMSD2
 70
     0
  9
$DIMTOLJ
 70
     0
  9
$DIMTZIN
 70
     8
  9
$DIMALTZ
 70
     0
  9
$DIMALTTZ
 70
     0
  9
$DIMFIT
 70
     3
  9
$DIMUPT
 70
     0
  9
$DIMUNIT
 70
     2
  9
$DIMDEC
 70
     2
  9
$DIMTDEC
 70
     2
  9
$DIMALTU
 70
     2
  9
$DIMALTTD
 70
     3
  9
$DIMTXSTY
  7
STANDARD
  9
$DIMAUNIT
 70
     0
  9
$LUNITS
 70
     2
  9
$LUPREC
 70
     2
  9
$SKETCHINC
 40
1.0
  9
$FILLETRAD
 40
10.0
  9
$AUNITS
 70
     0
  9
$AUPREC
 70
     0
  9
$MENU
  1
.
  9
$ELEVATION
 40
0.0
  9
$PELEVATION
 40
0.0
  9
$THICKNESS
 40
0.0
  9
$LIMCHECK
 70
     0
  9
$BLIPMODE
 70
     0
  9
$CHAMFERA
 40
10.0
  9
$CHAMFERB
 40
10.0
  9
$CHAMFERC
 40
20.0
  9
$CHAMFERD
 40
0.0
  9
$SKPOLY
 70
     0
  9
$TDCREATE
 40
2454596.550355717
  9
$TDUPDATE
 40
2454756.575282291
  9
$TDINDWG
 40
0.0168035648
  9
$TDUSRTIMER
 40
0.0168033796
  9
$USRTIMER
 70
     1
  9
$ANGBASE
 50
0.0
  9
$ANGDIR
 70
     0
  9
$PDMODE
 70
     0
  9
$PDSIZE
 40
0.0
  9
$PLINEWID
 40
0.0
  9
$COORDS
 70
     0
  9
$SPLFRAME
 70
     0
  9
$SPLINETYPE
 70
     6
  9
$SPLINESEGS
 70
     8
  9
$ATTDIA
 70
     0
  9
$ATTREQ
 70
     1
  9
$HANDLING
 70
 22529
  9
$HANDSEED
  5
A20
  9
$SURFTAB1
 70
     6
  9
$SURFTAB2
 70
     6
  9
$SURFTYPE
 70
     6
  9
$SURFU
 70
     6
  9
$SURFV
 70
     6
  9
$UCSNAME
  2

  9
$UCSORG
 10
0.0
 20
0.0
 30
0.0
  9
$UCSXDIR
 10
1.0
 20
0.0
 30
0.0
  9
$UCSYDIR
 10
0.0
 20
1.0
 30
0.0
  9
$PUCSNAME
  2

  9
$PUCSORG
 10
0.0
 20
0.0
 30
0.0
  9
$PUCSXDIR
 10
1.0
 20
0.0
 30
0.0
  9
$PUCSYDIR
 10
0.0
 20
1.0
 30
0.0
  9
$USERI1
 70
     0
  9
$USERI2
 70
     0
  9
$USERI3
 70
     0
  9
$USERI4
 70
     0
  9
$USERI5
 70
     0
  9
$USERR1
 40
0.0
  9
$USERR2
 40
0.0
  9
$USERR3
 40
0.0
  9
$USERR4
 40
0.0
  9
$USERR5
 40
0.0
  9
$WORLDVIEW
 70
     1
  9
$SHADEDGE
 70
     3
  9
$SHADEDIF
 70
    70
  9
$TILEMODE
 70
     1
  9
$MAXACTVP
 70
    48
  9
$PINSBASE
 10
0.0
 20
0.0
 30
0.0
  9
$PLIMCHECK
 70
     0
  9
$PEXTMIN
 10
28.5263154029846
 20
19.82258291244505
 30
0.0
  9
$PEXTMAX
 10
256.7368386268614
 20
178.4032462120055
 30
0.0
  9
$PLIMMIN
 10
-5.873748779296875
 20
-5.873749732971191
  9
$PLIMMAX
 10
291.1369018554686
 20
204.0995779037474
  9
$UNITMODE
 70
     0
  9
$VISRETAIN
 70
     1
  9
$PLINEGEN
 70
     0
  9
$PSLTSCALE
 70
     1
  9
$TREEDEPTH
 70
  3020
  9
$PICKSTYLE
 70
     1
  9
$CMLSTYLE
  2
STANDARD
  9
$CMLJUST
 70
     0
  9
$CMLSCALE
 40
20.0
  9
$PROXYGRAPHICS
 70
     1
  9
$MEASUREMENT
 70
     1
  0
ENDSEC
  0
SECTION
  2
CLASSES
  0
CLASS
  1
ACDBDICTIONARYWDFLT
  2
AcDbDictionaryWithDefault
  3
AutoCAD 2000
 90
        0
280
     0
281
     0
  0
CLASS
  1
ACDBPLACEHOLDER
  2
AcDbPlaceHolder
  3
AutoCAD 2000
 90
        0
280
     0
281
     0
  0
CLASS
  1
LAYOUT
  2
AcDbLayout
  3
AutoCAD 2000
 90
        0
280
     0
281
     0
  0
CLASS
  1
DICTIONARYVAR
  2
AcDbDictionaryVar
  3
AutoCAD 2000
 90
        0
280
     0
281
     0
  0
CLASS
  1
LONG_TRANSACTION
  2
AcDbLongTransaction
  3
AutoCAD 2000
 90
        0
280
     0
281
     0
  0
CLASS
  1
LWPOLYLINE
  2
AcDbPolyline
  3
AutoCAD 2000
 90
        0
280
     0
281
     1
  0
CLASS
  1
HATCH
  2
AcDbHatch
  3
AutoCAD 2000
 90
        0
280
     0
281
     1
  0
CLASS
  1
XRECORD
  2
AcDbXrecord
  3
AutoCAD 2000
 90
        0
280
     0
281
     0
  0
CLASS
  1
LONG_TRANSACTION
  2
AcDbLongTransaction
  3
AutoCAD 2000
 90
        0
280
     0
281
     0
  0
CLASS
  1
LWPOLYLINE
  2
AcDbPolyline
  3
AutoCAD 2000
 90
        0
280
     0
281
     1
  0
CLASS
  1
HATCH
  2
AcDbHatch
  3
AutoCAD 2000
 90
        0
280
     0
281
     1
  0
CLASS
  1
XRECORD
  2
AcDbXrecord
  3
AutoCAD 2000
 90
        0
280
     0
281
     0
  0
CLASS
  1
AMGSETTINGSOBJ
  2
AmgSettingsObj
  3
"AcadM|Product Description: AutoCAD Mechanical 2000|Company: Autodesk"
 90
        0
280
     0
281
     0
  0
CLASS
  1
ACME_DOCUMENT
  2
AcMeDbDoc
  3
AcMeServices
 90
        0
280
     0
281
     0
  0
CLASS
  1
ACMESCOPE
  2
AcMeScope
  3
AcMeServices
 90
        0
280
     0
281
     0
  0
CLASS
  1
ACMECOMMANDHISTORY
  2
AcMeCommandHistory
  3
AcMeServices
 90
        0
280
     0
281
     0
  0
CLASS
  1
ACIMSYSVARMAN
  2
AcImSysVarManager
  3
AcMeServices
 90
        0
280
     0
281
     0
  0
CLASS
  1
ACIMREALSYSVAR
  2
AcImRealSysVar
  3
AcMeServices
 90
        0
280
     0
281
     0
  0
CLASS
  1
ACIMINTSYSVAR
  2
AcImIntSysVar
  3
AcMeServices
 90
        0
280
     0
281
     0
  0
CLASS
  1
ACMEDRAWINGMAN
  2
AcMeDrawingMan
  3
AcMeServices
 90
        0
280
     0
281
     0
  0
CLASS
  1
ACMEVIEW
  2
AcMeView
  3
AcMeServices
 90
        0
280
     0
281
     0
  0
CLASS
  1
ACDBENTITYCACHE
  2
AcMeEntityCache
  3
AcMeServices
 90
        0
280
     0
281
     0
  0
CLASS
  1
GSMANAGER
  2
AcMeGSManager
  3
AcMeServices
 90
        0
280
     0
281
     0
  0
CLASS
  1
AMDTINTERNALREACTOR
  2
AmdtInternalReactor
  3
AcMeServices
 90
        0
280
     0
281
     0
  0
CLASS
  1
ACMESTATEMGR
  2
AcMeStateMgr
  3
AcMeServices
 90
        0
280
     0
281
     0
  0
CLASS
  1
ACGREFMASTER
  2
AcGrefMaster
  3
AcAttribServices
 90
        0
280
     0
281
     0
  0
CLASS
  1
AM_DRAWING_MGR
  2
AcDmDwgMgr
  3
AcMechDwgViewMgmt
 90
        0
280
     0
281
     0
  0
CLASS
  1
AM_DWG_DOCUMENT
  2
AcDmDwgDocument
  3
AcMechDwgViewMgmt
 90
        0
280
     0
281
     0
  0
CLASS
  1
AM_DWG_SHEET
  2
AcDmSheet
  3
AcMechDwgViewMgmt
 90
        0
280
     0
281
     0
  0
CLASS
  1
AM_VIEWDIMPARMAP
  2
AcDmViewDimParMap
  3
AcMechDwgViewMgmt
 90
        0
280
     0
281
     0
  0
CLASS
  1
AM_DWGMGR_NAME
  2
AcDmDwgMgrName
  3
AcMechDwgViewMgmt
 90
        0
280
     0
281
     0
  0
CLASS
  1
ACME_DATABASE
  2
AcMeDbDatabase
  3
AcMeServices
 90
        0
280
     0
281
     0
  0
CLASS
  1
ACRFINSADJUSTERMGR
  2
AcRfInsAdjusterMgr
  3
AcMeServices
 90
        0
280
     0
281
     0
  0
CLASS
  1
ACGREFACADMASTER
  2
AcGrefacadMaster
  3
AcGrefServices
 90
        0
280
     0
281
     0
  0
CLASS
  1
AMDTMENUSTATEMGR
  2
AmdtMenuStateMgr
  3
McadcomServices
 90
        0
280
     0
281
     0
  0
CLASS
  1
AMDTMCOMMENUSTATE
  2
AmdtMcomMenuState
  3
McadcomServices
 90
        0
280
     0
281
     0
  0
CLASS
  1
AMIMASTER
  2
AmiMaster
  3
AmiServices
 90
        0
280
     0
281
     0
  0
CLASS
  1
ASAPP
  2
AcAsAppObject
  3
AutoSurfServices
 90
        0
280
     0
281
     0
  0
CLASS
  1
IM_STATIC_MAN
  2
AcImStaticVarManager
  3
AcMeServices
 90
        0
280
     0
281
     0
  0
CLASS
  1
ACIMSTRSYSVAR
  2
AcImStrSysVar
  3
AcMeServices
 90
        0
280
     0
281
     0
  0
CLASS
  1
ACIMDBLSTATICVAR
  2
AcImDblStaticVar
  3
AcMeServices
 90
        0
280
     0
281
     0
  0
CLASS
  1
ACIMSTRSTATICVAR
  2
AcImStrStaticVar
  3
AcMeServices
 90
        0
280
     0
281
     0
  0
CLASS
  1
ACIMINTSTATICVAR
  2
AcImIntStaticVar
  3
AcMeServices
 90
        0
280
     0
281
     0
  0
CLASS
  1
ACASGREFMASTER
  2
AcAsGrefMaster
  3
AutoSurfResolverServices
 90
        0
280
     0
281
     0
  0
CLASS
  1
ACADGREFMODULE
  2
AcAdGrefModule
  3
AdGrefServices
 90
        0
280
     0
281
     0
  0
CLASS
  1
AMDTMAPISURFMOUDULE
  2
AmdtMApiSurfModule
  3
MApiSurfServices
 90
        0
280
     0
281
     0
  0
CLASS
  1
MAPIAMMOUDLE
  2
MApiAmModule
  3
MApiAmServices
 90
        0
280
     0
281
     0
  0
CLASS
  1
AMDTADMENUSTATE
  2
AmdtAdMenuState
  3
DesignerServices
 90
        0
280
     0
281
     0
  0
CLASS
  1
ADAPPL
  2
AcAdAppl
  3
DesignerServices
 90
        0
280
     0
281
     0
  0
CLASS
  1
DEPMGR
  2
AcAdDepMgr
  3
DesignerServices
 90
        0
280
     0
281
     0
  0
CLASS
  1
PARAMMGR
  2
AcAdParamMgr
  3
DesignerServices
 90
        0
280
     0
281
     0
  0
CLASS
  1
PARAMSCOPE
  2
AcAdParamScope
  3
DesignerServices
 90
        0
280
     0
281
     0
  0
CLASS
  1
NAMEDAPPL
  2
AcAdNamedAppl
  3
DesignerServices
 90
        0
280
     0
281
     0
  0
CLASS
  1
AMDTDMMENUSTATE
  2
AmdtDmMenuState
  3
AcMechDwgViewMgmt
 90
        0
280
     0
281
     0
  0
CLASS
  1
MAPIADMODULE
  2
MApiAdModule
  3
MApiAdServices
 90
        0
280
     0
281
     0
  0
CLASS
  1
AMDTAMMENUSTATE
  2
AmdtAmMenuState
  3
DesignerAssemblies
 90
        0
280
     0
281
     0
  0
CLASS
  1
ACAMPROJECT
  2
AcAmProject
  3
DesignerAssemblies
 90
        0
280
     0
281
     0
  0
CLASS
  1
ACAMGRCOMPDEF
  2
AcAmGrCompDef
  3
DesignerAssemblies
 90
        0
280
     0
281
     0
  0
CLASS
  1
ACCMCONTEXT
  2
AcCmContext
  3
DesignerAssemblies
 90
        0
280
     0
281
     0
  0
CLASS
  1
ACAMCOMPDEF
  2
AcAmCompDef
  3
DesignerAssemblies
 90
        0
280
     0
281
     0
  0
CLASS
  1
ACAMCOMPDEFMGR
  2
AcAmCompDefMgr
  3
DesignerAssemblies
 90
        0
280
     0
281
     0
  0
CLASS
  1
AMCONTEXTMGR
  2
AcAmContextMgr
  3
DesignerAssemblies
 90
        0
280
     0
281
     0
  0
CLASS
  1
ACAMCONTEXTMODELER
  2
AcAmContextModeler
  3
DesignerAssemblies
 90
        0
280
     0
281
     0
  0
CLASS
  1
ACMDATADICTIONARY
  2
AcmDataDictionary
  3
"AcmSymBB|Product Description: AutoCAD Mechanical 2000|Company: Autodesk"
 90
        0
280
     0
281
     0
  0
CLASS
  1
ACMDATAENTRYBLOCK
  2
AcmDataEntryBlock
  3
"AcmSymBB|Product Description: AutoCAD Mechanical 2000|Company: Autodesk"
 90
        0
280
     0
281
     0
  0
CLASS
  1
CATALOGSTATE
  2
AcAmCatalogState
  3
DesignerAssemblies
 90
        0
280
     0
281
     0
  0
CLASS
  1
ACAMGRCOMPDEFSET
  2
AcAmGrCompDefSet
  3
DesignerAssemblies
 90
        0
280
     0
281
     0
  0
CLASS
  1
AMDTBROWSERDBTAB
  2
AmdtBrowserDbTab
  3
McadcomServices
 90
        0
280
     0
281
     0
  0
CLASS
  1
CBROWSERAPPOBJECT
  2
CBrowserAppObject
  3
McadcomServices
 90
        0
280
     0
281
     0
  0
CLASS
  1
DM_PLACEHOLDER
  2
AcDmSelsetPlaceholder
  3
AcMechDwgViewMgmt
 90
        0
280
     0
281
     0
  0
CLASS
  1
AMGOBJPROPCFG
  2
AmgObjPropCfg
  3
"AmgLay|Product Description: AutoCAD Mechanical 2000|Company: Autodesk"
 90
        1
280
     0
281
     0
  0
CLASS
  1
ACAMGFILTERDAT
  2
AcAmgFilterDat
  3
"AcadM|Product Description: AutoCAD Mechanical 2000|Company: Autodesk"
 90
        0
280
     0
281
     0
  0
CLASS
  1
LAYER_INDEX
  2
AcDbLayerIndex
  3
AutoCAD 2000
 90
        0
280
     0
281
     0
  0
CLASS
  1
IDBUFFER
  2
AcDbIdBuffer
  3
AutoCAD 2000
 90
        0
280
     0
281
     0
  0
CLASS
  1
ACAD_PROXY_OBJECT_WRAPPER
  2
AcDbProxyObjectWrapper
  3
AutoCAD 2000
 90
        0
280
     0
281
     0
  0
CLASS
  1
LONG_TRANSACTION
  2
AcDbLongTransaction
  3
AutoCAD 2000
 90
        0
280
     0
281
     0
  0
CLASS
  1
LWPOLYLINE
  2
AcDbPolyline
  3
AutoCAD 2000
 90
        0
280
     0
281
     1
  0
CLASS
  1
HATCH
  2
AcDbHatch
  3
AutoCAD 2000
 90
        0
280
     0
281
     1
  0
CLASS
  1
XRECORD
  2
AcDbXrecord
  3
AutoCAD 2000
 90
        0
280
     0
281
     0
  0
CLASS
  1
LONG_TRANSACTION
  2
AcDbLongTransaction
  3
AutoCAD 2000
 90
        0
280
     0
281
     0
  0
CLASS
  1
LWPOLYLINE
  2
AcDbPolyline
  3
AutoCAD 2000
 90
        0
280
     0
281
     1
  0
CLASS
  1
HATCH
  2
AcDbHatch
  3
AutoCAD 2000
 90
        0
280
     0
281
     1
  0
CLASS
  1
XRECORD
  2
AcDbXrecord
  3
AutoCAD 2000
 90
        0
280
     0
281
     0
  0
ENDSEC
  0
SECTION
  2
TABLES
  0
TABLE
  2
VPORT
  5
8
330
0
100
AcDbSymbolTable
 70
     2
  0
VPORT
  5
9FD
330
8
100
AcDbSymbolTableRecord
100
AcDbViewportTableRecord
  2
*ACTIVE
 70
     0
 10
0.0
 20
0.0
 11
1.0
 21
1.0
 12
-943.4098124774287
 22
-478.5153153824889
 13
0.0
 23
0.0
 14
10.0
 24
10.0
 15
10.0
 25
10.0
 16
0.0
 26
0.0
 36
1.0
 17
1140.949166581189
 27
552.5761744424463
 37
0.0
 40
246.8027689240566
 41
1.621212121212121
 42
50.0
 43
0.0
 44
0.0
 50
0.0
 51
0.0
 71
     0
 72
   100
 73
     1
 74
     3
 75
     0
 76
     0
 77
     0
 78
     0
  0
ENDTAB
  0
TABLE
  2
LTYPE
  5
5
330
0
100
AcDbSymbolTable
 70
    17
  0
LTYPE
  5
14
330
5
100
AcDbSymbolTableRecord
100
AcDbLinetypeTableRecord
  2
BYBLOCK
 70
     0
  3

 72
    65
 73
     0
 40
0.0
  0
LTYPE
  5
15
330
5
100
AcDbSymbolTableRecord
100
AcDbLinetypeTableRecord
  2
BYLAYER
 70
     0
  3

 72
    65
 73
     0
 40
0.0
  0
LTYPE
  5
16
330
5
100
AcDbSymbolTableRecord
100
AcDbLinetypeTableRecord
  2
CONTINUOUS
 70
     0
  3
Solid line
 72
    65
 73
     0
 40
0.0
  0
LTYPE
  5
5C6
330
5
100
AcDbSymbolTableRecord
100
AcDbLinetypeTableRecord
  2
AM_ISO02W050
 70
     0
  3
__ __ __ __ __ __ __ __ __ __ __ __ __ __ __
 72
    65
 73
     2
 40
7.5
 49
6.0
 74
     0
 49
-1.5
 74
     0
  0
LTYPE
  5
5C7
330
5
100
AcDbSymbolTableRecord
100
AcDbLinetypeTableRecord
  2
AM_ISO08W050
 70
     0
  3
____ . ____ . ____ . ____ . ____ . ____ . ____
 72
    65
 73
     4
 40
18.0
 49
12.0
 74
     0
 49
-1.5
 74
     0
 49
3.0
 74
     0
 49
-1.5
 74
     0
  0
LTYPE
  5
5C8
330
5
100
AcDbSymbolTableRecord
100
AcDbLinetypeTableRecord
  2
AM_ISO09W050
 70
     0
  3
_____ . . _____ . . _____ . . ____ .. ____
 72
    65
 73
     6
 40
22.5
 49
12.0
 74
     0
 49
-1.5
 74
     0
 49
3.0
 74
     0
 49
-1.5
 74
     0
 49
3.0
 74
     0
 49
-1.5
 74
     0
  0
LTYPE
  5
5C9
330
5
100
AcDbSymbolTableRecord
100
AcDbLinetypeTableRecord
  2
AMCONSTR
 70
     0
  3
_______________________
 72
    65
 73
     2
 40
9999.0
 49
9999.0
 74
     0
 49
0.0
 74
     0
  0
LTYPE
  5
5CA
330
5
100
AcDbSymbolTableRecord
100
AcDbLinetypeTableRecord
  2
AM_ISO08W050X2
 70
     0
  3
__ . __ . __ . __ . __ . __
 72
    65
 73
     4
 40
9.0
 49
6.0
 74
     0
 49
-0.75
 74
     0
 49
1.5
 74
     0
 49
-0.75
 74
     0
  0
LTYPE
  5
5CB
330
5
100
AcDbSymbolTableRecord
100
AcDbLinetypeTableRecord
  2
AM_ISO02W050X2
 70
     0
  3
 _ _ _ _ _ _ _ _ _ _ _ _
 72
    65
 73
     2
 40
3.75
 49
3.0
 74
     0
 49
-0.75
 74
     0
  0
LTYPE
  5
5CE
330
5
100
AcDbSymbolTableRecord
100
AcDbLinetypeTableRecord
  2
AMZIGZAG
 70
     0
  3
/\/-/\/-/\/-/\/-/\/-/\/
 72
    65
 73
     2
 40
11.00009999999999
 49
0.0001
 74
     4
 75
   135
340
5CD
 46
0.04
 50
0.0
 44
0.0
 45
0.0
 49
-11.0
 74
     0
  0
ENDTAB
  0
TABLE
  2
LAYER
  5
2
102
{ACAD_XDICTIONARY
360
41
102
}
330
0
100
AcDbSymbolTable
 70
    14
  0
LAYER
  5
10
330
2
100
AcDbSymbolTableRecord
100
AcDbLayerTableRecord
  2
0
 70
     0
 62
     7
  6
CONTINUOUS
  0
LAYER
  5
35
330
2
100
AcDbSymbolTableRecord
100
AcDbLayerTableRecord
  2
10
 70
     0
 62
     4
  6
CONTINUOUS
  0
LAYER
  5
36
330
2
100
AcDbSymbolTableRecord
100
AcDbLayerTableRecord
  2
12
 70
     0
 62
     3
  6
CONTINUOUS
  0
LAYER
  5
37
330
2
100
AcDbSymbolTableRecord
100
AcDbLayerTableRecord
  2
16
 70
     0
 62
     4
  6
CONTINUOUS
  0
LAYER
  5
38
330
2
100
AcDbSymbolTableRecord
100
AcDbLayerTableRecord
  2
19
 70
     0
 62
     7
  6
CONTINUOUS
  0
LAYER
  5
693
330
2
100
AcDbSymbolTableRecord
100
AcDbLayerTableRecord
  2
DEFPOINTS
 70
     0
 62
     7
  6
CONTINUOUS
  0
ENDTAB
  0
TABLE
  2
STYLE
  5
3
330
0
100
AcDbSymbolTable
 70
     4
  0
STYLE
  5
11
330
3
100
AcDbSymbolTableRecord
100
AcDbTextStyleTableRecord
  2
STANDARD
 70
     0
 40
0.0
 41
1.0
 50
0.0
 71
     0
 42
2.5
  3
txt
  4

  0
STYLE
  5
3A
330
3
100
AcDbSymbolTableRecord
100
AcDbTextStyleTableRecord
  2
STANDARD1X3
 70
     0
 40
9.599999999999999
 41
0.7
 50
0.0
 71
     0
 42
9.599999999999999
  3
romans.shx
  4
extfont.shx
  0
STYLE
  5
5CD
330
3
100
AcDbSymbolTableRecord
100
AcDbTextStyleTableRecord
  2

 70
     1
 40
0.0
 41
1.0
 50
0.0
 71
     0
 42
2.5
  3
ltypeshp.shx
  4

  0
ENDTAB
  0
TABLE
  2
VIEW
  5
6
330
0
100
AcDbSymbolTable
 70
     0
  0
ENDTAB
  0
TABLE
  2
UCS
  5
7
330
0
100
AcDbSymbolTable
 70
     0
  0
ENDTAB
  0
TABLE
  2
APPID
  5
9
330
0
100
AcDbSymbolTable
 70
    22
  0
APPID
  5
12
330
9
100
AcDbSymbolTableRecord
100
AcDbRegAppTableRecord
  2
ACAD
 70
     0
  0
APPID
  5
3C
330
9
100
AcDbSymbolTableRecord
100
AcDbRegAppTableRecord
  2
ACAD_PSEXT
 70
     0
  0
APPID
  5
3D
330
9
100
AcDbSymbolTableRecord
100
AcDbRegAppTableRecord
  2
ACAD_DSTYLE_DIMEXT_LENGTH
 70
     0
  0
APPID
  5
3E
330
9
100
AcDbSymbolTableRecord
100
AcDbRegAppTableRecord
  2
ACAD_DSTYLE_DIMEXT_ENABLED
 70
     0
  0
APPID
  5
3F
330
9
100
AcDbSymbolTableRecord
100
AcDbRegAppTableRecord
  2
ACAD_DSTYLE_DIMJOGGED_JOGA
 70
     0
  0
APPID
  5
40
330
9
100
AcDbSymbolTableRecord
100
AcDbRegAppTableRecord
  2
ACAD_DSTYLE_DIMARC_LENGTH_
 70
     0
  0
APPID
  5
500
330
9
100
AcDbSymbolTableRecord
100
AcDbRegAppTableRecord
  2
GENIUS_GENDIM_13
 70
     0
  0
APPID
  5
501
330
9
100
AcDbSymbolTableRecord
100
AcDbRegAppTableRecord
  2
GENIUS_GENDTOL_13
 70
     0
  0
APPID
  5
502
330
9
100
AcDbSymbolTableRecord
100
AcDbRegAppTableRecord
  2
GENIUS_GE3DTOL_13
 70
     0
  0
APPID
  5
504
330
9
100
AcDbSymbolTableRecord
100
AcDbRegAppTableRecord
  2
MCAD_NO_VIS
 70
     0
  0
APPID
  5
505
330
9
100
AcDbSymbolTableRecord
100
AcDbRegAppTableRecord
  2
ACAD_TEMP_GRAPHIC
 70
     0
  0
APPID
  5
537
330
9
100
AcDbSymbolTableRecord
100
AcDbRegAppTableRecord
  2
AD_DRAW
 70
     0
  0
APPID
  5
53A
330
9
100
AcDbSymbolTableRecord
100
AcDbRegAppTableRecord
  2
ACATTRIBSERVICES
 70
     0
  0
APPID
  5
586
330
9
100
AcDbSymbolTableRecord
100
AcDbRegAppTableRecord
  2
ASURF_PCURVE_APPNAME
 70
     0
  0
APPID
  5
5B5
330
9
100
AcDbSymbolTableRecord
100
AcDbRegAppTableRecord
  2
DESIGNERASSEMBLIES
 70
     0
  0
APPID
  5
5BD
330
9
100
AcDbSymbolTableRecord
100
AcDbRegAppTableRecord
  2
ACADM_DIM_EDIT
 70
     0
  0
APPID
  5
5BE
330
9
100
AcDbSymbolTableRecord
100
AcDbRegAppTableRecord
  2
AMDT_DM_ADJ
 70
     0
  0
APPID
  5
69D
330
9
100
AcDbSymbolTableRecord
100
AcDbRegAppTableRecord
  2
GENIUS_GENODEF_13
 70
     0
  0
APPID
  5
69E
330
9
100
AcDbSymbolTableRecord
100
AcDbRegAppTableRecord
  2
GENIUS_GENOREF_13
 70
     0
  0
APPID
  5
69F
330
9
100
AcDbSymbolTableRecord
100
AcDbRegAppTableRecord
  2
GENIUS_GENOBJ-N-CEN_13
 70
     0
  0
APPID
  5
6A0
330
9
100
AcDbSymbolTableRecord
100
AcDbRegAppTableRecord
  2
GENIUS_GENREC_14
 70
     0
  0
APPID
  5
6A1
330
9
100
AcDbSymbolTableRecord
100
AcDbRegAppTableRecord
  2
GENIUS_GENOBJ-N-REC_13
 70
     0
  0
ENDTAB
  0
TABLE
  2
DIMSTYLE
  5
A
330
0
100
AcDbSymbolTable
 70
     4
  0
DIMSTYLE
105
27
330
A
100
AcDbSymbolTableRecord
100
AcDbDimStyleTableRecord
  2
ISO-25
 70
     0
  3

  4

  5

  6

  7

 40
1.0
 41
2.5
 42
0.625
 43
3.75
 44
1.25
 45
0.0
 46
0.0
 47
0.0
 48
0.0
140
2.5
141
2.5
142
0.0
143
0.03937007874016
144
1.0
145
0.0
146
1.0
147
0.625
 71
     0
 72
     0
 73
     0
 74
     0
 75
     0
 76
     0
 77
     1
 78
     8
170
     0
171
     3
172
     1
173
     0
174
     0
175
     0
176
     0
177
     0
178
     0
270
     2
271
     2
272
     2
273
     2
274
     3
340
11
275
     0
280
     0
281
     0
282
     0
283
     0
284
     8
285
     0
286
     0
287
     3
288
     0
  0
ENDTAB
  0
TABLE
  2
BLOCK_RECORD
  5
1
330
0
100
AcDbSymbolTable
 70
    19
  0
BLOCK_RECORD
  5
1F
102
{ACAD_XDICTIONARY
360
438
102
}
330
1
100
AcDbSymbolTableRecord
100
AcDbBlockTableRecord
  2
*MODEL_SPACE
  0
BLOCK_RECORD
  5
23
102
{ACAD_XDICTIONARY
360
43A
102
}
330
1
100
AcDbSymbolTableRecord
100
AcDbBlockTableRecord
  2
*PAPER_SPACE
  0
BLOCK_RECORD
  5
5AC
330
1
100
AcDbSymbolTableRecord
100
AcDbBlockTableRecord
  2
*U1
  0
ENDTAB
  0
ENDSEC
  0
SECTION
  2
BLOCKS
  0
BLOCK
  5
20
330
1F
100
AcDbEntity
  8
0
100
AcDbBlockBegin
  2
*MODEL_SPACE
 70
     0
 10
0.0
 20
0.0
 30
0.0
  3
*MODEL_SPACE
  1

  0
ENDBLK
  5
21
330
1F
100
AcDbEntity
  8
0
100
AcDbBlockEnd
  0
BLOCK
  5
24
330
23
100
AcDbEntity
 67
     1
  8
0
100
AcDbBlockBegin
  2
*PAPER_SPACE
 70
     0
 10
0.0
 20
0.0
 30
0.0
  3
*PAPER_SPACE
  1

  0
ENDBLK
  5
25
330
23
100
AcDbEntity
 67
     1
  8
0
100
AcDbBlockEnd
  0
BLOCK
  5
5AD
330
5AC
100
AcDbEntity
  8
0
100
AcDbBlockBegin
  2
*U1
 70
     1
 10
0.0
 20
0.0
 30
0.0
  3
*U1
  1

  0
ENDBLK
  5
5AE
330
5AC
100
AcDbEntity
  8
0
100
AcDbBlockEnd
  0
ENDSEC
  0
SECTION
  2
ENTITIES
  0
MTEXT
  5
5EB
330
1F
100
AcDbEntity
  8
19
100
AcDbMText
 10
319.9868350213057
 20
10.5778910577161
 30
0.0
 40
4.0
 41
70.16
 71
     1
 72
     5
  1
HELH09\PFR-HEL-H15K
  7
STANDARD1X3
1001
ACAD
1000
MTEXTBEGIN
1070
    73
1070
     1
1070
    44
1040
1.0
1070
    74
1070
     0
1000
MTEXTEND
  0
LINE
  5
7FB
330
1F
100
AcDbEntity
  8
16
 48
20.0
100
AcDbLine
 10
53.75
 20
138.8092388599961
 30
0.0
 11
53.75
 21
-6.372527261842606
 31
0.0
1001
GENIUS_GENODEF_13
1002
{
1000
HIER
1070
     0
1002
}
1002
{
1000
MANEDIT
1070
     0
1002
}
1002
{
1000
NOSEL
1070
     0
1002
}
1002
{
1000
BEHIND
1070
     0
1002
}
1002
{
1000
REACTOR
1002
}
1001
GENIUS_GENOBJ-N-CEN_13
1002
{
1000
OWNER
1000
GEN
1002
}
  0
LINE
  5
801
330
1F
100
AcDbEntity
  8
16
 48
5.0
100
AcDbLine
 10
247.6740206475602
 20
151.6603656674483
 30
0.0
 11
247.6740206475602
 21
-6.144246341455527
 31
0.0
1001
GENIUS_GENODEF_13
1002
{
1000
HIER
1070
     0
1002
}
1002
{
1000
MANEDIT
1070
     0
1002
}
1002
{
1000
NOSEL
1070
     0
1002
}
1002
{
1000
BEHIND
1070
     0
1002
}
1002
{
1000
OTHER
1070
     0
1002
}
1002
{
1000
REACTOR
1002
}
1001
GENIUS_GENOBJ-N-CEN_13
1002
{
1000
OWNER
1000
GEN
1002
}
  0
LWPOLYLINE
  5
804
330
1F
100
AcDbEntity
  8
10
100
AcDbPolyline
 90
        4
 70
     0
 43
0.0
 10
210.6740206475604
 20
86.0
 10
196.6740206475603
 20
86.0
 10
196.6740206475603
 20
18.0
 10
210.6740206475604
 20
18.0
  0
LWPOLYLINE
  5
805
330
1F
100
AcDbEntity
  8
10
100
AcDbPolyline
 90
        3
 70
     0
 43
0.0
 10
210.6740206475604
 20
87.5
 10
202.1740206475604
 20
87.5
 10
202.1740206475604
 20
86.0
  0
LWPOLYLINE
  5
806
330
1F
100
AcDbEntity
  8
10
100
AcDbPolyline
 90
        3
 70
     0
 43
0.0
 10
202.1740206475604
 20
18.0
 10
202.1740206475604
 20
16.5
 10
210.6740206475604
 20
16.5
  0
LINE
  5
807
330
1F
100
AcDbEntity
  8
10
100
AcDbLine
 10
207.8279250953181
 20
91.41187499999615
 30
0.0
 11
205.9201161998021
 21
91.41187499999615
 31
0.0
  0
LINE
  5
808
330
1F
100
AcDbEntity
  8
10
100
AcDbLine
 10
207.8279250953181
 20
96.17624999999726
 30
0.0
 11
205.9201161998021
 21
96.17624999999726
 31
0.0
  0
LINE
  5
809
330
1F
100
AcDbEntity
  8
10
100
AcDbLine
 10
207.8279250953181
 20
94.58812499999613
 30
0.0
 11
205.9201161998021
 21
94.58812499999613
 31
0.0
  0
LINE
  5
80A
330
1F
100
AcDbEntity
  8
10
100
AcDbLine
 10
207.8279250953181
 20
89.82374999999548
 30
0.0
 11
205.9201161998021
 21
89.82374999999548
 31
0.0
  0
LINE
  5
80B
330
1F
100
AcDbEntity
  8
10
100
AcDbLine
 10
209.4279250953184
 20
7.223749999995106
 30
0.0
 11
207.5201161998025
 21
7.223749999995106
 31
0.0
  0
LINE
  5
80C
330
1F
100
AcDbEntity
  8
10
100
AcDbLine
 10
209.4279250953184
 20
11.98812499999621
 30
0.0
 11
207.5201161998025
 21
11.98812499999621
 31
0.0
  0
LINE
  5
80D
330
1F
100
AcDbEntity
  8
10
100
AcDbLine
 10
209.4279250953184
 20
13.57624999999598
 30
0.0
 11
207.5201161998025
 21
13.57624999999598
 31
0.0
  0
LINE
  5
80E
330
1F
100
AcDbEntity
  8
10
100
AcDbLine
 10
209.4279250953184
 20
8.811874999995325
 30
0.0
 11
207.5201161998025
 21
8.811874999995325
 31
0.0
  0
LWPOLYLINE
  5
80F
330
1F
100
AcDbEntity
  8
10
100
AcDbPolyline
 90
        7
 70
     0
 43
0.0
 10
212.1740206475603
 20
98.0
 10
212.1740206475603
 20
0.0
 10
190.1740206475601
 20
0.0
 10
190.1740206475601
 20
1.500000000001364
 10
210.6740206475604
 20
1.500000000001364
 10
210.6740206475604
 20
98.0
 10
212.1740206475603
 20
98.0
  0
LINE
  5
810
330
1F
100
AcDbEntity
  8
10
100
AcDbLine
 10
247.0740206475598
 20
113.5000000000013
 30
0.0
 11
247.0740206475598
 21
111.9
 31
0.0
  0
LINE
  5
811
330
1F
100
AcDbEntity
  8
10
100
AcDbLine
 10
247.0740206475598
 20
111.9000000000014
 30
0.0
 11
210.6740206475604
 21
111.9
 31
0.0
  0
LINE
  5
812
330
1F
100
AcDbEntity
  8
10
100
AcDbLine
 10
210.6740206475604
 20
111.9
 30
0.0
 11
210.6740206475604
 21
88.50000000000136
 31
0.0
  0
LINE
  5
813
330
1F
100
AcDbEntity
  8
10
100
AcDbLine
 10
210.6740206475604
 20
88.50000000000136
 30
0.0
 11
209.0740206475597
 21
88.50000000000136
 31
0.0
  0
LINE
  5
814
330
1F
100
AcDbEntity
  8
10
100
AcDbLine
 10
209.0740206475597
 20
88.50000000000136
 30
0.0
 11
209.0740206475597
 21
113.5000000000013
 31
0.0
  0
LINE
  5
815
330
1F
100
AcDbEntity
  8
10
100
AcDbLine
 10
209.0740206475597
 20
113.5000000000013
 30
0.0
 11
234.4140206475598
 21
113.5000000000013
 31
0.0
  0
LWPOLYLINE
  5
816
330
1F
100
AcDbEntity
  8
12
 48
3.0
100
AcDbPolyline
 90
        2
 70
     0
 43
0.0
 10
200.1740206475604
 20
2.641733689761167
 10
200.1740206475604
 20
-2.212272190196472
  0
ARC
  5
817
330
1F
100
AcDbEntity
  8
10
100
AcDbCircle
 10
207.0781465418383
 20
90.61781249999512
 30
0.0
 40
1.404125894278186
100
AcDbArc
 50
145.5615305952844
 51
205.5615305952436
  0
LINE
  5
818
330
1F
100
AcDbEntity
  8
10
100
AcDbLine
 10
205.6740206475603
 20
90.24999999999636
 30
0.0
 11
205.6740206475603
 21
95.74999999999636
 31
0.0
  0
ARC
  5
819
330
1F
100
AcDbEntity
  8
10
100
AcDbCircle
 10
207.0781465418383
 20
95.38218749999623
 30
0.0
 40
1.404125894278184
100
AcDbArc
 50
154.4384694047563
 51
214.4384694047155
  0
ARC
  5
81A
330
1F
100
AcDbEntity
  8
10
100
AcDbCircle
 10
210.9213808963092
 20
92.99999999999636
 30
0.0
 40
5.247360248749616
100
AcDbArc
 50
162.3830311596232
 51
197.6169688403767
  0
LINE
  5
81B
330
1F
100
AcDbEntity
  8
10
100
AcDbLine
 10
205.9201161998021
 20
96.17624999999726
 30
0.0
 11
205.6740206475603
 21
95.74999999999636
 31
0.0
  0
LINE
  5
81C
330
1F
100
AcDbEntity
  8
10
100
AcDbLine
 10
205.9201161998021
 20
89.82374999999548
 30
0.0
 11
205.6740206475603
 21
90.24999999999636
 31
0.0
  0
LINE
  5
81D
330
1F
100
AcDbEntity
  8
10
100
AcDbLine
 10
203.6740206475603
 20
9.206724999996367
 30
0.0
 11
203.6740206475603
 21
11.59327499999517
 31
0.0
  0
LINE
  5
81E
330
1F
100
AcDbEntity
  8
10
100
AcDbLine
 10
203.9807456475607
 20
8.899999999995998
 30
0.0
 11
203.9807456475607
 21
11.89999999999509
 31
0.0
  0
LINE
  5
81F
330
1F
100
AcDbEntity
  8
10
100
AcDbLine
 10
207.2740206475605
 20
11.89999999999509
 30
0.0
 11
203.9807456475607
 21
11.89999999999509
 31
0.0
  0
LINE
  5
820
330
1F
100
AcDbEntity
  8
10
100
AcDbLine
 10
207.2740206475605
 20
8.899999999995998
 30
0.0
 11
203.9807456475607
 21
8.899999999995998
 31
0.0
  0
LINE
  5
821
330
1F
100
AcDbEntity
  8
10
100
AcDbLine
 10
203.9807456475607
 20
11.89999999999509
 30
0.0
 11
203.6740206475603
 21
11.59327499999517
 31
0.0
  0
LINE
  5
822
330
1F
100
AcDbEntity
  8
10
100
AcDbLine
 10
203.9807456475607
 20
8.899999999995998
 30
0.0
 11
203.6740206475603
 21
9.206724999996367
 31
0.0
  0
LINE
  5
823
330
1F
100
AcDbEntity
  8
10
100
AcDbLine
 10
207.5201161998025
 20
7.223749999995106
 30
0.0
 11
207.2740206475605
 21
7.649999999995998
 31
0.0
  0
LINE
  5
824
330
1F
100
AcDbEntity
  8
10
100
AcDbLine
 10
207.5201161998025
 20
13.57624999999598
 30
0.0
 11
207.2740206475605
 21
13.14999999999509
 31
0.0
  0
ARC
  5
825
330
1F
100
AcDbEntity
  8
10
100
AcDbCircle
 10
212.5213808963094
 20
10.39999999999508
 30
0.0
 40
5.247360248749616
100
AcDbArc
 50
162.3830311596232
 51
197.6169688403767
  0
ARC
  5
826
330
1F
100
AcDbEntity
  8
10
100
AcDbCircle
 10
208.6781465418384
 20
12.78218749999632
 30
0.0
 40
1.404125894278184
100
AcDbArc
 50
154.4384694047563
 51
214.4384694047155
  0
LINE
  5
827
330
1F
100
AcDbEntity
  8
10
100
AcDbLine
 10
207.2740206475605
 20
7.649999999995998
 30
0.0
 11
207.2740206475605
 21
13.14999999999509
 31
0.0
  0
ARC
  5
828
330
1F
100
AcDbEntity
  8
10
100
AcDbCircle
 10
208.6781465418384
 20
8.017812499995216
 30
0.0
 40
1.404125894278186
100
AcDbArc
 50
145.5615305952844
 51
205.5615305952436
  0
LINE
  5
829
330
1F
100
AcDbEntity
  8
10
100
AcDbLine
 10
205.6740206475603
 20
94.49999999999636
 30
0.0
 11
203.9807456475607
 21
94.49999999999636
 31
0.0
  0
LINE
  5
82A
330
1F
100
AcDbEntity
  8
10
100
AcDbLine
 10
205.6740206475603
 20
91.49999999999545
 30
0.0
 11
203.9807456475607
 21
91.49999999999545
 31
0.0
  0
LINE
  5
82B
330
1F
100
AcDbEntity
  8
10
100
AcDbLine
 10
203.6740206475603
 20
91.80672499999628
 30
0.0
 11
203.6740206475603
 21
94.19327499999509
 31
0.0
  0
LINE
  5
82C
330
1F
100
AcDbEntity
  8
10
100
AcDbLine
 10
203.9807456475607
 20
91.49999999999545
 30
0.0
 11
203.9807456475607
 21
94.49999999999636
 31
0.0
  0
LINE
  5
82D
330
1F
100
AcDbEntity
  8
10
100
AcDbLine
 10
203.9807456475607
 20
94.49999999999636
 30
0.0
 11
203.6740206475603
 21
94.19327499999509
 31
0.0
  0
LINE
  5
82E
330
1F
100
AcDbEntity
  8
10
100
AcDbLine
 10
203.9807456475607
 20
91.49999999999545
 30
0.0
 11
203.6740206475603
 21
91.80672499999628
 31
0.0
  0
LWPOLYLINE
  5
82F
330
1F
100
AcDbEntity
  8
12
 48
3.0
100
AcDbPolyline
 90
        2
 70
     0
 43
0.0
 10
295.1740206475603
 20
2.641733689761167
 10
295.1740206475603
 20
-2.212272190196472
  0
LWPOLYLINE
  5
830
330
1F
100
AcDbEntity
  8
10
100
AcDbPolyline
 90
        7
 70
     0
 43
0.0
 10
283.1740206475601
 20
98.0
 10
283.1740206475601
 20
0.0
 10
305.1740206475603
 20
0.0
 10
305.1740206475603
 20
1.500000000001364
 10
284.6740206475603
 20
1.500000000001364
 10
284.6740206475603
 20
98.0
 10
283.1740206475601
 20
98.0
  0
LWPOLYLINE
  5
831
330
1F
100
AcDbEntity
  8
10
100
AcDbPolyline
 90
        4
 70
     0
 43
0.0
 10
284.6740206475603
 20
18.0
 10
301.6740206475603
 20
18.0
 10
301.6740206475603
 20
86.0
 10
284.6740206475603
 20
86.0
  0
LWPOLYLINE
  5
832
330
1F
100
AcDbEntity
  8
10
100
AcDbPolyline
 90
        3
 70
     0
 43
0.0
 10
293.1740206475603
 20
18.0
 10
293.1740206475603
 20
16.5
 10
284.6740206475603
 20
16.5
  0
LWPOLYLINE
  5
833
330
1F
100
AcDbEntity
  8
10
100
AcDbPolyline
 90
        3
 70
     0
 43
0.0
 10
284.6740206475603
 20
87.5
 10
293.1740206475603
 20
87.5
 10
293.1740206475603
 20
86.0
  0
LINE
  5
836
330
1F
100
AcDbEntity
  8
10
100
AcDbLine
 10
285.6740206475604
 20
89.50000000000001
 30
0.0
 11
285.6740206475604
 21
96.5
 31
0.0
  0
LINE
  5
837
330
1F
100
AcDbEntity
  8
10
100
AcDbLine
 10
285.1740206475603
 20
96.5
 30
0.0
 11
285.1740206475603
 21
89.50000000000001
 31
0.0
  0
LINE
  5
838
330
1F
100
AcDbEntity
  8
10
100
AcDbLine
 10
285.6740206475604
 20
96.5
 30
0.0
 11
285.1740206475603
 21
96.5
 31
0.0
  0
LINE
  5
839
330
1F
100
AcDbEntity
  8
10
100
AcDbLine
 10
285.1740206475603
 20
89.50000000000001
 30
0.0
 11
285.6740206475604
 21
89.50000000000001
 31
0.0
  0
LINE
  5
83A
330
1F
100
AcDbEntity
  8
10
100
AcDbLine
 10
286.662188049089
 20
90.28645344529923
 30
0.0
 11
285.6740206475604
 21
90.20000000000027
 31
0.0
  0
LINE
  5
83B
330
1F
100
AcDbEntity
  8
10
100
AcDbLine
 10
286.662188049089
 20
95.71354655470122
 30
0.0
 11
285.6740206475604
 21
95.80000000000154
 31
0.0
  0
ARC
  5
83C
330
1F
100
AcDbEntity
  8
10
100
AcDbCircle
 10
283.0740206475597
 20
93.0
 30
0.0
 40
5.0
100
AcDbArc
 50
336.4528627629333
 51
23.54713723706668
  0
ARC
  5
83D
330
1F
100
AcDbEntity
  8
10
100
AcDbCircle
 10
286.557601157792
 20
94.51811291699142
 30
0.0
 40
1.199999999999999
100
AcDbArc
 50
23.54713723706668
 51
84.99999999997401
  0
ARC
  5
83E
330
1F
100
AcDbEntity
  8
10
100
AcDbCircle
 10
286.557601157792
 20
91.4818870830104
 30
0.0
 40
1.199999999999999
100
AcDbArc
 50
275.0000000000259
 51
336.4528627629333
  0
LINE
  5
83F
330
1F
100
AcDbEntity
  8
10
100
AcDbLine
 10
285.6740206475604
 20
91.65325000000121
 30
0.0
 11
285.6740206475604
 21
90.20000000000027
 31
0.0
  0
LINE
  5
840
330
1F
100
AcDbEntity
  8
10
100
AcDbLine
 10
285.6740206475604
 20
95.80000000000154
 30
0.0
 11
285.6740206475604
 21
94.34675000000016
 31
0.0
  0
LINE
  5
841
330
1F
100
AcDbEntity
  8
10
100
AcDbLine
 10
285.6740206475604
 20
94.34675000000016
 30
0.0
 11
285.6740206475604
 21
91.65325000000121
 31
0.0
  0
LWPOLYLINE
  5
842
330
1F
100
AcDbEntity
  8
10
100
AcDbPolyline
 90
        4
 70
     0
 43
0.0
 10
284.6740206475603
 20
97.50000000000136
 10
285.1740206475603
 20
97.50000000000136
 10
285.1740206475603
 20
88.50000000000136
 10
284.6740206475603
 20
88.50000000000136
  0
LWPOLYLINE
  5
843
330
1F
100
AcDbEntity
  8
10
100
AcDbPolyline
 90
        4
 70
     0
 43
0.0
 10
284.6740206475603
 20
14.90000000000009
 10
285.1740206475603
 20
14.90000000000009
 10
285.1740206475603
 20
5.90000000000009
 10
284.6740206475603
 20
5.90000000000009
  0
LINE
  5
844
330
1F
100
AcDbEntity
  8
10
100
AcDbLine
 10
285.6740206475604
 20
11.74674999999933
 30
0.0
 11
285.6740206475604
 21
9.053249999999934
 31
0.0
  0
LINE
  5
845
330
1F
100
AcDbEntity
  8
10
100
AcDbLine
 10
285.6740206475604
 20
13.20000000000027
 30
0.0
 11
285.6740206475604
 21
11.74674999999933
 31
0.0
  0
LINE
  5
846
330
1F
100
AcDbEntity
  8
10
100
AcDbLine
 10
285.6740206475604
 20
9.053249999999934
 30
0.0
 11
285.6740206475604
 21
7.600000000000363
 31
0.0
  0
ARC
  5
847
330
1F
100
AcDbEntity
  8
10
100
AcDbCircle
 10
286.557601157792
 20
8.881887083009132
 30
0.0
 40
1.199999999999999
100
AcDbArc
 50
275.0000000000259
 51
336.4528627629333
  0
ARC
  5
848
330
1F
100
AcDbEntity
  8
10
100
AcDbCircle
 10
286.557601157792
 20
11.9181129169915
 30
0.0
 40
1.199999999999999
100
AcDbArc
 50
23.54713723706668
 51
84.99999999997401
  0
ARC
  5
849
330
1F
100
AcDbEntity
  8
10
100
AcDbCircle
 10
283.0740206475597
 20
10.40000000000009
 30
0.0
 40
5.0
100
AcDbArc
 50
336.4528627629333
 51
23.54713723706668
  0
LINE
  5
84A
330
1F
100
AcDbEntity
  8
10
100
AcDbLine
 10
286.662188049089
 20
13.11354655470131
 30
0.0
 11
285.6740206475604
 21
13.20000000000027
 31
0.0
  0
LINE
  5
84B
330
1F
100
AcDbEntity
  8
10
100
AcDbLine
 10
286.662188049089
 20
7.686453445299321
 30
0.0
 11
285.6740206475604
 21
7.600000000000363
 31
0.0
  0
LINE
  5
84C
330
1F
100
AcDbEntity
  8
10
100
AcDbLine
 10
285.1740206475603
 20
6.90000000000009
 30
0.0
 11
285.6740206475604
 21
6.90000000000009
 31
0.0
  0
LINE
  5
84D
330
1F
100
AcDbEntity
  8
10
100
AcDbLine
 10
285.6740206475604
 20
13.90000000000009
 30
0.0
 11
285.1740206475603
 21
13.90000000000009
 31
0.0
  0
LINE
  5
84E
330
1F
100
AcDbEntity
  8
10
100
AcDbLine
 10
285.1740206475603
 20
13.90000000000009
 30
0.0
 11
285.1740206475603
 21
6.90000000000009
 31
0.0
  0
LINE
  5
84F
330
1F
100
AcDbEntity
  8
10
100
AcDbLine
 10
285.6740206475604
 20
6.90000000000009
 30
0.0
 11
285.6740206475604
 21
13.90000000000009
 31
0.0
  0
LINE
  5
850
330
1F
100
AcDbEntity
  8
10
100
AcDbLine
 10
212.1740206475603
 20
16.5
 30
0.0
 11
212.1740206475603
 21
98.50000000000001
 31
0.0
  0
LINE
  5
851
330
1F
100
AcDbEntity
  8
10
100
AcDbLine
 10
212.1740206475603
 20
98.50000000000001
 30
0.0
 11
283.1740206475601
 21
98.50000000000001
 31
0.0
  0
LINE
  5
852
330
1F
100
AcDbEntity
  8
10
100
AcDbLine
 10
283.1740206475601
 20
98.50000000000001
 30
0.0
 11
283.1740206475601
 21
16.5
 31
0.0
  0
LINE
  5
853
330
1F
100
AcDbEntity
  8
10
100
AcDbLine
 10
212.1740206475603
 20
15.90000000000009
 30
0.0
 11
212.1740206475603
 21
4.90000000000009
 31
0.0
  0
LWPOLYLINE
  5
854
330
1F
100
AcDbEntity
  8
10
100
AcDbPolyline
 90
        4
 70
     0
 43
0.0
 10
212.1740206475603
 20
4.90000000000009
 10
283.1740206475601
 20
4.90000000000009
 10
283.1740206475601
 20
15.90000000000009
 10
212.1740206475603
 20
15.90000000000009
  0
LWPOLYLINE
  5
855
330
1F
100
AcDbEntity
  8
10
100
AcDbPolyline
 90
        2
 70
     0
 43
0.0
 10
284.6740206475603
 20
16.5
 10
212.1740206475603
 20
16.5
  0
ARC
  5
856
330
1F
100
AcDbEntity
  8
10
100
AcDbCircle
 10
206.669894753282
 20
90.61781249999512
 30
0.0
 40
1.404125894278186
100
AcDbArc
 50
334.4384694047563
 51
34.43846940471554
  0
LINE
  5
857
330
1F
100
AcDbEntity
  8
10
100
AcDbLine
 10
208.0740206475597
 20
90.24999999999636
 30
0.0
 11
208.0740206475597
 21
95.74999999999636
 31
0.0
  0
ARC
  5
858
330
1F
100
AcDbEntity
  8
10
100
AcDbCircle
 10
202.8266603988102
 20
92.99999999999636
 30
0.0
 40
5.247360248749637
100
AcDbArc
 50
342.3830311596232
 51
17.61696884037677
  0
ARC
  5
859
330
1F
100
AcDbEntity
  8
10
100
AcDbCircle
 10
206.669894753282
 20
95.38218749999623
 30
0.0
 40
1.404125894278186
100
AcDbArc
 50
325.5615305952844
 51
25.56153059524364
  0
LINE
  5
85A
330
1F
100
AcDbEntity
  8
10
100
AcDbLine
 10
207.8279250953181
 20
96.17624999999726
 30
0.0
 11
208.0740206475597
 21
95.74999999999636
 31
0.0
  0
LINE
  5
85B
330
1F
100
AcDbEntity
  8
10
100
AcDbLine
 10
207.8279250953181
 20
89.82374999999548
 30
0.0
 11
208.0740206475597
 21
90.24999999999636
 31
0.0
  0
LINE
  5
85C
330
1F
100
AcDbEntity
  8
10
100
AcDbLine
 10
208.0740206475597
 20
96.49999999999636
 30
0.0
 11
208.0740206475597
 21
95.74999999999636
 31
0.0
  0
LINE
  5
85D
330
1F
100
AcDbEntity
  8
10
100
AcDbLine
 10
208.0740206475597
 20
95.74999999999636
 30
0.0
 11
208.0740206475597
 21
90.24999999999636
 31
0.0
  0
LINE
  5
85E
330
1F
100
AcDbEntity
  8
10
100
AcDbLine
 10
208.0740206475597
 20
90.24999999999636
 30
0.0
 11
208.0740206475597
 21
89.49999999999636
 31
0.0
  0
LINE
  5
85F
330
1F
100
AcDbEntity
  8
10
100
AcDbLine
 10
208.5740206475597
 20
89.49999999999636
 30
0.0
 11
208.5740206475597
 21
96.49999999999636
 31
0.0
  0
LINE
  5
860
330
1F
100
AcDbEntity
  8
10
100
AcDbLine
 10
208.0740206475597
 20
89.49999999999636
 30
0.0
 11
208.5740206475597
 21
89.49999999999636
 31
0.0
  0
LINE
  5
861
330
1F
100
AcDbEntity
  8
10
100
AcDbLine
 10
208.5740206475597
 20
96.49999999999636
 30
0.0
 11
208.0740206475597
 21
96.49999999999636
 31
0.0
  0
LWPOLYLINE
  5
862
330
1F
100
AcDbEntity
  8
10
100
AcDbPolyline
 90
        4
 70
     0
 43
0.0
 10
209.0740206475597
 20
97.50000000000136
 10
208.5740206475597
 20
97.50000000000136
 10
208.5740206475597
 20
88.50000000000136
 10
209.0740206475597
 20
88.50000000000136
  0
LWPOLYLINE
  5
863
330
1F
100
AcDbEntity
  8
10
100
AcDbPolyline
 90
        4
 70
     0
 43
0.0
 10
210.6740206475604
 20
14.90000000000009
 10
210.1740206475603
 20
14.90000000000009
 10
210.1740206475603
 20
5.90000000000009
 10
210.6740206475604
 20
5.90000000000009
  0
LINE
  5
864
330
1F
100
AcDbEntity
  8
10
100
AcDbLine
 10
210.1740206475603
 20
13.89999999999508
 30
0.0
 11
209.6740206475603
 21
13.89999999999508
 31
0.0
  0
LINE
  5
865
330
1F
100
AcDbEntity
  8
10
100
AcDbLine
 10
209.6740206475603
 20
6.899999999995088
 30
0.0
 11
210.1740206475603
 21
6.899999999995088
 31
0.0
  0
LINE
  5
866
330
1F
100
AcDbEntity
  8
10
100
AcDbLine
 10
210.1740206475603
 20
6.899999999995088
 30
0.0
 11
210.1740206475603
 21
13.89999999999508
 31
0.0
  0
LINE
  5
867
330
1F
100
AcDbEntity
  8
10
100
AcDbLine
 10
209.6740206475603
 20
7.649999999995998
 30
0.0
 11
209.6740206475603
 21
6.899999999995088
 31
0.0
  0
LINE
  5
868
330
1F
100
AcDbEntity
  8
10
100
AcDbLine
 10
209.6740206475603
 20
13.14999999999509
 30
0.0
 11
209.6740206475603
 21
7.649999999995998
 31
0.0
  0
LINE
  5
869
330
1F
100
AcDbEntity
  8
10
100
AcDbLine
 10
209.6740206475603
 20
13.89999999999508
 30
0.0
 11
209.6740206475603
 21
13.14999999999509
 31
0.0
  0
LINE
  5
86A
330
1F
100
AcDbEntity
  8
10
100
AcDbLine
 10
209.4279250953184
 20
7.223749999995106
 30
0.0
 11
209.6740206475603
 21
7.649999999995998
 31
0.0
  0
LINE
  5
86B
330
1F
100
AcDbEntity
  8
10
100
AcDbLine
 10
209.4279250953184
 20
13.57624999999598
 30
0.0
 11
209.6740206475603
 21
13.14999999999509
 31
0.0
  0
ARC
  5
86C
330
1F
100
AcDbEntity
  8
10
100
AcDbCircle
 10
208.2698947532823
 20
12.78218749999632
 30
0.0
 40
1.404125894278186
100
AcDbArc
 50
325.5615305952844
 51
25.56153059524364
  0
ARC
  5
86D
330
1F
100
AcDbEntity
  8
10
100
AcDbCircle
 10
204.4266603988105
 20
10.39999999999508
 30
0.0
 40
5.247360248749637
100
AcDbArc
 50
342.3830311596232
 51
17.61696884037677
  0
LINE
  5
86E
330
1F
100
AcDbEntity
  8
10
100
AcDbLine
 10
209.6740206475603
 20
7.649999999995998
 30
0.0
 11
209.6740206475603
 21
13.14999999999509
 31
0.0
  0
ARC
  5
86F
330
1F
100
AcDbEntity
  8
10
100
AcDbCircle
 10
208.2698947532823
 20
8.017812499995216
 30
0.0
 40
1.404125894278186
100
AcDbArc
 50
334.4384694047563
 51
34.43846940471554
  0
CIRCLE
  5
870
330
1F
100
AcDbEntity
  8
10
100
AcDbCircle
 10
5.0
 20
10.40000000000009
 30
0.0
 40
3.5
  0
LINE
  5
871
330
1F
100
AcDbEntity
  8
12
 48
5.0
100
AcDbLine
 10
-1.5
 20
10.40000000000009
 30
0.0
 11
11.5
 21
10.40000000000009
 31
0.0
  0
LINE
  5
872
330
1F
100
AcDbEntity
  8
12
 48
5.0
100
AcDbLine
 10
5.0
 20
16.90000000000009
 30
0.0
 11
5.0
 21
3.90000000000009
 31
0.0
  0
LINE
  5
874
330
1F
100
AcDbEntity
  8
10
100
AcDbLine
 10
2.25
 20
8.812286759728976
 30
0.0
 11
5.0
 21
7.224573519457408
 31
0.0
  0
LINE
  5
875
330
1F
100
AcDbEntity
  8
10
100
AcDbLine
 10
5.0
 20
7.224573519457408
 30
0.0
 11
7.75
 21
8.812286759728976
 31
0.0
  0
LINE
  5
876
330
1F
100
AcDbEntity
  8
10
100
AcDbLine
 10
7.75
 20
8.812286759728976
 30
0.0
 11
7.75
 21
11.9877132402712
 31
0.0
  0
LINE
  5
877
330
1F
100
AcDbEntity
  8
10
100
AcDbLine
 10
7.75
 20
11.9877132402712
 30
0.0
 11
5.0
 21
13.57542648054322
 31
0.0
  0
LINE
  5
878
330
1F
100
AcDbEntity
  8
10
100
AcDbLine
 10
5.0
 20
13.57542648054322
 30
0.0
 11
2.25
 21
11.9877132402712
 31
0.0
  0
LINE
  5
879
330
1F
100
AcDbEntity
  8
10
100
AcDbLine
 10
2.25
 20
11.9877132402712
 30
0.0
 11
2.25
 21
8.812286759728976
 31
0.0
  0
CIRCLE
  5
87A
330
1F
100
AcDbEntity
  8
10
100
AcDbCircle
 10
5.0
 20
10.40000000000009
 30
0.0
 40
2.75
  0
CIRCLE
  5
87C
330
1F
100
AcDbEntity
  8
10
100
AcDbCircle
 10
5.0
 20
93.0
 30
0.0
 40
3.5
  0
LINE
  5
87D
330
1F
100
AcDbEntity
  8
12
 48
5.0
100
AcDbLine
 10
-1.5
 20
93.0
 30
0.0
 11
11.5
 21
93.0
 31
0.0
  0
LINE
  5
87E
330
1F
100
AcDbEntity
  8
12
 48
5.0
100
AcDbLine
 10
5.0
 20
99.50000000000001
 30
0.0
 11
5.0
 21
86.5
 31
0.0
  0
LINE
  5
880
330
1F
100
AcDbEntity
  8
10
100
AcDbLine
 10
2.25
 20
91.41228675972934
 30
0.0
 11
5.0
 21
89.82457351945731
 31
0.0
  0
LINE
  5
881
330
1F
100
AcDbEntity
  8
10
100
AcDbLine
 10
5.0
 20
89.82457351945731
 30
0.0
 11
7.75
 21
91.41228675972934
 31
0.0
  0
LINE
  5
882
330
1F
100
AcDbEntity
  8
10
100
AcDbLine
 10
7.75
 20
91.41228675972934
 30
0.0
 11
7.75
 21
94.58771324027248
 31
0.0
  0
LINE
  5
883
330
1F
100
AcDbEntity
  8
10
100
AcDbLine
 10
7.75
 20
94.58771324027248
 30
0.0
 11
5.0
 21
96.17542648054314
 31
0.0
  0
LINE
  5
884
330
1F
100
AcDbEntity
  8
10
100
AcDbLine
 10
5.0
 20
96.17542648054314
 30
0.0
 11
2.25
 21
94.58771324027248
 31
0.0
  0
LINE
  5
885
330
1F
100
AcDbEntity
  8
10
100
AcDbLine
 10
2.25
 20
94.58771324027248
 30
0.0
 11
2.25
 21
91.41228675972934
 31
0.0
  0
CIRCLE
  5
886
330
1F
100
AcDbEntity
  8
10
100
AcDbCircle
 10
5.0
 20
93.0
 30
0.0
 40
2.75
  0
LWPOLYLINE
  5
888
330
1F
100
AcDbEntity
  8
10
100
AcDbPolyline
 90
        2
 70
     0
 43
0.0
 10
53.75
 20
1.500000000001364
 10
0.0
 20
1.500000000001364
  0
LWPOLYLINE
  5
889
330
1F
100
AcDbEntity
  8
10
100
AcDbPolyline
 90
        3
 70
     0
 43
0.0
 10
0.0
 20
88.50000000000136
 10
0.0
 20
0.0
 10
53.75
 20
0.0
  0
CIRCLE
  5
88A
330
1F
100
AcDbEntity
  8
10
100
AcDbCircle
 10
5.0
 20
10.40000000000009
 30
0.0
 40
4.5
1001
GENIUS_GENOREF_13
1005
0
1005
0
1005
0
  0
LWPOLYLINE
  5
88B
330
1F
100
AcDbEntity
  8
10
100
AcDbPolyline
 90
        4
 70
     1
 43
0.0
 10
0.0
 20
88.50000000000136
 10
107.4999999999999
 20
88.50000000000136
 10
107.4999999999999
 20
113.5000000000013
 10
0.0
 20
113.5000000000013
1001
GENIUS_GENREC_14
1002
{
1000
PYDIR
1011
0.0
1021
113.5000000000013
1031
0.0
1002
}
1002
{
1000
PXDIR
1011
107.4999999999999
1021
88.50000000000136
1031
0.0
1002
}
1002
{
1000
PORI
1011
0.0
1021
88.50000000000136
1031
0.0
1002
}
1002
{
1000
PINS
1011
0.0
1021
88.50000000000136
1031
0.0
1002
}
1002
{
1000
PINS2
1011
107.4999999999999
1021
113.5000000000013
1031
0.0
1002
}
1002
{
1000
C
1070
     1
1002
}
1001
GENIUS_GENODEF_13
1002
{
1000
HIER
1070
     0
1002
}
1002
{
1000
MANEDIT
1070
     0
1002
}
1002
{
1000
NOSEL
1070
     0
1002
}
1002
{
1000
BEHIND
1070
     0
1002
}
1002
{
1000
OTHER
1070
     0
1002
}
1002
{
1000
REACTOR
1002
}
1001
GENIUS_GENOBJ-N-REC_13
1002
{
1000
OWNER
1000
GEN
1002
}
  0
LWPOLYLINE
  5
88C
330
1F
100
AcDbEntity
  8
10
100
AcDbPolyline
 90
        2
 70
     0
 43
0.0
 10
0.0
 20
15.90000000000009
 10
0.0
 20
16.5
  0
CIRCLE
  5
88D
330
1F
100
AcDbEntity
  8
10
100
AcDbCircle
 10
102.4999999999999
 20
10.40000000000009
 30
0.0
 40
3.5
  0
LINE
  5
88E
330
1F
100
AcDbEntity
  8
12
 48
5.0
100
AcDbLine
 10
96.0
 20
10.40000000000009
 30
0.0
 11
109.0
 21
10.40000000000009
 31
0.0
  0
LINE
  5
88F
330
1F
100
AcDbEntity
  8
12
 48
5.0
100
AcDbLine
 10
102.4999999999999
 20
16.90000000000009
 30
0.0
 11
102.4999999999999
 21
3.90000000000009
 31
0.0
  0
LINE
  5
891
330
1F
100
AcDbEntity
  8
10
100
AcDbLine
 10
99.75000000000001
 20
8.812286759728976
 30
0.0
 11
102.4999999999999
 21
7.224573519457408
 31
0.0
  0
LINE
  5
892
330
1F
100
AcDbEntity
  8
10
100
AcDbLine
 10
102.4999999999999
 20
7.224573519457408
 30
0.0
 11
105.2499999999999
 21
8.812286759728976
 31
0.0
  0
LINE
  5
893
330
1F
100
AcDbEntity
  8
10
100
AcDbLine
 10
105.2499999999999
 20
8.812286759728976
 30
0.0
 11
105.2499999999999
 21
11.9877132402712
 31
0.0
  0
LINE
  5
894
330
1F
100
AcDbEntity
  8
10
100
AcDbLine
 10
105.2499999999999
 20
11.9877132402712
 30
0.0
 11
102.4999999999999
 21
13.57542648054322
 31
0.0
  0
LINE
  5
895
330
1F
100
AcDbEntity
  8
10
100
AcDbLine
 10
102.4999999999999
 20
13.57542648054322
 30
0.0
 11
99.75000000000001
 21
11.9877132402712
 31
0.0
  0
LINE
  5
896
330
1F
100
AcDbEntity
  8
10
100
AcDbLine
 10
99.75000000000001
 20
11.9877132402712
 30
0.0
 11
99.75000000000001
 21
8.812286759728976
 31
0.0
  0
CIRCLE
  5
897
330
1F
100
AcDbEntity
  8
10
100
AcDbCircle
 10
102.4999999999999
 20
10.40000000000009
 30
0.0
 40
2.75
  0
CIRCLE
  5
899
330
1F
100
AcDbEntity
  8
10
100
AcDbCircle
 10
102.4999999999999
 20
93.0
 30
0.0
 40
3.5
  0
LINE
  5
89A
330
1F
100
AcDbEntity
  8
12
 48
5.0
100
AcDbLine
 10
96.0
 20
93.0
 30
0.0
 11
109.0
 21
93.0
 31
0.0
  0
LINE
  5
89B
330
1F
100
AcDbEntity
  8
12
 48
5.0
100
AcDbLine
 10
102.4999999999999
 20
99.50000000000001
 30
0.0
 11
102.4999999999999
 21
86.5
 31
0.0
  0
LINE
  5
89D
330
1F
100
AcDbEntity
  8
10
100
AcDbLine
 10
99.75000000000001
 20
91.41228675972934
 30
0.0
 11
102.4999999999999
 21
89.82457351945731
 31
0.0
  0
LINE
  5
89E
330
1F
100
AcDbEntity
  8
10
100
AcDbLine
 10
102.4999999999999
 20
89.82457351945731
 30
0.0
 11
105.2499999999999
 21
91.41228675972934
 31
0.0
  0
LINE
  5
89F
330
1F
100
AcDbEntity
  8
10
100
AcDbLine
 10
105.2499999999999
 20
91.41228675972934
 30
0.0
 11
105.2499999999999
 21
94.58771324027248
 31
0.0
  0
LINE
  5
8A0
330
1F
100
AcDbEntity
  8
10
100
AcDbLine
 10
105.2499999999999
 20
94.58771324027248
 30
0.0
 11
102.4999999999999
 21
96.17542648054314
 31
0.0
  0
LINE
  5
8A1
330
1F
100
AcDbEntity
  8
10
100
AcDbLine
 10
102.4999999999999
 20
96.17542648054314
 30
0.0
 11
99.75000000000001
 21
94.58771324027248
 31
0.0
  0
LINE
  5
8A2
330
1F
100
AcDbEntity
  8
10
100
AcDbLine
 10
99.75000000000001
 20
94.58771324027248
 30
0.0
 11
99.75000000000001
 21
91.41228675972934
 31
0.0
  0
CIRCLE
  5
8A3
330
1F
100
AcDbEntity
  8
10
100
AcDbCircle
 10
102.4999999999999
 20
93.0
 30
0.0
 40
2.75
  0
CIRCLE
  5
8A5
330
1F
100
AcDbEntity
  8
10
100
AcDbCircle
 10
102.4999999999999
 20
10.40000000000009
 30
0.0
 40
4.5
1001
GENIUS_GENOREF_13
1005
0
1005
0
1005
0
  0
LWPOLYLINE
  5
8A6
330
1F
100
AcDbEntity
  8
10
100
AcDbPolyline
 90
        3
 70
     0
 43
0.0
 10
107.4999999999999
 20
89.0
 10
107.4999999999999
 20
0.0
 10
53.75
 20
0.0
  0
LWPOLYLINE
  5
8A7
330
1F
100
AcDbEntity
  8
10
100
AcDbPolyline
 90
        2
 70
     0
 43
0.0
 10
53.75
 20
1.500000000001364
 10
107.4999999999999
 20
1.500000000001364
  0
LWPOLYLINE
  5
8A8
330
1F
100
AcDbEntity
  8
12
100
AcDbPolyline
 90
        2
 70
     0
 43
0.0
 10
91.25
 20
2.641733689761167
 10
91.25
 20
-2.212272190196472
  0
LWPOLYLINE
  5
8A9
330
1F
100
AcDbEntity
  8
10
100
AcDbPolyline
 90
        2
 70
     0
 43
0.0
 10
97.5
 20
16.5
 10
97.5
 20
16.5
  0
LWPOLYLINE
  5
8AA
330
1F
100
AcDbEntity
  8
10
100
AcDbPolyline
 90
        5
 70
     0
 43
0.0
 10
10.0
 20
16.5
 10
11.0
 20
16.5
 10
11.0
 20
87.5
 10
42.75
 20
87.5
 10
42.75
 20
86.0
  0
LWPOLYLINE
  5
8AB
330
1F
100
AcDbEntity
  8
12
100
AcDbPolyline
 90
        2
 70
     0
 43
0.0
 10
16.25
 20
2.641733689761167
 10
16.25
 20
-2.212272190196472
  0
LWPOLYLINE
  5
8AC
330
1F
100
AcDbEntity
  8
10
100
AcDbPolyline
 90
        4
 70
     0
 43
0.0
 10
42.75
 20
18.0
 10
42.75
 20
16.5
 10
64.75
 20
16.5
 10
64.75
 20
18.0
  0
LWPOLYLINE
  5
8AD
330
1F
100
AcDbEntity
  8
10
100
AcDbPolyline
 90
        5
 70
     0
 43
0.0
 10
64.75
 20
86.0
 10
64.75
 20
87.5
 10
96.5
 20
87.5
 10
96.5
 20
16.5
 10
97.5
 20
16.5
  0
LWPOLYLINE
  5
8AE
330
1F
100
AcDbEntity
  8
10
100
AcDbPolyline
 90
        2
 70
     0
 43
0.0
 10
10.0
 20
15.90000000000009
 10
97.5
 20
15.90000000000009
  0
LWPOLYLINE
  5
8AF
330
1F
100
AcDbEntity
  8
10
100
AcDbPolyline
 90
        4
 70
     0
 43
0.0
 10
97.5
 20
88.50000000000136
 10
97.5
 20
15.0
 10
10.0
 20
15.0
 10
10.0
 20
88.50000000000136
  0
LWPOLYLINE
  5
8B0
330
1F
100
AcDbEntity
  8
10
100
AcDbPolyline
 90
        4
 70
     1
 43
0.0
 10
11.5
 20
86.0
 10
96.0
 20
86.0
 10
96.0
 20
18.0
 10
11.5
 20
18.0
1001
GENIUS_GENREC_14
1002
{
1000
PYDIR
1011
11.5
1021
18.0
1031
0.0
1002
}
1002
{
1000
PXDIR
1011
96.0
1021
86.0
1031
0.0
1002
}
1002
{
1000
PORI
1011
11.5
1021
86.0
1031
0.0
1002
}
1002
{
1000
PINS
1011
11.5
1021
86.0
1031
0.0
1002
}
1002
{
1000
PINS2
1011
96.0
1021
18.0
1031
0.0
1002
}
1002
{
1000
C
1070
     1
1002
}
1001
GENIUS_GENODEF_13
1002
{
1000
HIER
1070
     0
1002
}
1002
{
1000
MANEDIT
1070
     0
1002
}
1002
{
1000
NOSEL
1070
     0
1002
}
1002
{
1000
BEHIND
1070
     0
1002
}
1002
{
1000
OTHER
1070
     0
1002
}
1002
{
1000
REACTOR
1002
}
1001
GENIUS_GENOBJ-N-REC_13
1002
{
1000
OWNER
1000
GEN
1002
}
  0
LWPOLYLINE
  5
8B1
330
1F
100
AcDbEntity
  8
10
100
AcDbPolyline
 90
        2
 70
     0
 43
0.0
 10
97.5
 20
16.5
 10
10.0
 20
16.5
  0
CIRCLE
  5
8B2
330
1F
100
AcDbEntity
  8
10
100
AcDbCircle
 10
102.4999999999999
 20
93.0
 30
0.0
 40
4.5
1001
GENIUS_GENOREF_13
1005
0
1005
0
1005
0
  0
CIRCLE
  5
8B3
330
1F
100
AcDbEntity
  8
10
100
AcDbCircle
 10
5.0
 20
93.0
 30
0.0
 40
4.5
1001
GENIUS_GENOREF_13
1005
0
1005
0
1005
0
  0
LINE
  5
8B5
330
1F
100
AcDbEntity
  8
10
100
AcDbLine
 10
258.6739706475595
 20
131.7500000000013
 30
0.0
 11
295.6740206475599
 21
131.7500000000013
 31
0.0
  0
LINE
  5
8B6
330
1F
100
AcDbEntity
  8
10
100
AcDbLine
 10
310.6740206475601
 20
116.7500000000013
 30
0.0
 11
310.6740206475604
 21
115.0764939443961
 31
0.0
  0
ARC
  5
8B7
330
1F
100
AcDbEntity
  8
10
100
AcDbCircle
 10
295.6740206475601
 20
116.7500000000013
 30
0.0
 40
15.0
100
AcDbArc
 50
0.0
 51
90.0
  0
LINE
  5
8B8
330
1F
100
AcDbEntity
  8
10
100
AcDbLine
 10
309.7697808690052
 20
112.2086117626404
 30
0.0
 11
299.347924660423
 21
98.75868104836218
 31
0.0
  0
ARC
  5
8B9
330
1F
100
AcDbEntity
  8
10
100
AcDbCircle
 10
305.6740206475603
 20
115.0764939443961
 30
0.0
 40
5.0
100
AcDbArc
 50
324.9999999999882
 51
0.0
  0
LINE
  5
8BA
330
1F
100
AcDbEntity
  8
10
100
AcDbLine
 10
297.5394451033116
 20
93.02291668485031
 30
0.0
 11
297.5394451033116
 21
86.0
 31
0.0
  0
ARC
  5
8BB
330
1F
100
AcDbEntity
  8
10
100
AcDbCircle
 10
307.5394451033119
 20
93.02291668485031
 30
0.0
 40
10.0
100
AcDbArc
 50
144.9999999999882
 51
180.0
  0
LINE
  5
8BC
330
1F
100
AcDbEntity
  8
10
100
AcDbLine
 10
90.19919999999956
 20
128.4999999999999
 30
0.0
 11
90.19919999999956
 21
154.5000000000013
 31
0.0
  0
LINE
  5
8BD
330
1F
100
AcDbEntity
  8
10
100
AcDbLine
 10
86.25
 20
128.4999999999999
 30
0.0
 11
86.25
 21
151.5
 31
0.0
  0
LINE
  5
8BE
330
1F
100
AcDbEntity
  8
10
100
AcDbLine
 10
86.25
 20
151.5
 30
0.0
 11
86.25
 21
128.4999999999999
 31
0.0
  0
LINE
  5
8BF
330
1F
100
AcDbEntity
  8
10
100
AcDbLine
 10
40.30080000000078
 20
151.5
 30
0.0
 11
40.30080000000089
 21
128.4999999999999
 31
0.0
  0
LINE
  5
8C0
330
1F
100
AcDbEntity
  8
10
100
AcDbLine
 10
44.25000000000046
 20
128.4999999999999
 30
0.0
 11
44.25000000000022
 21
151.5
 31
0.0
  0
LINE
  5
8C1
330
1F
100
AcDbEntity
  8
10
100
AcDbLine
 10
21.25000000000045
 20
128.4999999999999
 30
0.0
 11
21.24999999999988
 21
151.5
 31
0.0
  0
LINE
  5
8C2
330
1F
100
AcDbEntity
  8
10
100
AcDbLine
 10
17.30080000000066
 20
128.4999999999999
 30
0.0
 11
17.30080000000066
 21
154.5000000000013
 31
0.0
  0
LINE
  5
8C3
330
1F
100
AcDbEntity
  8
10
100
AcDbLine
 10
63.30080000000044
 20
151.5
 30
0.0
 11
63.30080000000044
 21
128.4999999999999
 31
0.0
  0
LINE
  5
8C4
330
1F
100
AcDbEntity
  8
10
100
AcDbLine
 10
67.25
 20
128.4999999999999
 30
0.0
 11
67.25
 21
151.5
 31
0.0
  0
LINE
  5
8C5
330
1F
100
AcDbEntity
  8
10
100
AcDbLine
 10
4.25
 20
113.5000000000013
 30
0.0
 11
103.2500000000002
 21
113.5000000000013
 31
0.0
  0
LINE
  5
8C6
330
1F
100
AcDbEntity
  8
10
100
AcDbLine
 10
44.25000000000034
 20
133.5000000000013
 30
0.0
 11
63.30080000000044
 21
133.5000000000013
 31
0.0
  0
LINE
  5
8C7
330
1F
100
AcDbEntity
  8
10
100
AcDbLine
 10
63.30080000000044
 20
139.0000000000013
 30
0.0
 11
58.44471472488203
 21
139.0000000000013
 31
0.0
  0
LINE
  5
8C8
330
1F
100
AcDbEntity
  8
10
100
AcDbLine
 10
49.10608527511829
 20
139.0
 30
0.0
 11
44.25000000000034
 21
139.0000000000013
 31
0.0
  0
LINE
  5
8C9
330
1F
100
AcDbEntity
  8
10
100
AcDbLine
 10
4.25
 20
128.4999999999999
 30
0.0
 11
4.25
 21
113.5000000000013
 31
0.0
  0
LINE
  5
8CA
330
1F
100
AcDbEntity
  8
10
100
AcDbLine
 10
4.25
 20
128.4999999999999
 30
0.0
 11
19.49999999999988
 21
128.4999999999999
 31
0.0
  0
LINE
  5
8CB
330
1F
100
AcDbEntity
  8
10
100
AcDbLine
 10
19.74999999999988
 20
128.4999999999999
 30
0.0
 11
4.25
 21
128.4999999999999
 31
0.0
  0
LINE
  5
8CC
330
1F
100
AcDbEntity
  8
10
100
AcDbLine
 10
21.25000000000022
 20
133.5000000000013
 30
0.0
 11
40.30080000000089
 21
133.5000000000013
 31
0.0
  0
LINE
  5
8CD
330
1F
100
AcDbEntity
  8
10
100
AcDbLine
 10
19.75000000000045
 20
128.4999999999999
 30
0.0
 11
21.25000000000045
 21
128.4999999999999
 31
0.0
  0
LINE
  5
8CE
330
1F
100
AcDbEntity
  8
10
100
AcDbLine
 10
40.30080000000089
 20
128.4999999999999
 30
0.0
 11
44.25000000000046
 21
128.4999999999999
 31
0.0
  0
LINE
  5
8CF
330
1F
100
AcDbEntity
  8
10
100
AcDbLine
 10
40.30080000000089
 20
139.0000000000013
 30
0.0
 11
35.41931472488181
 21
139.0000000000013
 31
0.0
  0
LINE
  5
8D0
330
1F
100
AcDbEntity
  8
10
100
AcDbLine
 10
26.08068527511852
 20
139.0000000000013
 30
0.0
 11
21.25000000000022
 21
139.0000000000013
 31
0.0
  0
LINE
  5
8D1
330
1F
100
AcDbEntity
  8
10
100
AcDbLine
 10
103.2500000000002
 20
128.4999999999999
 30
0.0
 11
103.2500000000002
 21
113.5000000000013
 31
0.0
  0
LINE
  5
8D2
330
1F
100
AcDbEntity
  8
10
100
AcDbLine
 10
87.75
 20
128.4999999999999
 30
0.0
 11
103.2500000000002
 21
128.4999999999999
 31
0.0
  0
LINE
  5
8D3
330
1F
100
AcDbEntity
  8
10
100
AcDbLine
 10
67.25
 20
133.5000000000013
 30
0.0
 11
86.25
 21
133.5000000000013
 31
0.0
  0
LINE
  5
8D4
330
1F
100
AcDbEntity
  8
10
100
AcDbLine
 10
63.30080000000044
 20
128.4999999999999
 30
0.0
 11
67.25
 21
128.4999999999999
 31
0.0
  0
LINE
  5
8D5
330
1F
100
AcDbEntity
  8
10
100
AcDbLine
 10
87.75
 20
128.4999999999999
 30
0.0
 11
86.25
 21
128.4999999999999
 31
0.0
  0
LINE
  5
8D6
330
1F
100
AcDbEntity
  8
10
100
AcDbLine
 10
86.25
 20
139.0000000000013
 30
0.0
 11
81.4193147248817
 21
139.0000000000013
 31
0.0
  0
LINE
  5
8D7
330
1F
100
AcDbEntity
  8
10
100
AcDbLine
 10
72.08068527511852
 20
139.0000000000013
 30
0.0
 11
67.25
 21
139.0000000000013
 31
0.0
  0
LINE
  5
8D8
330
1F
100
AcDbEntity
  8
10
100
AcDbLine
 10
18.74999999999988
 20
152.75
 30
0.0
 11
88.75
 21
152.75
 31
0.0
  0
LINE
  5
8D9
330
1F
100
AcDbEntity
  8
10
100
AcDbLine
 10
88.75
 20
152.2499999999999
 30
0.0
 11
18.74999999999988
 21
152.2499999999999
 31
0.0
  0
LINE
  5
8DA
330
1F
100
AcDbEntity
  8
10
100
AcDbLine
 10
21.24999999999988
 20
153.5
 30
0.0
 11
21.24999999999988
 21
154.5000000000013
 31
0.0
  0
LINE
  5
8DB
330
1F
100
AcDbEntity
  8
10
100
AcDbLine
 10
18.74999999999988
 20
153.5
 30
0.0
 11
21.24999999999988
 21
153.5
 31
0.0
  0
LINE
  5
8DC
330
1F
100
AcDbEntity
  8
10
100
AcDbLine
 10
18.74999999999988
 20
151.5
 30
0.0
 11
18.74999999999988
 21
153.5
 31
0.0
  0
LINE
  5
8DD
330
1F
100
AcDbEntity
  8
10
100
AcDbLine
 10
19.74999999999988
 20
151.5
 30
0.0
 11
18.74999999999988
 21
151.5
 31
0.0
  0
LINE
  5
8DE
330
1F
100
AcDbEntity
  8
10
100
AcDbLine
 10
18.74999999999988
 20
152.2499999999999
 30
0.0
 11
18.74999999999988
 21
152.75
 31
0.0
  0
LINE
  5
8DF
330
1F
100
AcDbEntity
  8
10
100
AcDbLine
 10
21.24999999999988
 20
151.5
 30
0.0
 11
19.74999999999988
 21
151.5
 31
0.0
  0
LINE
  5
8E0
330
1F
100
AcDbEntity
  8
10
100
AcDbLine
 10
17.30080000000066
 20
154.5000000000013
 30
0.0
 11
21.24999999999988
 21
154.5000000000013
 31
0.0
  0
LINE
  5
8E1
330
1F
100
AcDbEntity
  8
10
100
AcDbLine
 10
44.25000000000022
 20
151.5
 30
0.0
 11
40.30080000000078
 21
151.5
 31
0.0
  0
LINE
  5
8E2
330
1F
100
AcDbEntity
  8
10
100
AcDbLine
 10
67.25
 20
151.5
 30
0.0
 11
63.30080000000044
 21
151.5
 31
0.0
  0
LINE
  5
8E3
330
1F
100
AcDbEntity
  8
10
100
AcDbLine
 10
88.75
 20
152.2499999999999
 30
0.0
 11
88.75
 21
152.75
 31
0.0
  0
LINE
  5
8E4
330
1F
100
AcDbEntity
  8
10
100
AcDbLine
 10
90.19919999999956
 20
154.5000000000013
 30
0.0
 11
86.25
 21
154.5000000000013
 31
0.0
  0
LINE
  5
8E5
330
1F
100
AcDbEntity
  8
10
100
AcDbLine
 10
86.25
 20
151.5
 30
0.0
 11
87.75
 21
151.5
 31
0.0
  0
LINE
  5
8E6
330
1F
100
AcDbEntity
  8
10
100
AcDbLine
 10
87.75
 20
151.5
 30
0.0
 11
88.75
 21
151.5
 31
0.0
  0
LINE
  5
8E7
330
1F
100
AcDbEntity
  8
10
100
AcDbLine
 10
88.75
 20
151.5
 30
0.0
 11
88.75
 21
153.5
 31
0.0
  0
LINE
  5
8E8
330
1F
100
AcDbEntity
  8
10
100
AcDbLine
 10
88.75
 20
153.5
 30
0.0
 11
86.25
 21
153.5
 31
0.0
  0
LINE
  5
8E9
330
1F
100
AcDbEntity
  8
10
100
AcDbLine
 10
86.25
 20
153.5
 30
0.0
 11
86.25
 21
154.5000000000013
 31
0.0
  0
LINE
  5
8EA
330
1F
100
AcDbEntity
  8
10
100
AcDbLine
 10
30.90687043576656
 20
136.6000000000012
 30
0.0
 11
32.40687043576667
 21
135.1000000000003
 31
0.0
  0
LINE
  5
8EB
330
1F
100
AcDbEntity
  8
10
100
AcDbLine
 10
31.02554259594808
 20
135.1000000000003
 30
0.0
 11
29.52554259594808
 21
136.6000000000012
 31
0.0
  0
ARC
  5
8EC
330
1F
100
AcDbEntity
  8
10
100
AcDbCircle
 10
30.75000000000011
 20
138.5000000000013
 30
0.0
 40
2.0
100
AcDbArc
 50
0.0
 51
90.0
  0
ARC
  5
8ED
330
1F
100
AcDbEntity
  8
10
100
AcDbCircle
 10
30.75000000000011
 20
138.5000000000013
 30
0.0
 40
2.0
100
AcDbArc
 50
90.0
 51
180.0
  0
ARC
  5
8EE
330
1F
100
AcDbEntity
  8
10
100
AcDbCircle
 10
33.11696007570901
 20
138.0
 30
0.0
 40
2.499999999999999
100
AcDbArc
 50
30.6032946082074
 51
90.0
  0
ARC
  5
8EF
330
1F
100
AcDbEntity
  8
10
100
AcDbCircle
 10
28.38303992429121
 20
138.0
 30
0.0
 40
2.5
100
AcDbArc
 50
90.0
 51
149.3967053917926
  0
LINE
  5
8F0
330
1F
100
AcDbEntity
  8
10
100
AcDbLine
 10
33.11696007570901
 20
140.5
 30
0.0
 11
28.38303992429121
 21
140.5
 31
0.0
  0
ARC
  5
8F1
330
1F
100
AcDbEntity
  8
10
100
AcDbCircle
 10
30.75000000000011
 20
136.6000000000012
 30
0.0
 40
5.25
100
AcDbArc
 50
0.0
 51
30.6032946082074
  0
ARC
  5
8F2
330
1F
100
AcDbEntity
  8
10
100
AcDbCircle
 10
30.75000000000011
 20
136.6000000000012
 30
0.0
 40
5.249999999999999
100
AcDbArc
 50
149.3967053917926
 51
180.0
  0
LINE
  5
8F3
330
1F
100
AcDbEntity
  8
10
100
AcDbLine
 10
25.00000000000011
 20
136.6000000000012
 30
0.0
 11
36.50000000000011
 21
136.6000000000012
 31
0.0
  0
LINE
  5
8F4
330
1F
100
AcDbEntity
  8
10
100
AcDbLine
 10
37.00000000000011
 20
135.1000000000003
 30
0.0
 11
24.50000000000011
 21
135.1000000000003
 31
0.0
  0
LINE
  5
8F5
330
1F
100
AcDbEntity
  8
10
100
AcDbLine
 10
36.50000000000011
 20
135.1000000000003
 30
0.0
 11
36.50000000000011
 21
136.6000000000012
 31
0.0
  0
LINE
  5
8F6
330
1F
100
AcDbEntity
  8
10
100
AcDbLine
 10
24.50000000000011
 20
133.5000000000013
 30
0.0
 11
37.00000000000011
 21
133.5000000000013
 31
0.0
  0
LINE
  5
8F7
330
1F
100
AcDbEntity
  8
10
100
AcDbLine
 10
25.00000000000011
 20
136.6000000000012
 30
0.0
 11
25.00000000000011
 21
135.1000000000003
 31
0.0
  0
LINE
  5
8F8
330
1F
100
AcDbEntity
  8
10
100
AcDbLine
 10
37.00000000000011
 20
133.5000000000013
 30
0.0
 11
37.00000000000011
 21
135.1000000000003
 31
0.0
  0
LINE
  5
8F9
330
1F
100
AcDbEntity
  8
10
100
AcDbLine
 10
24.50000000000011
 20
135.1000000000003
 30
0.0
 11
24.50000000000011
 21
133.5000000000013
 31
0.0
  0
LINE
  5
8FA
330
1F
100
AcDbEntity
  8
10
100
AcDbLine
 10
53.9322704357669
 20
136.6000000000012
 30
0.0
 11
55.43227043576689
 21
135.1000000000003
 31
0.0
  0
LINE
  5
8FB
330
1F
100
AcDbEntity
  8
10
100
AcDbLine
 10
54.05094259594818
 20
135.1000000000003
 30
0.0
 11
52.55094259594819
 21
136.6000000000012
 31
0.0
  0
ARC
  5
8FC
330
1F
100
AcDbEntity
  8
10
100
AcDbCircle
 10
53.77540000000033
 20
138.5000000000013
 30
0.0
 40
2.0
100
AcDbArc
 50
0.0
 51
90.0
  0
ARC
  5
8FD
330
1F
100
AcDbEntity
  8
10
100
AcDbCircle
 10
53.77540000000033
 20
138.5000000000013
 30
0.0
 40
2.0
100
AcDbArc
 50
90.0
 51
180.0
  0
ARC
  5
8FE
330
1F
100
AcDbEntity
  8
10
100
AcDbCircle
 10
56.14236007570923
 20
138.0
 30
0.0
 40
2.499999999999999
100
AcDbArc
 50
30.6032946082074
 51
90.0
  0
ARC
  5
8FF
330
1F
100
AcDbEntity
  8
10
100
AcDbCircle
 10
51.40843992429143
 20
138.0
 30
0.0
 40
2.5
100
AcDbArc
 50
90.0
 51
149.3967053917926
  0
LINE
  5
900
330
1F
100
AcDbEntity
  8
10
100
AcDbLine
 10
56.14236007570923
 20
140.5
 30
0.0
 11
51.40843992429143
 21
140.5
 31
0.0
  0
ARC
  5
901
330
1F
100
AcDbEntity
  8
10
100
AcDbCircle
 10
53.77540000000033
 20
136.6000000000012
 30
0.0
 40
5.25
100
AcDbArc
 50
0.0
 51
30.6032946082074
  0
ARC
  5
902
330
1F
100
AcDbEntity
  8
10
100
AcDbCircle
 10
53.77540000000033
 20
136.6000000000012
 30
0.0
 40
5.249999999999999
100
AcDbArc
 50
149.3967053917926
 51
180.0
  0
LINE
  5
903
330
1F
100
AcDbEntity
  8
10
100
AcDbLine
 10
48.02540000000033
 20
136.6000000000012
 30
0.0
 11
59.52540000000033
 21
136.6000000000012
 31
0.0
  0
LINE
  5
904
330
1F
100
AcDbEntity
  8
10
100
AcDbLine
 10
60.02540000000033
 20
135.1000000000003
 30
0.0
 11
47.52540000000033
 21
135.1000000000003
 31
0.0
  0
LINE
  5
905
330
1F
100
AcDbEntity
  8
10
100
AcDbLine
 10
59.52540000000033
 20
135.1000000000003
 30
0.0
 11
59.52540000000033
 21
136.6000000000012
 31
0.0
  0
LINE
  5
906
330
1F
100
AcDbEntity
  8
10
100
AcDbLine
 10
47.52540000000033
 20
133.5000000000013
 30
0.0
 11
60.02540000000033
 21
133.5000000000013
 31
0.0
  0
LINE
  5
907
330
1F
100
AcDbEntity
  8
10
100
AcDbLine
 10
48.02540000000033
 20
136.6000000000012
 30
0.0
 11
48.02540000000033
 21
135.1000000000003
 31
0.0
  0
LINE
  5
908
330
1F
100
AcDbEntity
  8
10
100
AcDbLine
 10
60.02540000000033
 20
133.5000000000013
 30
0.0
 11
60.02540000000033
 21
135.1000000000003
 31
0.0
  0
LINE
  5
909
330
1F
100
AcDbEntity
  8
10
100
AcDbLine
 10
47.52540000000033
 20
135.1000000000003
 30
0.0
 11
47.52540000000033
 21
133.5000000000013
 31
0.0
  0
LINE
  5
90A
330
1F
100
AcDbEntity
  8
10
100
AcDbLine
 10
76.90687043576645
 20
136.6000000000012
 30
0.0
 11
78.40687043576645
 21
135.1000000000003
 31
0.0
  0
LINE
  5
90B
330
1F
100
AcDbEntity
  8
10
100
AcDbLine
 10
77.02554259594797
 20
135.1000000000003
 30
0.0
 11
75.52554259594785
 21
136.6000000000012
 31
0.0
  0
ARC
  5
90C
330
1F
100
AcDbEntity
  8
10
100
AcDbCircle
 10
76.75
 20
138.5000000000013
 30
0.0
 40
2.0
100
AcDbArc
 50
0.0
 51
90.0
  0
ARC
  5
90D
330
1F
100
AcDbEntity
  8
10
100
AcDbCircle
 10
76.75
 20
138.5000000000013
 30
0.0
 40
2.0
100
AcDbArc
 50
90.0
 51
180.0
  0
ARC
  5
90E
330
1F
100
AcDbEntity
  8
10
100
AcDbCircle
 10
79.1169600757089
 20
138.0
 30
0.0
 40
2.499999999999999
100
AcDbArc
 50
30.6032946082074
 51
90.0
  0
ARC
  5
90F
330
1F
100
AcDbEntity
  8
10
100
AcDbCircle
 10
74.38303992429109
 20
138.0
 30
0.0
 40
2.5
100
AcDbArc
 50
90.0
 51
149.3967053917926
  0
LINE
  5
910
330
1F
100
AcDbEntity
  8
10
100
AcDbLine
 10
79.1169600757089
 20
140.5
 30
0.0
 11
74.38303992429109
 21
140.5
 31
0.0
  0
ARC
  5
911
330
1F
100
AcDbEntity
  8
10
100
AcDbCircle
 10
76.75
 20
136.6000000000012
 30
0.0
 40
5.25
100
AcDbArc
 50
0.0
 51
30.6032946082074
  0
ARC
  5
912
330
1F
100
AcDbEntity
  8
10
100
AcDbCircle
 10
76.75
 20
136.6000000000012
 30
0.0
 40
5.249999999999999
100
AcDbArc
 50
149.3967053917926
 51
180.0
  0
LINE
  5
913
330
1F
100
AcDbEntity
  8
10
100
AcDbLine
 10
71.0
 20
136.6000000000012
 30
0.0
 11
82.5
 21
136.6000000000012
 31
0.0
  0
LINE
  5
914
330
1F
100
AcDbEntity
  8
10
100
AcDbLine
 10
83.0
 20
135.1000000000003
 30
0.0
 11
70.5
 21
135.1000000000003
 31
0.0
  0
LINE
  5
915
330
1F
100
AcDbEntity
  8
10
100
AcDbLine
 10
82.5
 20
135.1000000000003
 30
0.0
 11
82.5
 21
136.6000000000012
 31
0.0
  0
LINE
  5
916
330
1F
100
AcDbEntity
  8
10
100
AcDbLine
 10
70.5
 20
133.5000000000013
 30
0.0
 11
83.0
 21
133.5000000000013
 31
0.0
  0
LINE
  5
917
330
1F
100
AcDbEntity
  8
10
100
AcDbLine
 10
71.0
 20
136.6000000000012
 30
0.0
 11
71.0
 21
135.1000000000003
 31
0.0
  0
LINE
  5
918
330
1F
100
AcDbEntity
  8
10
100
AcDbLine
 10
83.0
 20
133.5000000000013
 30
0.0
 11
83.0
 21
135.1000000000003
 31
0.0
  0
LINE
  5
919
330
1F
100
AcDbEntity
  8
10
100
AcDbLine
 10
70.5
 20
135.1000000000003
 30
0.0
 11
70.5
 21
133.5000000000013
 31
0.0
  0
LINE
  5
91A
330
1F
100
AcDbEntity
  8
10
100
AcDbLine
 10
10.53632484390664
 20
130.9359053442162
 30
0.0
 11
11.83632484390659
 21
129.635905344216
 31
0.0
  0
LINE
  5
91B
330
1F
100
AcDbEntity
  8
10
100
AcDbLine
 10
10.24056379827015
 20
129.635905344216
 30
0.0
 11
8.940563798270204
 21
130.9359053442162
 31
0.0
  0
ARC
  5
91C
330
1F
100
AcDbEntity
  8
10
100
AcDbCircle
 10
10.25000000000011
 20
132.7359053442151
 30
0.0
 40
1.5
100
AcDbArc
 50
0.0
 51
90.0
  0
ARC
  5
91D
330
1F
100
AcDbEntity
  8
10
100
AcDbCircle
 10
10.25000000000011
 20
132.7359053442151
 30
0.0
 40
1.5
100
AcDbArc
 50
90.0
 51
180.0
  0
ARC
  5
91E
330
1F
100
AcDbEntity
  8
10
100
AcDbCircle
 10
12.38541565040645
 20
132.235905344216
 30
0.0
 40
2.0
100
AcDbArc
 50
31.33225149759307
 51
90.0
  0
ARC
  5
91F
330
1F
100
AcDbEntity
  8
10
100
AcDbCircle
 10
8.114584349593997
 20
132.235905344216
 30
0.0
 40
2.0
100
AcDbArc
 50
90.0
 51
148.6677485024069
  0
LINE
  5
920
330
1F
100
AcDbEntity
  8
10
100
AcDbLine
 10
8.114584349593997
 20
134.2359053442151
 30
0.0
 11
12.38541565040645
 21
134.2359053442151
 31
0.0
  0
ARC
  5
921
330
1F
100
AcDbEntity
  8
10
100
AcDbCircle
 10
10.25000000000011
 20
130.9359053442162
 30
0.0
 40
4.5
100
AcDbArc
 50
0.0
 51
31.33225149759307
  0
ARC
  5
922
330
1F
100
AcDbEntity
  8
10
100
AcDbCircle
 10
10.25000000000011
 20
130.9359053442162
 30
0.0
 40
4.5
100
AcDbArc
 50
148.6677485024069
 51
180.0
  0
LINE
  5
923
330
1F
100
AcDbEntity
  8
10
100
AcDbLine
 10
5.650000000000318
 20
130.9359053442162
 30
0.0
 11
5.650000000000318
 21
129.635905344216
 31
0.0
  0
LINE
  5
924
330
1F
100
AcDbEntity
  8
10
100
AcDbLine
 10
14.85000000000013
 20
130.9359053442162
 30
0.0
 11
5.650000000000318
 21
130.9359053442162
 31
0.0
  0
LINE
  5
925
330
1F
100
AcDbEntity
  8
10
100
AcDbLine
 10
14.85000000000013
 20
129.635905344216
 30
0.0
 11
14.85000000000013
 21
130.9359053442162
 31
0.0
  0
LINE
  5
926
330
1F
100
AcDbEntity
  8
10
100
AcDbLine
 10
15.25000000000011
 20
128.635905344216
 30
0.0
 11
5.250000000000113
 21
128.635905344216
 31
0.0
  0
LINE
  5
927
330
1F
100
AcDbEntity
  8
10
100
AcDbLine
 10
15.25000000000011
 20
129.635905344216
 30
0.0
 11
15.25000000000011
 21
128.635905344216
 31
0.0
  0
LINE
  5
928
330
1F
100
AcDbEntity
  8
10
100
AcDbLine
 10
5.250000000000113
 20
129.635905344216
 30
0.0
 11
15.25000000000011
 21
129.635905344216
 31
0.0
  0
LINE
  5
929
330
1F
100
AcDbEntity
  8
10
100
AcDbLine
 10
5.250000000000113
 20
128.635905344216
 30
0.0
 11
5.250000000000113
 21
129.635905344216
 31
0.0
  0
LINE
  5
92A
330
1F
100
AcDbEntity
  8
10
100
AcDbLine
 10
97.53632484390619
 20
130.8000000000015
 30
0.0
 11
98.83632484390615
 21
129.5000000000013
 31
0.0
  0
LINE
  5
92B
330
1F
100
AcDbEntity
  8
10
100
AcDbLine
 10
97.2405637982697
 20
129.5000000000013
 30
0.0
 11
95.94056379826975
 21
130.8000000000015
 31
0.0
  0
ARC
  5
92C
330
1F
100
AcDbEntity
  8
10
100
AcDbCircle
 10
97.24999999999978
 20
132.6000000000012
 30
0.0
 40
1.5
100
AcDbArc
 50
0.0
 51
90.0
  0
ARC
  5
92D
330
1F
100
AcDbEntity
  8
10
100
AcDbCircle
 10
97.24999999999978
 20
132.6000000000012
 30
0.0
 40
1.5
100
AcDbArc
 50
90.0
 51
180.0
  0
ARC
  5
92E
330
1F
100
AcDbEntity
  8
10
100
AcDbCircle
 10
99.38541565040601
 20
132.1000000000003
 30
0.0
 40
2.0
100
AcDbArc
 50
31.33225149759307
 51
90.0
  0
ARC
  5
92F
330
1F
100
AcDbEntity
  8
10
100
AcDbCircle
 10
95.11458434959354
 20
132.1000000000003
 30
0.0
 40
2.0
100
AcDbArc
 50
90.0
 51
148.6677485024069
  0
LINE
  5
930
330
1F
100
AcDbEntity
  8
10
100
AcDbLine
 10
95.11458434959354
 20
134.1000000000003
 30
0.0
 11
99.38541565040601
 21
134.1000000000003
 31
0.0
  0
ARC
  5
931
330
1F
100
AcDbEntity
  8
10
100
AcDbCircle
 10
97.24999999999978
 20
130.8000000000015
 30
0.0
 40
4.5
100
AcDbArc
 50
0.0
 51
31.33225149759307
  0
ARC
  5
932
330
1F
100
AcDbEntity
  8
10
100
AcDbCircle
 10
97.24999999999978
 20
130.8000000000015
 30
0.0
 40
4.5
100
AcDbArc
 50
148.6677485024069
 51
180.0
  0
LINE
  5
933
330
1F
100
AcDbEntity
  8
10
100
AcDbLine
 10
92.64999999999998
 20
130.8000000000015
 30
0.0
 11
92.64999999999998
 21
129.5000000000013
 31
0.0
  0
LINE
  5
934
330
1F
100
AcDbEntity
  8
10
100
AcDbLine
 10
101.8499999999996
 20
130.8000000000015
 30
0.0
 11
92.64999999999998
 21
130.8000000000015
 31
0.0
  0
LINE
  5
935
330
1F
100
AcDbEntity
  8
10
100
AcDbLine
 10
101.8499999999996
 20
129.5000000000013
 30
0.0
 11
101.8499999999996
 21
130.8000000000015
 31
0.0
  0
LINE
  5
936
330
1F
100
AcDbEntity
  8
10
100
AcDbLine
 10
102.2499999999997
 20
128.4999999999999
 30
0.0
 11
92.24999999999978
 21
128.4999999999999
 31
0.0
  0
LINE
  5
937
330
1F
100
AcDbEntity
  8
10
100
AcDbLine
 10
102.2499999999997
 20
129.5000000000013
 30
0.0
 11
102.2499999999997
 21
128.4999999999999
 31
0.0
  0
LINE
  5
938
330
1F
100
AcDbEntity
  8
10
100
AcDbLine
 10
92.24999999999978
 20
129.5000000000013
 30
0.0
 11
102.2499999999997
 21
129.5000000000013
 31
0.0
  0
LINE
  5
939
330
1F
100
AcDbEntity
  8
10
100
AcDbLine
 10
92.24999999999978
 20
128.4999999999999
 30
0.0
 11
92.24999999999978
 21
129.5000000000013
 31
0.0
  0
LWPOLYLINE
  5
93A
330
1F
100
AcDbEntity
  8
10
100
AcDbPolyline
 90
        4
 70
     0
 43
0.0
 10
234.1740206475598
 20
111.9000000000014
 10
234.1740206475598
 20
105.7999999999992
 10
239.1740206475598
 20
105.7999999999992
 10
239.1740206475598
 20
111.9000000000014
  0
LINE
  5
93B
330
1F
100
AcDbEntity
  8
10
100
AcDbLine
 10
258.6739706475598
 20
126.0
 30
0.0
 11
258.6739706475598
 21
149.5000000000013
 31
0.0
  0
ARC
  5
93C
330
1F
100
AcDbEntity
  8
10
100
AcDbCircle
 10
255.6739706475598
 20
149.5000000000013
 30
0.0
 40
3.0
100
AcDbArc
 50
0.0
 51
90.0
  0
LINE
  5
93D
330
1F
100
AcDbEntity
  8
10
100
AcDbLine
 10
198.6740706475599
 20
149.5000000000013
 30
0.0
 11
198.6740706475599
 21
126.0
 31
0.0
  0
ARC
  5
93E
330
1F
100
AcDbEntity
  8
10
100
AcDbCircle
 10
201.6740706475599
 20
149.5000000000013
 30
0.0
 40
3.0
100
AcDbArc
 50
90.0
 51
180.0
  0
LINE
  5
93F
330
1F
100
AcDbEntity
  8
10
100
AcDbLine
 10
208.6740706475599
 20
113.5000000000013
 30
0.0
 11
248.6739706475598
 21
113.5000000000013
 31
0.0
  0
LWPOLYLINE
  5
940
330
1F
100
AcDbEntity
  8
10
100
AcDbPolyline
 90
        5
 70
     0
 43
0.0
 10
198.6740706475599
 20
126.0
 10
205.6740706475599
 20
126.0
 10
205.6740706475599
 20
122.0
 10
208.6740706475599
 20
122.0
 10
208.6740706475599
 20
113.5000000000013
  0
LINE
  5
941
330
1F
100
AcDbEntity
  8
10
100
AcDbLine
 10
236.6740706475599
 20
130.8000000000015
 30
0.0
 11
237.97397064756
 21
129.5000000000013
 31
0.0
  0
LWPOLYLINE
  5
942
330
1F
100
AcDbEntity
  8
10
100
AcDbPolyline
 90
        5
 70
     0
 43
0.0
 10
231.6740706475599
 20
128.4999999999999
 10
241.6739706475598
 20
128.4999999999999
 10
241.6739706475598
 20
129.5000000000013
 10
231.6740706475599
 20
129.5000000000013
 10
231.6740706475599
 20
128.4999999999999
  0
LINE
  5
943
330
1F
100
AcDbEntity
  8
10
100
AcDbLine
 10
232.1740706475599
 20
130.8000000000015
 30
0.0
 11
241.1739706475598
 21
130.8000000000015
 31
0.0
  0
LWPOLYLINE
  5
944
330
1F
100
AcDbEntity
  8
10
100
AcDbPolyline
 90
        5
 70
     0
 43
0.0
 10
232.07407064756
 20
129.5000000000013
 10
241.2739706475596
 20
129.5000000000013
 10
241.2739706475596
 20
130.8000000000015
 10
232.07407064756
 20
130.8000000000015
 10
232.07407064756
 20
129.5000000000013
  0
LINE
  5
945
330
1F
100
AcDbEntity
  8
10
100
AcDbLine
 10
234.6740706475599
 20
134.1000000000003
 30
0.0
 11
238.6739706475598
 21
134.1000000000003
 31
0.0
  0
LWPOLYLINE
  5
946
330
1F
100
AcDbEntity
  8
10
100
AcDbPolyline
 90
        5
 70
     0
 43
0.0
 10
229.6740206475602
 20
113.5000000000013
 10
248.6739706475598
 20
113.5000000000013
 10
248.6739706475598
 20
128.4999999999999
 10
229.6740206475602
 20
128.4999999999999
 10
229.6740206475602
 20
113.5000000000013
  0
ARC
  5
947
330
1F
100
AcDbEntity
  8
10
100
AcDbCircle
 10
234.6740706475599
 20
131.6000000000003
 30
0.0
 40
2.5
100
AcDbArc
 50
90.0
 51
180.0
  0
LINE
  5
948
330
1F
100
AcDbEntity
  8
10
100
AcDbLine
 10
232.1740706475599
 20
130.8000000000015
 30
0.0
 11
232.1740706475599
 21
131.6000000000003
 31
0.0
  0
LINE
  5
949
330
1F
100
AcDbEntity
  8
10
100
AcDbLine
 10
236.6740706475599
 20
129.5000000000013
 30
0.0
 11
235.3740706475598
 21
130.8000000000015
 31
0.0
  0
LINE
  5
94A
330
1F
100
AcDbEntity
  8
10
100
AcDbLine
 10
241.1739706475598
 20
131.6000000000003
 30
0.0
 11
241.1739706475598
 21
130.8000000000015
 31
0.0
  0
ARC
  5
94B
330
1F
100
AcDbEntity
  8
10
100
AcDbCircle
 10
238.6739706475598
 20
131.6000000000003
 30
0.0
 40
2.5
100
AcDbArc
 50
0.0
 51
90.0
  0
LWPOLYLINE
  5
94C
330
1F
100
AcDbEntity
  8
10
100
AcDbPolyline
 90
        4
 70
     0
 43
0.0
 10
258.6739706475598
 20
126.0
 10
251.6739706475598
 20
126.0
 10
251.6739706475598
 20
122.0
 10
248.6739706475598
 20
122.0
  0
LWPOLYLINE
  5
94D
330
1F
100
AcDbEntity
  8
10
 48
0.25
100
AcDbPolyline
 90
        4
 70
     0
 43
0.0
 10
198.6740706475599
 20
147.5
 10
185.6740206475601
 20
147.5000000000013
 10
185.6740206475601
 20
148.5000000000013
 10
198.6740706475599
 20
148.5
  0
LWPOLYLINE
  5
94E
330
1F
100
AcDbEntity
  8
10
 48
0.25
100
AcDbPolyline
 90
        4
 70
     0
 43
0.0
 10
258.6739706475598
 20
147.5
 10
271.6740206475599
 20
147.5
 10
271.6740206475599
 20
148.5
 10
258.6739706475598
 20
148.5
  0
LWPOLYLINE
  5
94F
330
1F
100
AcDbEntity
  8
10
100
AcDbPolyline
 90
        8
 70
     0
 43
0.0
 10
255.6739706475598
 20
152.5000000000013
 10
236.5512974266981
 20
152.5
 42
-0.0899349988817023
 10
235.4979155580308
 20
152.6910167962832
 10
230.6740206475602
 20
154.5000000000013
 10
226.6740206475602
 20
154.5000000000013
 10
221.8500538936738
 20
152.6910124672931
 42
-0.0899339631632828
 10
220.7966835689092
 20
152.5
 10
201.6740706475599
 20
152.5
  0
VIEWPORT
  5
409
330
23
100
AcDbEntity
 67
     1
  8
0
100
AcDbViewport
 10
142.6315765380859
 20
99.1129140853882
 30
0.0
 40
314.2372683715819
 41
259.7433703258352
 68
     1
 69
     1
1001
ACAD
1000
MVIEW
1002
{
1070
    16
1010
0.0
1020
0.0
1030
0.0
1010
0.0
1020
0.0
1030
1.0
1040
0.0
1040
259.7433703258352
1040
142.6315765380859
1040
99.1129140853882
1040
50.0
1040
0.0
1040
0.0
1070
     0
1070
   100
1070
     1
1070
     1
1070
     0
1070
     0
1070
     0
1070
     0
1040
0.0
1040
0.0
1040
0.0
1040
10.0
1040
10.0
1040
10.0
1040
10.0
1070
     0
1002
{
1002
}
1002
}
  0
VIEWPORT
  5
40B
330
23
100
AcDbEntity
 67
     1
  8
0
100
AcDbViewport
 10
142.6315770149231
 20
99.11291456222535
 30
0.0
 40
228.2105232238769
 41
158.5806632995605
 68
     2
 69
     2
1001
ACAD
1000
MVIEW
1002
{
1070
    16
1010
0.0
1020
0.0
1030
0.0
1010
0.0
1020
0.0
1030
1.0
1040
0.0
1040
437.7797658097811
1040
303.2144175903108
1040
233.3590858733038
1040
50.0
1040
0.0
1040
0.0
1070
     0
1070
   100
1070
     1
1070
     3
1070
     0
1070
     0
1070
     0
1070
     0
1040
0.0
1040
0.0
1040
0.0
1040
10.0
1040
10.0
1040
10.0
1040
10.0
1070
     0
1002
{
1002
}
1002
}
  0
ENDSEC
  0
SECTION
  2
OBJECTS
  0
DICTIONARY
  5
C
330
0
100
AcDbDictionary
  3
ACAD_GROUP
350
D
  3
ACAD_LAYOUT
350
1A
  3
ACAD_MLINESTYLE
350
17
  3
ACAD_PLOTSETTINGS
350
19
  3
ACAD_PLOTSTYLENAME
350
E
  3
ACAMCATALOGSTATE
350
5BA
  3
ACASAPPOBJECT
350
53F
  3
ACASGREF_MASTER
350
587
  3
ACDBHEADERROUNDTRIPXREC
350
9FE
  3
ACDBVARIABLEDICTIONARY
350
40D
  3
ACDMSYSVARMGR
350
519
  3
ACGREF_MASTER
350
513
  3
ACGREFACAD_MASTER
350
53B
  3
ACMDICTIONARY
350
5B6
  3
ACME_BOM_MANAGER_NAME
350
50C
  3
ACME_COMMAND_HISTORY
350
507
  3
ACME_SCOPE_NAME
350
506
  3
ACMESTATEMGR
350
511
  3
ACMESYSVARMANAGER
350
508
  3
ACMSYSTEMVARIABLEMANAGER
350
5C4
  3
AD_APPL
350
59E
  3
AD_GREF_MODULE
350
588
  3
AD_MAPI_MODULE
350
5A0
  3
ADSYSVARMGR
350
590
  3
AMDTNAMEDDWGMGR
350
536
  3
AMG
350
4FD
  3
AMGSNAPSETTINGS
350
5D0
  3
AMI_MASTER
350
53E
  3
ASURF_STATIC_VARS
350
540
  3
AUTOCAD_ASSEMBLIES_PROJECT
350
5AB
  3
AUTOSURF_SYSVARS
350
541
  3
DESIGNER_ASSEMBLIES_SYSVARS
350
5A2
  3
DWGPROPS
350
5B9
  3
GREFAM_MODULE
350
58A
  3
MAPISURF_MODULE
350
589
  0
DICTIONARY
  5
41
330
2
100
AcDbDictionary
280
     1
  3
ACAD_LAYERFILTERS
360
3FF
  3
ACAD_LAYERSTATES
360
42
  0
DICTIONARY
  5
438
330
1F
100
AcDbDictionary
280
     1
  3
ACAD_INDEX
360
5D7
  3
ACAD_LAYOUTSELFREF
360
A1E
  0
DICTIONARY
  5
43A
330
23
100
AcDbDictionary
280
     1
  3
ACAD_LAYOUTSELFREF
360
A1F
  0
DICTIONARY
  5
D
102
{ACAD_REACTORS
330
C
102
}
330
C
100
AcDbDictionary
  0
DICTIONARY
  5
1A
102
{ACAD_REACTORS
330
C
102
}
330
C
100
AcDbDictionary
  0
DICTIONARY
  5
17
102
{ACAD_REACTORS
330
C
102
}
330
C
100
AcDbDictionary
  3
STANDARD
350
18
  0
DICTIONARY
  5
19
102
{ACAD_REACTORS
330
C
102
}
330
C
100
AcDbDictionary
  0
ACDBDICTIONARYWDFLT
  5
E
102
{ACAD_REACTORS
330
C
102
}
330
C
100
AcDbDictionary
281
     1
  3
Normal
350
F
100
AcDbDictionaryWithDefault
340
F
  0
ACAD_PROXY_OBJECT
  5
5BA
102
{ACAD_REACTORS
330
C
102
}
330
C
100
AcDbProxyObject
 90
      499
 91
      574
 93
      880
310
3FFFFFFFE00A0284402B0AE2E189C9917189B1C17189719182E32B733B4B732B2B934B733AE32B733B4B732B2B934B733AE26A2A2C5E34B58AE181C1898189A2FA6A2A2AF99222FC6F6483EAE39B4B5BCBAAE232916A420A62FA422A62FA1A0A22E4728C6B641B340ADC1AF400AA6C
 94
        0
1001
ACAD
1000
AcadProxyRoundTripData
1071
      565
1071
   851991
1070
     0
  0
ACAD_PROXY_OBJECT
  5
53F
102
{ACAD_REACTORS
330
C
102
}
330
C
100
AcDbProxyObject
 90
      499
 91
      574
 93
       10
310
4041
 94
        0
1001
ACAD
1000
AcadProxyRoundTripData
1071
      537
1071
   851991
1070
     0
  0
ACAD_PROXY_OBJECT
  5
587
102
{ACAD_REACTORS
330
C
102
}
330
C
100
AcDbProxyObject
 90
      499
 91
      574
 93
       34
310
0100004044
 94
        0
1001
ACAD
1000
AcadProxyRoundTripData
1071
      543
1071
   851991
1070
     0
  0
DICTIONARY
  5
9FE
102
{ACAD_REACTORS
330
C
102
}
330
C
100
AcDbDictionary
  3
CEPSNTYPE
350
A08
  3
FINGERPRINTGUID
350
A09
  3
HYPERLINKBASE
350
A01
  3
INSUNITS
350
A07
  3
LAYOUTDICT
350
A03
  3
LWETCUNION
350
A06
  3
PLOTSETDICT
350
A04
  3
PLOTSTYLNAMDICT
350
A05
  3
PSVPSCALE
350
A0B
  3
PUCSBASE
350
A0E
  3
PUCSORGBACK
350
A14
  3
PUCSORGBOTTOM
350
A10
  3
PUCSORGFRONT
350
A13
  3
PUCSORGLEFT
350
A11
  3
PUCSORGRIGHT
350
A12
  3
PUCSORGTOP
350
A0F
  3
PUCSORTHOREF
350
A0C
  3
PUCSORTHOVIEW
350
A0D
  3
STYLESHEET
350
A02
  3
TSTACKALIGN
350
9FF
  3
TSTACKSIZE
350
A00
  3
UCSBASE
350
A17
  3
UCSORGBACK
350
A1D
  3
UCSORGBOTTOM
350
A19
  3
UCSORGFRONT
350
A1C
  3
UCSORGLEFT
350
A1A
  3
UCSORGRIGHT
350
A1B
  3
UCSORGTOP
350
A18
  3
UCSORTHOREF
350
A15
  3
UCSORTHOVIEW
350
A16
  3
VERSIONGUID
350
A0A
  0
DICTIONARY
  5
40D
102
{ACAD_REACTORS
330
C
102
}
330
C
100
AcDbDictionary
  3
DIMASSOC
350
40F
  3
HIDETEXT
350
40E
  3
INDEXCTL
350
5DF
  0
ACAD_PROXY_OBJECT
  5
519
102
{ACAD_REACTORS
330
C
102
}
330
C
100
AcDbProxyObject
 90
      499
 91
      574
 93
      240
310
4C51A48200000000000000000000000000000000000000000000000000003C
330
51A
330
51B
330
51C
330
51D
330
51E
330
51F
330
520
330
523
330
524
330
525
330
526
330
527
330
528
330
529
330
52A
330
52B
330
52C
330
52D
330
52E
330
52F
330
530
330
531
330
532
330
533
330
534
330
535
 94
        0
1001
ACAD
1000
AcadProxyRoundTripData
1071
      516
1071
   851991
1070
     0
  0
ACAD_PROXY_OBJECT
  5
513
102
{ACAD_REACTORS
330
C
102
}
330
C
100
AcDbProxyObject
 90
      499
 91
      574
 93
       34
310
0400004284
 94
        0
1001
ACAD
1000
AcadProxyRoundTripData
1071
      525
1071
   851991
1070
     0
  0
ACAD_PROXY_OBJECT
  5
53B
102
{ACAD_REACTORS
330
C
102
}
330
C
100
AcDbProxyObject
 90
      499
 91
      574
 93
      114
310
04000041C000000000000000000012
 94
        0
1001
ACAD
1000
AcadProxyRoundTripData
1071
      533
1071
   851991
1070
     0
  0
DICTIONARY
  5
5B6
102
{ACAD_REACTORS
330
C
102
}
330
C
100
AcDbDictionary
  3
ACMBOMDATA
350
5B7
  0
ACAD_PROXY_OBJECT
  5
50C
102
{ACAD_REACTORS
330
C
102
}
330
C
100
AcDbProxyObject
 90
      499
 91
      574
 93
       50
310
00000040400013
330
0
330
0
330
50D
 94
        0
1001
ACAD
1000
AcadProxyRoundTripData
1071
      519
1071
   851991
1070
     0
  0
ACAD_PROXY_OBJECT
  5
507
102
{ACAD_REACTORS
330
C
102
}
330
C
100
AcDbProxyObject
 90
      499
 91
      574
 93
      778
310
424050E414D4454524553455444424D4F4440805084E202D20554E444F014213880B4815539113C0507544F4F4C42415280504554E444F80504554E444F80504554E444F80504554E444F80504554E444F8050545524153458050653415645415380
 94
        0
1001
ACAD
1000
AcadProxyRoundTripData
1071
      515
1071
   851991
1070
     0
  0
ACAD_PROXY_OBJECT
  5
506
102
{ACAD_REACTORS
330
C
102
}
330
C
100
AcDbProxyObject
 90
      499
 91
      574
 93
     1242
310
06000044400000000000000000001840000400020000000000000000000000000000000000000000000000000000000000000000000000000000000000000000000000000000000000000000000000000000000000000000000000000000000000000000000000000000000000000000000000000000000000000000000000
310
00000000000000000000000000000000000000000000000000AAAAAAA1
360
509
360
50A
360
50B
360
50D
360
514
360
515
360
516
360
517
360
51A
360
51B
360
51C
360
51D
360
51E
360
51F
360
520
360
523
360
524
360
525
360
526
360
527
360
528
360
529
360
52A
360
52B
360
52C
360
52D
360
52E
360
52F
360
530
360
531
360
532
360
533
360
534
360
535
360
542
360
543
360
544
360
545
360
546
360
547
360
548
360
549
360
54A
360
54B
360
54C
360
54D
360
54E
360
54F
360
550
360
551
360
552
360
553
360
554
360
555
360
556
360
557
360
558
360
559
360
55A
360
55B
360
55C
360
55D
360
55E
360
55F
360
560
360
561
360
562
360
563
360
564
360
565
360
566
360
567
360
568
360
569
360
56A
360
56B
360
56C
360
56D
360
56E
360
56F
360
570
360
571
360
572
360
573
360
574
360
575
360
576
360
577
360
578
360
579
360
57A
360
57B
360
57C
360
57D
360
57E
360
57F
360
580
360
581
360
582
360
583
360
58C
360
58D
360
58E
360
58F
360
591
360
592
360
593
360
594
360
595
360
596
360
597
360
598
360
599
360
59A
360
59B
360
59C
360
59D
360
5A3
360
5A4
360
5A5
360
5A6
360
5A7
360
5A8
360
5A9
360
5AA
360
5AF
360
5B0
360
5B1
360
5B2
360
5B3
360
5B4
360
5C5
 94
        0
1001
ACAD
1000
AcadProxyRoundTripData
1071
      514
1071
   851991
1070
     0
  0
ACAD_PROXY_OBJECT
  5
511
102
{ACAD_REACTORS
330
C
102
}
330
C
100
AcDbProxyObject
 90
      499
 91
      574
 93
       50
310
060000416412A5
 94
        0
1001
ACAD
1000
AcadProxyRoundTripData
1071
      524
1071
   851991
1070
     0
  0
ACAD_PROXY_OBJECT
  5
508
102
{ACAD_REACTORS
330
C
102
}
330
C
100
AcDbProxyObject
 90
      499
 91
      574
 93
       48
310
90342200000011
330
509
330
50A
330
50B
 94
        0
1001
ACAD
1000
AcadProxyRoundTripData
1071
      516
1071
   851991
1070
     0
  0
ACAD_PROXY_OBJECT
  5
5C4
102
{ACAD_REACTORS
330
C
102
}
330
C
100
AcDbProxyObject
 90
      499
 91
      574
 93
       32
310
901422004B
330
5C5
 94
        0
1001
ACAD
1000
AcadProxyRoundTripData
1071
      516
1071
   851991
1070
     0
  0
ACAD_PROXY_OBJECT
  5
59E
102
{ACAD_REACTORS
330
C
102
}
330
C
100
AcDbProxyObject
 90
      499
 91
      574
 93
       42
310
0006000043C4
330
58C
 94
        0
1001
ACAD
1000
AcadProxyRoundTripData
1071
      552
1071
   851991
1070
     0
  0
ACAD_PROXY_OBJECT
  5
588
102
{ACAD_REACTORS
330
C
102
}
330
C
100
AcDbProxyObject
 90
      499
 91
      574
 93
      114
310
000000438000000000000000000026
 94
        0
1001
ACAD
1000
AcadProxyRoundTripData
1071
      544
1071
   851991
1070
     0
  0
ACAD_PROXY_OBJECT
  5
5A0
102
{ACAD_REACTORS
330
C
102
}
330
C
100
AcDbProxyObject
 90
      499
 91
      574
 93
       34
310
05000044C4
 94
        0
1001
ACAD
1000
AcadProxyRoundTripData
1071
      554
1071
   851991
1070
     0
  0
ACAD_PROXY_OBJECT
  5
590
102
{ACAD_REACTORS
330
C
102
}
330
C
100
AcDbProxyObject
 90
      499
 91
      574
 93
      128
310
90D4420000000000000000000000000000
330
591
330
592
330
593
330
594
330
595
330
596
330
597
330
598
330
599
330
59A
330
59B
330
59C
330
59D
 94
        0
1001
ACAD
1000
AcadProxyRoundTripData
1071
      516
1071
   851991
1070
     0
  0
ACAD_PROXY_OBJECT
  5
536
102
{ACAD_REACTORS
330
C
102
}
330
C
100
AcDbProxyObject
 90
      499
 91
      574
 93
       42
310
000100005AC4
330
514
 94
        0
1001
ACAD
1000
AcadProxyRoundTripData
1071
      530
1071
   851991
1070
     0
  0
DICTIONARY
  5
4FD
102
{ACAD_REACTORS
330
C
102
}
330
C
100
AcDbDictionary
  3
ACMGSETTINGS
350
4FE
  3
AMGLAYCFG
350
5C3
  0
DICTIONARY
  5
5D0
102
{ACAD_REACTORS
330
C
102
}
330
C
100
AcDbDictionary
  3
DIMENSION
350
5D5
  3
FEA
350
5D4
  3
HATCH__1_
350
5D1
  3
HATCH__2_
350
5D2
  3
SIMPLE_WELD
350
5D6
  3
SYMBOLS
350
5D3
  0
ACAD_PROXY_OBJECT
  5
53E
102
{ACAD_REACTORS
330
C
102
}
330
C
100
AcDbProxyObject
 90
      499
 91
      574
 93
       34
310
0500004284
 94
        0
1001
ACAD
1000
AcadProxyRoundTripData
1071
      536
1071
   851991
1070
     0
  0
ACAD_PROXY_OBJECT
  5
540
102
{ACAD_REACTORS
330
C
102
}
330
C
100
AcDbProxyObject
 90
      499
 91
      574
 93
      424
310
585315020000000000000000000000000000000000000000000000000000000000000000000000000000000000000000000000000000
330
553
330
554
330
555
330
556
330
557
330
558
330
559
330
55A
330
55B
330
55C
330
55D
330
55E
330
55F
330
560
330
561
330
562
330
563
330
564
330
565
330
566
330
567
330
568
330
569
330
56A
330
56B
330
56C
330
56D
330
56E
330
56F
330
570
330
571
330
572
330
573
330
574
330
575
330
576
330
577
330
578
330
579
330
57A
330
57B
330
57C
330
57D
330
57E
330
57F
330
580
330
581
330
582
330
583
 94
        0
1001
ACAD
1000
AcadProxyRoundTripData
1071
      538
1071
   851991
1070
     0
  0
ACAD_PROXY_OBJECT
  5
5AB
102
{ACAD_REACTORS
330
C
102
}
330
C
100
AcDbProxyObject
 90
      499
 91
      574
 93
       74
310
0600004A400000000013
330
5B2
330
0
330
5B3
330
0
330
0
 94
        0
1001
ACAD
1000
AcadProxyRoundTripData
1071
      556
1071
   851991
1070
     0
  0
ACAD_PROXY_OBJECT
  5
541
102
{ACAD_REACTORS
330
C
102
}
330
C
100
AcDbProxyObject
 90
      499
 91
      574
 93
      168
310
4C511482000000000000000000000000000000000004
330
542
330
543
330
544
330
545
330
546
330
547
330
548
330
549
330
54A
330
54B
330
54C
330
54D
330
54E
330
54F
330
550
330
551
330
552
 94
        0
1001
ACAD
1000
AcadProxyRoundTripData
1071
      516
1071
   851991
1070
     0
  0
ACAD_PROXY_OBJECT
  5
5A2
102
{ACAD_REACTORS
330
C
102
}
330
C
100
AcDbProxyObject
 90
      499
 91
      574
 93
       88
310
908422000000000000000000
330
5A3
330
5A4
330
5A5
330
5A6
330
5A7
330
5A8
330
5A9
330
5AA
 94
        0
1001
ACAD
1000
AcadProxyRoundTripData
1071
      516
1071
   851991
1070
     0
  0
XRECORD
  5
5B9
102
{ACAD_REACTORS
330
C
102
}
330
C
100
AcDbXrecord
  1
DWGPROPS COOKIE
  2

  3

  4

  6

  7

  8

  9

300
AmdtFileType=84
301
=
302
=
303
=
304
=
305
=
306
=
307
=
308
=
309
=
 40
0.005163125
 41
2454596.550355717
 42
2454596.675773645
  1

 90
        1
  0
ACAD_PROXY_OBJECT
  5
58A
102
{ACAD_REACTORS
330
C
102
}
330
C
100
AcDbProxyObject
 90
      499
 91
      574
 93
        8
310
0504
 94
        0
1001
ACAD
1000
AcadProxyRoundTripData
1071
      546
1071
   851991
1070
     0
  0
ACAD_PROXY_OBJECT
  5
589
102
{ACAD_REACTORS
330
C
102
}
330
C
100
AcDbProxyObject
 90
      499
 91
      574
 93
        8
310
0440
 94
        0
1001
ACAD
1000
AcadProxyRoundTripData
1071
      545
1071
   851991
1070
     0
  0
DICTIONARY
  5
3FF
102
{ACAD_REACTORS
330
41
102
}
330
41
100
AcDbDictionary
280
     1
  0
DICTIONARY
  5
42
102
{ACAD_REACTORS
330
41
102
}
330
41
100
AcDbDictionary
  0
DICTIONARY
  5
5D7
102
{ACAD_REACTORS
330
438
102
}
330
438
100
AcDbDictionary
  3
*A1
350
5D8
  0
XRECORD
  5
A1E
102
{ACAD_REACTORS
330
438
102
}
330
438
100
AcDbXrecord
340
1F
  0
XRECORD
  5
A1F
102
{ACAD_REACTORS
330
43A
102
}
330
43A
100
AcDbXrecord
340
23
  0
MLINESTYLE
  5
18
102
{ACAD_REACTORS
330
17
102
}
330
17
100
AcDbMlineStyle
  2
STANDARD
 70
     0
  3

 62
   256
 51
90.0
 52
90.0
 71
     2
 49
0.5
 62
   256
  6
BYLAYER
 49
-0.5
 62
   256
  6
BYLAYER
  0
ACDBPLACEHOLDER
  5
F
102
{ACAD_REACTORS
330
E
102
}
330
E
100
AcDbPlaceHolder
280
     0
  0
XRECORD
  5
A08
102
{ACAD_REACTORS
330
9FE
102
}
330
9FE
100
AcDbXrecord
 90
        0
  0
XRECORD
  5
A09
102
{ACAD_REACTORS
330
9FE
102
}
330
9FE
100
AcDbXrecord
  1
{025C7157-5529-449E-A239-D8CA396FD83B}
  0
XRECORD
  5
A01
102
{ACAD_REACTORS
330
9FE
102
}
330
9FE
100
AcDbXrecord
  1

  0
XRECORD
  5
A07
102
{ACAD_REACTORS
330
9FE
102
}
330
9FE
100
AcDbXrecord
 90
        4
  0
XRECORD
  5
A03
102
{ACAD_REACTORS
330
9FE
102
}
330
9FE
100
AcDbXrecord
340
1A
  0
XRECORD
  5
A06
102
{ACAD_REACTORS
330
9FE
102
}
330
9FE
100
AcDbXrecord
 90
    10781
  0
XRECORD
  5
A04
102
{ACAD_REACTORS
330
9FE
102
}
330
9FE
100
AcDbXrecord
340
19
  0
XRECORD
  5
A05
102
{ACAD_REACTORS
330
9FE
102
}
330
9FE
100
AcDbXrecord
340
E
  0
XRECORD
  5
A0B
102
{ACAD_REACTORS
330
9FE
102
}
330
9FE
100
AcDbXrecord
 40
0.0
  0
XRECORD
  5
A0E
102
{ACAD_REACTORS
330
9FE
102
}
330
9FE
100
AcDbXrecord
340
0
  0
XRECORD
  5
A14
102
{ACAD_REACTORS
330
9FE
102
}
330
9FE
100
AcDbXrecord
 10
0.0
 20
0.0
 30
0.0
  0
XRECORD
  5
A10
102
{ACAD_REACTORS
330
9FE
102
}
330
9FE
100
AcDbXrecord
 10
0.0
 20
0.0
 30
0.0
  0
XRECORD
  5
A13
102
{ACAD_REACTORS
330
9FE
102
}
330
9FE
100
AcDbXrecord
 10
0.0
 20
0.0
 30
0.0
  0
XRECORD
  5
A11
102
{ACAD_REACTORS
330
9FE
102
}
330
9FE
100
AcDbXrecord
 10
0.0
 20
0.0
 30
0.0
  0
XRECORD
  5
A12
102
{ACAD_REACTORS
330
9FE
102
}
330
9FE
100
AcDbXrecord
 10
0.0
 20
0.0
 30
0.0
  0
XRECORD
  5
A0F
102
{ACAD_REACTORS
330
9FE
102
}
330
9FE
100
AcDbXrecord
 10
0.0
 20
0.0
 30
0.0
  0
XRECORD
  5
A0C
102
{ACAD_REACTORS
330
9FE
102
}
330
9FE
100
AcDbXrecord
340
0
  0
XRECORD
  5
A0D
102
{ACAD_REACTORS
330
9FE
102
}
330
9FE
100
AcDbXrecord
 70
     0
  0
XRECORD
  5
A02
102
{ACAD_REACTORS
330
9FE
102
}
330
9FE
100
AcDbXrecord
  1

  0
XRECORD
  5
9FF
102
{ACAD_REACTORS
330
9FE
102
}
330
9FE
100
AcDbXrecord
 90
        1
  0
XRECORD
  5
A00
102
{ACAD_REACTORS
330
9FE
102
}
330
9FE
100
AcDbXrecord
 90
       70
  0
XRECORD
  5
A17
102
{ACAD_REACTORS
330
9FE
102
}
330
9FE
100
AcDbXrecord
340
0
  0
XRECORD
  5
A1D
102
{ACAD_REACTORS
330
9FE
102
}
330
9FE
100
AcDbXrecord
 10
0.0
 20
0.0
 30
0.0
  0
XRECORD
  5
A19
102
{ACAD_REACTORS
330
9FE
102
}
330
9FE
100
AcDbXrecord
 10
0.0
 20
0.0
 30
0.0
  0
XRECORD
  5
A1C
102
{ACAD_REACTORS
330
9FE
102
}
330
9FE
100
AcDbXrecord
 10
0.0
 20
0.0
 30
0.0
  0
XRECORD
  5
A1A
102
{ACAD_REACTORS
330
9FE
102
}
330
9FE
100
AcDbXrecord
 10
0.0
 20
0.0
 30
0.0
  0
XRECORD
  5
A1B
102
{ACAD_REACTORS
330
9FE
102
}
330
9FE
100
AcDbXrecord
 10
0.0
 20
0.0
 30
0.0
  0
XRECORD
  5
A18
102
{ACAD_REACTORS
330
9FE
102
}
330
9FE
100
AcDbXrecord
 10
0.0
 20
0.0
 30
0.0
  0
XRECORD
  5
A15
102
{ACAD_REACTORS
330
9FE
102
}
330
9FE
100
AcDbXrecord
340
0
  0
XRECORD
  5
A16
102
{ACAD_REACTORS
330
9FE
102
}
330
9FE
100
AcDbXrecord
 70
     0
  0
XRECORD
  5
A0A
102
{ACAD_REACTORS
330
9FE
102
}
330
9FE
100
AcDbXrecord
  1
{4DD9AEC2-153D-4E74-B6DD-260CB88F374A}
  0
DICTIONARYVAR
  5
40F
102
{ACAD_REACTORS
330
40D
102
}
330
40D
100
DictionaryVariables
280
     0
  1
2
  0
DICTIONARYVAR
  5
40E
102
{ACAD_REACTORS
330
40D
102
}
330
40D
100
DictionaryVariables
280
     0
  1
1
  0
DICTIONARYVAR
  5
5DF
102
{ACAD_REACTORS
330
40D
102
}
330
40D
100
DictionaryVariables
280
     0
  1
1
  0
ACAD_PROXY_OBJECT
  5
5B7
102
{ACAD_REACTORS
330
5B6
102
}
330
5B6
100
AcDbProxyObject
 90
      499
 91
      574
 93
      118
310
405010040CA904C415CD5B07571028
350
5B8
 94
        0
1001
ACAD
1000
AcadProxyRoundTripData
1071
      563
1071
   851991
1070
     0
  0
ACAD_PROXY_OBJECT
  5
509
330
0
100
AcDbProxyObject
 90
      499
 91
      574
 93
      156
310
00010143D050D351505391D5531054925390D495
330
506
 94
        0
1001
ACAD
1000
AcadProxyRoundTripData
1071
      517
1071
   851991
1070
     0
  0
ACAD_PROXY_OBJECT
  5
50A
330
0
100
AcDbProxyObject
 90
      499
 91
      574
 93
      148
310
000101439050D351531253915054925390D494
330
506
 94
        0
1001
ACAD
1000
AcadProxyRoundTripData
1071
      517
1071
   851991
1070
     0
  0
ACAD_PROXY_OBJECT
  5
50B
330
0
100
AcDbProxyObject
 90
      499
 91
      574
 93
      156
310
000101439050D35154D6535093D314D256915085
330
506
 94
        0
1001
ACAD
1000
AcadProxyRoundTripData
1071
      518
1071
   851991
1070
     0
  0
ACAD_PROXY_OBJECT
  5
50D
330
0
100
AcDbProxyObject
 90
      499
 91
      574
 93
      120
310
000101422565255A6557080C402B00A8
330
506
330
0
330
0
 94
        0
1001
ACAD
1000
AcadProxyRoundTripData
1071
      520
1071
   851991
1070
     0
  0
ACAD_PROXY_OBJECT
  5
514
330
0
100
AcDbProxyObject
 90
      499
 91
      574
 93
      358
310
0001014124FEA55D00507362E332E302E31014124FEA55D00507362E332E302E3140501000041505391D311658
330
506
330
515
330
519
 94
        0
1001
ACAD
1000
AcadProxyRoundTripData
1071
      526
1071
   851991
1070
     0
  0
ACAD_PROXY_OBJECT
  5
515
330
0
100
AcDbProxyObject
 90
      499
 91
      574
 93
       48
310
00019014220011
330
506
330
516
 94
        0
1001
ACAD
1000
AcadProxyRoundTripData
1071
      527
1071
   851991
1070
     0
  0
ACAD_PROXY_OBJECT
  5
516
330
0
100
AcDbProxyObject
 90
      499
 91
      574
 93
       48
310
0001AA00000011
330
506
330
4F8
330
517
330
0
 94
        0
1001
ACAD
1000
AcadProxyRoundTripData
1071
      528
1071
   851991
1070
     0
  0
ACAD_PROXY_OBJECT
  5
517
330
0
100
AcDbProxyObject
 90
      499
 91
      574
 93
       28
310
0001AAA0
330
506
 94
        0
1001
ACAD
1000
AcadProxyRoundTripData
1071
      529
1071
   851991
1070
     0
  0
ACAD_PROXY_OBJECT
  5
51A
330
0
100
AcDbProxyObject
 90
      499
 91
      574
 93
      108
310
000101421053521310D05310D010
330
506
 94
        0
1001
ACAD
1000
AcadProxyRoundTripData
1071
      518
1071
   851991
1070
     0
  0
ACAD_PROXY_OBJECT
  5
51B
330
0
100
AcDbProxyObject
 90
      499
 91
      574
 93
      124
310
00010142905354915554D15112535010
330
506
 94
        0
1001
ACAD
1000
AcadProxyRoundTripData
1071
      518
1071
   851991
1070
     0
  0
ACAD_PROXY_OBJECT
  5
51C
330
0
100
AcDbProxyObject
 90
      499
 91
      574
 93
      132
310
00010143105354D150D51253D391125360
330
506
 94
        0
1001
ACAD
1000
AcadProxyRoundTripData
1071
      518
1071
   851991
1070
     0
  0
ACAD_PROXY_OBJECT
  5
51D
330
0
100
AcDbProxyObject
 90
      499
 91
      574
 93
      124
310
00010142905355941093D49111549013
330
506
 94
        0
1001
ACAD
1000
AcadProxyRoundTripData
1071
      518
1071
   851991
1070
     0
  0
ACAD_PROXY_OBJECT
  5
51E
330
0
100
AcDbProxyObject
 90
      499
 91
      574
 93
      116
310
0001014290535115D1D0D3D313D4A0
330
506
 94
        0
1001
ACAD
1000
AcadProxyRoundTripData
1071
      518
1071
   851991
1070
     0
  0
ACAD_PROXY_OBJECT
  5
51F
330
0
100
AcDbProxyObject
 90
      499
 91
      574
 93
      148
310
00010143505355925155D49151949154D21010
330
506
 94
        0
1001
ACAD
1000
AcadProxyRoundTripData
1071
      518
1071
   851991
1070
     0
  0
ACAD_PROXY_OBJECT
  5
520
330
0
100
AcDbProxyObject
 90
      499
 91
      574
 93
      172
310
00010144105350539393D51154149154D15495915010
330
506
 94
        0
1001
ACAD
1000
AcadProxyRoundTripData
1071
      518
1071
   851991
1070
     0
  0
ACAD_PROXY_OBJECT
  5
523
330
0
100
AcDbProxyObject
 90
      499
 91
      574
 93
      172
310
00010144105350555513D11253505494905391D15010
330
506
 94
        0
1001
ACAD
1000
AcadProxyRoundTripData
1071
      518
1071
   851991
1070
     0
  0
ACAD_PROXY_OBJECT
  5
524
330
0
100
AcDbProxyObject
 90
      499
 91
      574
 93
      124
310
00010142D05351561514915191125364
330
506
 94
        0
1001
ACAD
1000
AcadProxyRoundTripData
1071
      518
1071
   851991
1070
     0
  0
ACAD_PROXY_OBJECT
  5
525
330
0
100
AcDbProxyObject
 90
      499
 91
      574
 93
      132
310
00010142D05355105410539393D5115010
330
506
 94
        0
1001
ACAD
1000
AcadProxyRoundTripData
1071
      518
1071
   851991
1070
     0
  0
ACAD_PROXY_OBJECT
  5
526
330
0
100
AcDbProxyObject
 90
      499
 91
      574
 93
      108
310
00010142105350555513D0D31015
330
506
 94
        0
1001
ACAD
1000
AcadProxyRoundTripData
1071
      518
1071
   851991
1070
     0
  0
ACAD_PROXY_OBJECT
  5
527
330
0
100
AcDbProxyObject
 90
      499
 91
      574
 93
      108
310
00010142105350D3119150551055
330
506
 94
        0
1001
ACAD
1000
AcadProxyRoundTripData
1071
      518
1071
   851991
1070
     0
  0
ACAD_PROXY_OBJECT
  5
528
330
0
100
AcDbProxyObject
 90
      499
 91
      574
 93
      108
310
00010142105350D315925155D3F5
330
506
 94
        0
1001
ACAD
1000
AcadProxyRoundTripData
1071
      518
1071
   851991
1070
     0
  0
ACAD_PROXY_OBJECT
  5
529
330
0
100
AcDbProxyObject
 90
      499
 91
      574
 93
      148
310
0001014350535212511156915493D112535011
330
506
 94
        0
1001
ACAD
1000
AcadProxyRoundTripData
1071
      518
1071
   851991
1070
     0
  0
ACAD_PROXY_OBJECT
  5
52A
330
0
100
AcDbProxyObject
 90
      499
 91
      574
 93
      124
310
00010142905352105510D21254D3D012
330
506
 94
        0
1001
ACAD
1000
AcadProxyRoundTripData
1071
      518
1071
   851991
1070
     0
  0
ACAD_PROXY_OBJECT
  5
52B
330
0
100
AcDbProxyObject
 90
      499
 91
      574
 93
      148
310
00010143905354D25391D31152105513105661
330
506
 94
        0
1001
ACAD
1000
AcadProxyRoundTripData
1071
      518
1071
   851991
1070
     0
  0
ACAD_PROXY_OBJECT
  5
52C
330
0
100
AcDbProxyObject
 90
      499
 91
      574
 93
      124
310
00010142D0535115D1D193111254D423
330
506
 94
        0
1001
ACAD
1000
AcadProxyRoundTripData
1071
      518
1071
   851991
1070
     0
  0
ACAD_PROXY_OBJECT
  5
52D
330
0
100
AcDbProxyObject
 90
      499
 91
      574
 93
      100
310
00010142105350555513D213A2
330
506
 94
        0
1001
ACAD
1000
AcadProxyRoundTripData
1071
      518
1071
   851991
1070
     0
  0
ACAD_PROXY_OBJECT
  5
52E
330
0
100
AcDbProxyObject
 90
      499
 91
      574
 93
      116
310
000101425053521390D3D553951014
330
506
 94
        0
1001
ACAD
1000
AcadProxyRoundTripData
1071
      518
1071
   851991
1070
     0
  0
ACAD_PROXY_OBJECT
  5
52F
330
0
100
AcDbProxyObject
 90
      499
 91
      574
 93
      108
310
0001014210535213941493D29010
330
506
 94
        0
1001
ACAD
1000
AcadProxyRoundTripData
1071
      518
1071
   851991
1070
     0
  0
ACAD_PROXY_OBJECT
  5
530
330
0
100
AcDbProxyObject
 90
      499
 91
      574
 93
      108
310
0001014210535213951654115070
330
506
 94
        0
1001
ACAD
1000
AcadProxyRoundTripData
1071
      518
1071
   851991
1070
     0
  0
ACAD_PROXY_OBJECT
  5
531
330
0
100
AcDbProxyObject
 90
      499
 91
      574
 93
      108
310
000101421053521395925155D0F0
330
506
 94
        0
1001
ACAD
1000
AcadProxyRoundTripData
1071
      518
1071
   851991
1070
     0
  0
ACAD_PROXY_OBJECT
  5
532
330
0
100
AcDbProxyObject
 90
      499
 91
      574
 93
      140
310
00010143505354D150D51253D390D3D41666
330
506
 94
        0
1001
ACAD
1000
AcadProxyRoundTripData
1071
      518
1071
   851991
1070
     0
  0
ACAD_PROXY_OBJECT
  5
533
330
0
100
AcDbProxyObject
 90
      499
 91
      574
 93
      108
310
00010142105350D3141493D29030
330
506
 94
        0
1001
ACAD
1000
AcadProxyRoundTripData
1071
      518
1071
   851991
1070
     0
  0
ACAD_PROXY_OBJECT
  5
534
330
0
100
AcDbProxyObject
 90
      499
 91
      574
 93
      212
310
00010143905350555513D2105510D21493D500000000000002E400
330
506
 94
        0
1001
ACAD
1000
AcadProxyRoundTripData
1071
      517
1071
   851991
1070
     0
  0
ACAD_PROXY_OBJECT
  5
535
330
0
100
AcDbProxyObject
 90
      499
 91
      574
 93
      156
310
00010143905350555513D2105510D21111551010
330
506
 94
        0
1001
ACAD
1000
AcadProxyRoundTripData
1071
      518
1071
   851991
1070
     0
  0
ACAD_PROXY_OBJECT
  5
542
330
0
100
AcDbProxyObject
 90
      499
 91
      574
 93
      116
310
000101425053541051D15311539190
330
506
 94
        0
1001
ACAD
1000
AcadProxyRoundTripData
1071
      518
1071
   851991
1070
     0
  0
ACAD_PROXY_OBJECT
  5
543
330
0
100
AcDbProxyObject
 90
      499
 91
      574
 93
      108
310
000101421053555312539154D051
330
506
 94
        0
1001
ACAD
1000
AcadProxyRoundTripData
1071
      518
1071
   851991
1070
     0
  0
ACAD_PROXY_OBJECT
  5
544
330
0
100
AcDbProxyObject
 90
      499
 91
      574
 93
      108
310
000101421053559312539154D031
330
506
 94
        0
1001
ACAD
1000
AcadProxyRoundTripData
1071
      518
1071
   851991
1070
     0
  0
ACAD_PROXY_OBJECT
  5
545
330
0
100
AcDbProxyObject
 90
      499
 91
      574
 93
      140
310
00010143105354D1911254D41353D1115010
330
506
 94
        0
1001
ACAD
1000
AcadProxyRoundTripData
1071
      518
1071
   851991
1070
     0
  0
ACAD_PROXY_OBJECT
  5
546
330
0
100
AcDbProxyObject
 90
      499
 91
      574
 93
      172
310
00010142505354119255105391C1C052DC9A6F104400
330
506
 94
        0
1001
ACAD
1000
AcadProxyRoundTripData
1071
      517
1071
   851991
1070
     0
  0
ACAD_PROXY_OBJECT
  5
547
330
0
100
AcDbProxyObject
 90
      499
 91
      574
 93
      164
310
000101421053559150D05551C000000000000E03F4
330
506
 94
        0
1001
ACAD
1000
AcadProxyRoundTripData
1071
      517
1071
   851991
1070
     0
  0
ACAD_PROXY_OBJECT
  5
548
330
0
100
AcDbProxyObject
 90
      499
 91
      574
 93
      180
310
00010142905350931153911513D307B14AE47E17A843F0
330
506
 94
        0
1001
ACAD
1000
AcadProxyRoundTripData
1071
      517
1071
   851991
1070
     0
  0
ACAD_PROXY_OBJECT
  5
549
330
0
100
AcDbProxyObject
 90
      499
 91
      574
 93
      172
310
0001014250535293D25391D05407B14AE47E17A843F3
330
506
 94
        0
1001
ACAD
1000
AcadProxyRoundTripData
1071
      517
1071
   851991
1070
     0
  0
ACAD_PROXY_OBJECT
  5
54A
330
0
100
AcDbProxyObject
 90
      499
 91
      574
 93
      172
310
000101425053541192551311538000000FC83D797413
330
506
 94
        0
1001
ACAD
1000
AcadProxyRoundTripData
1071
      517
1071
   851991
1070
     0
  0
ACAD_PROXY_OBJECT
  5
54B
330
0
100
AcDbProxyObject
 90
      499
 91
      574
 93
      156
310
00010141D053559150D4D18000000000000E03F9
330
506
 94
        0
1001
ACAD
1000
AcadProxyRoundTripData
1071
      517
1071
   851991
1070
     0
  0
ACAD_PROXY_OBJECT
  5
54C
330
0
100
AcDbProxyObject
 90
      499
 91
      574
 93
      156
310
00010141D05354D19513D309A9999999999993F9
330
506
 94
        0
1001
ACAD
1000
AcadProxyRoundTripData
1071
      517
1071
   851991
1070
     0
  0
ACAD_PROXY_OBJECT
  5
54D
330
0
100
AcDbProxyObject
 90
      499
 91
      574
 93
      172
310
000101425053541192551513D307B14AE47E17A843F3
330
506
 94
        0
1001
ACAD
1000
AcadProxyRoundTripData
1071
      517
1071
   851991
1070
     0
  0
ACAD_PROXY_OBJECT
  5
54E
330
0
100
AcDbProxyObject
 90
      499
 91
      574
 93
      188
310
00010142D05354D151D192551513D307B14AE47E17A843F0
330
506
 94
        0
1001
ACAD
1000
AcadProxyRoundTripData
1071
      517
1071
   851991
1070
     0
  0
ACAD_PROXY_OBJECT
  5
54F
330
0
100
AcDbProxyObject
 90
      499
 91
      574
 93
      148
310
000101419053541311538000000FC83D797414
330
506
 94
        0
1001
ACAD
1000
AcadProxyRoundTripData
1071
      517
1071
   851991
1070
     0
  0
ACAD_PROXY_OBJECT
  5
550
330
0
100
AcDbProxyObject
 90
      499
 91
      574
 93
      172
310
00010142505354105391D513D301C052DC9A6F104408
330
506
 94
        0
1001
ACAD
1000
AcadProxyRoundTripData
1071
      517
1071
   851991
1070
     0
  0
ACAD_PROXY_OBJECT
  5
551
330
0
100
AcDbProxyObject
 90
      499
 91
      574
 93
      132
310
0001014114D2569140000000000002440C
330
506
 94
        0
1001
ACAD
1000
AcadProxyRoundTripData
1071
      517
1071
   851991
1070
     0
  0
ACAD_PROXY_OBJECT
  5
552
330
0
100
AcDbProxyObject
 90
      499
 91
      574
 93
      156
310
00010142905351D4941491519256005034153470
330
506
 94
        0
1001
ACAD
1000
AcadProxyRoundTripData
1071
      539
1071
   851991
1070
     0
  0
ACAD_PROXY_OBJECT
  5
553
330
0
100
AcDbProxyObject
 90
      499
 91
      574
 93
      314
310
00014080509646973745363616C650000000000003C2FC000000000000F0BF0000003F20F5E5D040
330
506
 94
        0
1001
ACAD
1000
AcadProxyRoundTripData
1071
      540
1071
   851991
1070
     0
  0
ACAD_PROXY_OBJECT
  5
554
330
0
100
AcDbProxyObject
 90
      499
 91
      574
 93
      322
310
0001408050A65646175526F74617465060B51153EC87E4FC182D4454FB2119C0060B51153EC8465000
330
506
 94
        0
1001
ACAD
1000
AcadProxyRoundTripData
1071
      540
1071
   851991
1070
     0
  0
ACAD_PROXY_OBJECT
  5
555
330
0
100
AcDbProxyObject
 90
      499
 91
      574
 93
      314
310
00014080509656461755477697374060B51153EC846500000000FC83D797C10000003F20F5E5D050
330
506
 94
        0
1001
ACAD
1000
AcadProxyRoundTripData
1071
      540
1071
   851991
1070
     0
  0
ACAD_PROXY_OBJECT
  5
556
330
0
100
AcDbProxyObject
 90
      499
 91
      574
 93
      294
310
000140C050A656467654F75747075740144F3B7F635ECB74A140A4817D41BDB1E5B1A5B995
330
506
 94
        0
1001
ACAD
1000
AcadProxyRoundTripData
1071
      541
1071
   851991
1070
     0
  0
ACAD_PROXY_OBJECT
  5
557
330
0
100
AcDbProxyObject
 90
      499
 91
      574
 93
      154
310
0001404050B6564697450726576696577406407F
330
506
 94
        0
1001
ACAD
1000
AcadProxyRoundTripData
1071
      542
1071
   851991
1070
     0
  0
ACAD_PROXY_OBJECT
  5
558
330
0
100
AcDbProxyObject
 90
      499
 91
      574
 93
      170
310
0001404050A666C6F77556C696E657342A3A00C0001E
330
506
 94
        0
1001
ACAD
1000
AcadProxyRoundTripData
1071
      542
1071
   851991
1070
     0
  0
ACAD_PROXY_OBJECT
  5
559
330
0
100
AcDbProxyObject
 90
      499
 91
      574
 93
      170
310
0001404050A666C6F77566C696E657342A3A00C0001E
330
506
 94
        0
1001
ACAD
1000
AcadProxyRoundTripData
1071
      542
1071
   851991
1070
     0
  0
ACAD_PROXY_OBJECT
  5
55A
330
0
100
AcDbProxyObject
 90
      499
 91
      574
 93
      322
310
0001408050A666C7366456E645261640000000000003C2FC000000000000F0BF0000003F20F5E5D040
330
506
 94
        0
1001
ACAD
1000
AcadProxyRoundTripData
1071
      540
1071
   851991
1070
     0
  0
ACAD_PROXY_OBJECT
  5
55B
330
0
100
AcDbProxyObject
 90
      499
 91
      574
 93
      246
310
000140C05086A6E33644D6F64650143E3BA24EB8A134A4817D3585B9D585B0
330
506
 94
        0
1001
ACAD
1000
AcadProxyRoundTripData
1071
      541
1071
   851991
1070
     0
  0
ACAD_PROXY_OBJECT
  5
55C
330
0
100
AcDbProxyObject
 90
      499
 91
      574
 93
      294
310
000140C050A6A6E33644F75747075740144F3B7F635ECB74A140A4817D41BDB1E5B1A5B994
330
506
 94
        0
1001
ACAD
1000
AcadProxyRoundTripData
1071
      541
1071
   851991
1070
     0
  0
ACAD_PROXY_OBJECT
  5
55D
330
0
100
AcDbProxyObject
 90
      499
 91
      574
 93
      306
310
000140805086C656E675065726300000000002016D002D431CEBE2361A3F0000003F20F5E5D065
330
506
 94
        0
1001
ACAD
1000
AcadProxyRoundTripData
1071
      540
1071
   851991
1070
     0
  0
ACAD_PROXY_OBJECT
  5
55E
330
0
100
AcDbProxyObject
 90
      499
 91
      574
 93
      266
310
0001408050B6D61737344656E7369747942D431CEBE2361A3F0000003F20F5E5D07F
330
506
 94
        0
1001
ACAD
1000
AcadProxyRoundTripData
1071
      540
1071
   851991
1070
     0
  0
ACAD_PROXY_OBJECT
  5
55F
330
0
100
AcDbProxyObject
 90
      499
 91
      574
 93
      186
310
000140805096D617373546869636BA0000003F20F5E5D05A
330
506
 94
        0
1001
ACAD
1000
AcadProxyRoundTripData
1071
      540
1071
   851991
1070
     0
  0
ACAD_PROXY_OBJECT
  5
560
330
0
100
AcDbProxyObject
 90
      499
 91
      574
 93
      230
310
000140C05086D6173735479706501436F2AB64A14CA4817D4DA195B1B3
330
506
 94
        0
1001
ACAD
1000
AcadProxyRoundTripData
1071
      541
1071
   851991
1070
     0
  0
ACAD_PROXY_OBJECT
  5
561
330
0
100
AcDbProxyObject
 90
      499
 91
      574
 93
      242
310
000140805086F667366446973744000000FC83D797C10000003F20F5E5D075
330
506
 94
        0
1001
ACAD
1000
AcadProxyRoundTripData
1071
      540
1071
   851991
1070
     0
  0
ACAD_PROXY_OBJECT
  5
562
330
0
100
AcDbProxyObject
 90
      499
 91
      574
 93
      258
310
0001408050A7072696D52616469757342D431CEBE2361A3F0000003F20F5E5D050
330
506
 94
        0
1001
ACAD
1000
AcadProxyRoundTripData
1071
      540
1071
   851991
1070
     0
  0
ACAD_PROXY_OBJECT
  5
563
330
0
100
AcDbProxyObject
 90
      499
 91
      574
 93
      194
310
0001408050A7072696D546F70526164A0000003F20F5E5D040
330
506
 94
        0
1001
ACAD
1000
AcadProxyRoundTripData
1071
      540
1071
   851991
1070
     0
  0
ACAD_PROXY_OBJECT
  5
564
330
0
100
AcDbProxyObject
 90
      499
 91
      574
 93
      266
310
0001408050B7072696D5475626552616442D431CEBE2361A3F0000003F20F5E5D07F
330
506
 94
        0
1001
ACAD
1000
AcadProxyRoundTripData
1071
      540
1071
   851991
1070
     0
  0
ACAD_PROXY_OBJECT
  5
565
330
0
100
AcDbProxyObject
 90
      499
 91
      574
 93
      258
310
0001408050A7072696D4865696768744000000FC83D797C10000003F20F5E5D050
330
506
 94
        0
1001
ACAD
1000
AcadProxyRoundTripData
1071
      540
1071
   851991
1070
     0
  0
ACAD_PROXY_OBJECT
  5
566
330
0
100
AcDbProxyObject
 90
      499
 91
      574
 93
      250
310
000140805097072696D5374416E678182D4454FB2119C0060B51153EC8465010
330
506
 94
        0
1001
ACAD
1000
AcadProxyRoundTripData
1071
      540
1071
   851991
1070
     0
  0
ACAD_PROXY_OBJECT
  5
567
330
0
100
AcDbProxyObject
 90
      499
 91
      574
 93
      322
310
0001408050A7072696D456E64416E67060B51153EC846500182D4454FB2119C0060B51153EC8465000
330
506
 94
        0
1001
ACAD
1000
AcadProxyRoundTripData
1071
      540
1071
   851991
1070
     0
  0
ACAD_PROXY_OBJECT
  5
568
330
0
100
AcDbProxyObject
 90
      499
 91
      574
 93
      242
310
000140805087265765374416E678182D4454FB2119C0060B51153EC8465019
330
506
 94
        0
1001
ACAD
1000
AcadProxyRoundTripData
1071
      540
1071
   851991
1070
     0
  0
ACAD_PROXY_OBJECT
  5
569
330
0
100
AcDbProxyObject
 90
      499
 91
      574
 93
      314
310
00014080509726576456E64416E67060B51153EC846500182D4454FB2119C0060B51153EC8465010
330
506
 94
        0
1001
ACAD
1000
AcadProxyRoundTripData
1071
      540
1071
   851991
1070
     0
  0
ACAD_PROXY_OBJECT
  5
56A
330
0
100
AcDbProxyObject
 90
      499
 91
      574
 93
      194
310
0001404050C7266736655706174636865734290139C0C0002D
330
506
 94
        0
1001
ACAD
1000
AcadProxyRoundTripData
1071
      542
1071
   851991
1070
     0
  0
ACAD_PROXY_OBJECT
  5
56B
330
0
100
AcDbProxyObject
 90
      499
 91
      574
 93
      194
310
0001404050C7266736656706174636865734290139C0C0002D
330
506
 94
        0
1001
ACAD
1000
AcadProxyRoundTripData
1071
      542
1071
   851991
1070
     0
  0
ACAD_PROXY_OBJECT
  5
56C
330
0
100
AcDbProxyObject
 90
      499
 91
      574
 93
      246
310
000140C0508747562654D6F64650143E3BA24EB8A134A4817D3585B9D585B0
330
506
 94
        0
1001
ACAD
1000
AcadProxyRoundTripData
1071
      541
1071
   851991
1070
     0
  0
ACAD_PROXY_OBJECT
  5
56D
330
0
100
AcDbProxyObject
 90
      499
 91
      574
 93
      274
310
0001408050C747562654469616D6574657242D431CEBE2361A3F0000003F20F5E5D055
330
506
 94
        0
1001
ACAD
1000
AcadProxyRoundTripData
1071
      540
1071
   851991
1070
     0
  0
ACAD_PROXY_OBJECT
  5
56E
330
0
100
AcDbProxyObject
 90
      499
 91
      574
 93
      130
310
00014040509696E746572506F6C79A4057
330
506
 94
        0
1001
ACAD
1000
AcadProxyRoundTripData
1071
      542
1071
   851991
1070
     0
  0
ACAD_PROXY_OBJECT
  5
56F
330
0
100
AcDbProxyObject
 90
      499
 91
      574
 93
      162
310
0001404050D696E746572417567506F696E74A405C
330
506
 94
        0
1001
ACAD
1000
AcadProxyRoundTripData
1071
      542
1071
   851991
1070
     0
  0
ACAD_PROXY_OBJECT
  5
570
330
0
100
AcDbProxyObject
 90
      499
 91
      574
 93
      238
310
000140C0509696E7465727472696D014365EF257ECA108A4817D09BDD1A3
330
506
 94
        0
1001
ACAD
1000
AcadProxyRoundTripData
1071
      541
1071
   851991
1070
     0
  0
ACAD_PROXY_OBJECT
  5
571
330
0
100
AcDbProxyObject
 90
      499
 91
      574
 93
      230
310
000140C0509696E7465727479706501433136344A150A4817D51C9A5B5
330
506
 94
        0
1001
ACAD
1000
AcadProxyRoundTripData
1071
      541
1071
   851991
1070
     0
  0
ACAD_PROXY_OBJECT
  5
572
330
0
100
AcDbProxyObject
 90
      499
 91
      574
 93
      146
310
0001404050A636F726E65727472696D4064063
330
506
 94
        0
1001
ACAD
1000
AcadProxyRoundTripData
1071
      542
1071
   851991
1070
     0
  0
ACAD_PROXY_OBJECT
  5
573
330
0
100
AcDbProxyObject
 90
      499
 91
      574
 93
      130
310
000140405086F6673666B6565704064046
330
506
 94
        0
1001
ACAD
1000
AcadProxyRoundTripData
1071
      542
1071
   851991
1070
     0
  0
ACAD_PROXY_OBJECT
  5
574
330
0
100
AcDbProxyObject
 90
      499
 91
      574
 93
      146
310
0001404050A70726F6A4F757470757440A40E3
330
506
 94
        0
1001
ACAD
1000
AcadProxyRoundTripData
1071
      542
1071
   851991
1070
     0
  0
ACAD_PROXY_OBJECT
  5
575
330
0
100
AcDbProxyObject
 90
      499
 91
      574
 93
      270
310
000140C050D70726F6A446972656374696F6E014372F7AB6C0A124A4817DD92595DC
330
506
 94
        0
1001
ACAD
1000
AcadProxyRoundTripData
1071
      541
1071
   851991
1070
     0
  0
ACAD_PROXY_OBJECT
  5
576
330
0
100
AcDbProxyObject
 90
      499
 91
      574
 93
      130
310
0001404050870726F6A4B6565704064056
330
506
 94
        0
1001
ACAD
1000
AcadProxyRoundTripData
1071
      542
1071
   851991
1070
     0
  0
ACAD_PROXY_OBJECT
  5
577
330
0
100
AcDbProxyObject
 90
      499
 91
      574
 93
      278
310
000140C050B70726F6A53706163696E670144237164D2CA13CA4817D3DC1D1A5B585B1
330
506
 94
        0
1001
ACAD
1000
AcadProxyRoundTripData
1071
      541
1071
   851991
1070
     0
  0
ACAD_PROXY_OBJECT
  5
578
330
0
100
AcDbProxyObject
 90
      499
 91
      574
 93
      250
310
0001408050970726F6A54617065728182D4454FB21F9BF060B51153EC87E4FE5
330
506
 94
        0
1001
ACAD
1000
AcadProxyRoundTripData
1071
      540
1071
   851991
1070
     0
  0
ACAD_PROXY_OBJECT
  5
579
330
0
100
AcDbProxyObject
 90
      499
 91
      574
 93
      130
310
00014040508647261674B656570406406D
330
506
 94
        0
1001
ACAD
1000
AcadProxyRoundTripData
1071
      542
1071
   851991
1070
     0
  0
ACAD_PROXY_OBJECT
  5
57A
330
0
100
AcDbProxyObject
 90
      499
 91
      574
 93
      302
310
000140C050F647261674F7269656E746174696F6E0143E590243F0A138A4817D39BDC9B585B2
330
506
 94
        0
1001
ACAD
1000
AcadProxyRoundTripData
1071
      541
1071
   851991
1070
     0
  0
ACAD_PROXY_OBJECT
  5
57B
330
0
100
AcDbProxyObject
 90
      499
 91
      574
 93
      286
310
000140C050E647261675472616E736974696F6E0143A3B6A4DE0A10CA4817DCD0D85B195
330
506
 94
        0
1001
ACAD
1000
AcadProxyRoundTripData
1071
      541
1071
   851991
1070
     0
  0
ACAD_PROXY_OBJECT
  5
57C
330
0
100
AcDbProxyObject
 90
      499
 91
      574
 93
      318
310
000140C051061646A757374436F6E74696E7569747901442F746C2F778A14CA4817D4DB5BDBDD1A0
330
506
 94
        0
1001
ACAD
1000
AcadProxyRoundTripData
1071
      541
1071
   851991
1070
     0
  0
ACAD_PROXY_OBJECT
  5
57D
330
0
100
AcDbProxyObject
 90
      499
 91
      574
 93
      138
310
0001404050A61646A7573744B656570A4067
330
506
 94
        0
1001
ACAD
1000
AcadProxyRoundTripData
1071
      542
1071
   851991
1070
     0
  0
ACAD_PROXY_OBJECT
  5
57E
330
0
100
AcDbProxyObject
 90
      499
 91
      574
 93
      250
310
0001408050972756C65576964746842D431CEBE2361A3F0000003F20F5E5D064
330
506
 94
        0
1001
ACAD
1000
AcadProxyRoundTripData
1071
      540
1071
   851991
1070
     0
  0
ACAD_PROXY_OBJECT
  5
57F
330
0
100
AcDbProxyObject
 90
      499
 91
      574
 93
      274
310
0001408050C616E616C797A65447261667421D139D28615ED8FE060B51153EC842500D
330
506
 94
        0
1001
ACAD
1000
AcadProxyRoundTripData
1071
      540
1071
   851991
1070
     0
  0
ACAD_PROXY_OBJECT
  5
580
330
0
100
AcDbProxyObject
 90
      499
 91
      574
 93
      210
310
0001404050F616E616C797A654E756D4C696E65734163FDFC00006
330
506
 94
        0
1001
ACAD
1000
AcadProxyRoundTripData
1071
      542
1071
   851991
1070
     0
  0
ACAD_PROXY_OBJECT
  5
581
330
0
100
AcDbProxyObject
 90
      499
 91
      574
 93
      202
310
00014040512616E616C797A65526F746174654C696E6573A4040
330
506
 94
        0
1001
ACAD
1000
AcadProxyRoundTripData
1071
      542
1071
   851991
1070
     0
  0
ACAD_PROXY_OBJECT
  5
582
330
0
100
AcDbProxyObject
 90
      499
 91
      574
 93
      210
310
00014040513616E616C797A65446973706C61794C696E6573A4046
330
506
 94
        0
1001
ACAD
1000
AcadProxyRoundTripData
1071
      542
1071
   851991
1070
     0
  0
ACAD_PROXY_OBJECT
  5
583
330
0
100
AcDbProxyObject
 90
      499
 91
      574
 93
      258
310
00014040519616E616C797A655472616E736C7563656E7453757266616365A4042
330
506
 94
        0
1001
ACAD
1000
AcadProxyRoundTripData
1071
      542
1071
   851991
1070
     0
  0
ACAD_PROXY_OBJECT
  5
58C
330
0
100
AcDbProxyObject
 90
      499
 91
      574
 93
      698
310
0001000000009AA6A9AA4051E4D6F6E204F63742031332030303A33373A353920323030382028555443290141CD8B8D0B8C0B8C405184D6F6E204F63742031332030393A34313A333120323030380141CD8B8D0B8C0B8C74
330
506
330
58D
330
58E
330
590
330
0
 94
        0
1001
ACAD
1000
AcadProxyRoundTripData
1071
      548
1071
   851991
1070
     0
  0
ACAD_PROXY_OBJECT
  5
58D
330
0
100
AcDbProxyObject
 90
      499
 91
      574
 93
       70
310
0001AAA80820000001
330
506
330
58D
330
58D
 94
        0
1001
ACAD
1000
AcadProxyRoundTripData
1071
      549
1071
   851991
1070
     0
  0
ACAD_PROXY_OBJECT
  5
58E
330
0
100
AcDbProxyObject
 90
      499
 91
      574
 93
       48
310
00010000000011
330
506
330
0
330
58F
330
0
330
0
 94
        0
1001
ACAD
1000
AcadProxyRoundTripData
1071
      550
1071
   851991
1070
     0
  0
ACAD_PROXY_OBJECT
  5
58F
330
0
100
AcDbProxyObject
 90
      499
 91
      574
 93
       40
310
000100AAAA00
330
506
330
0
 94
        0
1001
ACAD
1000
AcadProxyRoundTripData
1071
      551
1071
   851991
1070
     0
  0
ACAD_PROXY_OBJECT
  5
591
330
0
100
AcDbProxyObject
 90
      499
 91
      574
 93
      124
310
00010142905350D3D39114D414D69050
330
506
 94
        0
1001
ACAD
1000
AcadProxyRoundTripData
1071
      518
1071
   851991
1070
     0
  0
ACAD_PROXY_OBJECT
  5
592
330
0
100
AcDbProxyObject
 90
      499
 91
      574
 93
      124
310
000101429053549553115353D1115010
330
506
 94
        0
1001
ACAD
1000
AcadProxyRoundTripData
1071
      518
1071
   851991
1070
     0
  0
ACAD_PROXY_OBJECT
  5
593
330
0
100
AcDbProxyObject
 90
      499
 91
      574
 93
      108
310
00010142105354D2D353D1115011
330
506
 94
        0
1001
ACAD
1000
AcadProxyRoundTripData
1071
      518
1071
   851991
1070
     0
  0
ACAD_PROXY_OBJECT
  5
594
330
0
100
AcDbProxyObject
 90
      499
 91
      574
 93
      140
310
000101435053511253511254D41353D11166
330
506
 94
        0
1001
ACAD
1000
AcadProxyRoundTripData
1071
      518
1071
   851991
1070
     0
  0
ACAD_PROXY_OBJECT
  5
595
330
0
100
AcDbProxyObject
 90
      499
 91
      574
 93
      180
310
00010142905354D2D05391D513D3000000000000010402
330
506
 94
        0
1001
ACAD
1000
AcadProxyRoundTripData
1071
      517
1071
   851991
1070
     0
  0
ACAD_PROXY_OBJECT
  5
596
330
0
100
AcDbProxyObject
 90
      499
 91
      574
 93
      164
310
00010142505354D2D4D516531140505434F4E542A1
330
506
 94
        0
1001
ACAD
1000
AcadProxyRoundTripData
1071
      539
1071
   851991
1070
     0
  0
ACAD_PROXY_OBJECT
  5
597
330
0
100
AcDbProxyObject
 90
      499
 91
      574
 93
      108
310
00010142105350D3511112535010
330
506
 94
        0
1001
ACAD
1000
AcadProxyRoundTripData
1071
      518
1071
   851991
1070
     0
  0
ACAD_PROXY_OBJECT
  5
598
330
0
100
AcDbProxyObject
 90
      499
 91
      574
 93
      108
310
00010142105350D3D35414D59010
330
506
 94
        0
1001
ACAD
1000
AcadProxyRoundTripData
1071
      518
1071
   851991
1070
     0
  0
ACAD_PROXY_OBJECT
  5
599
330
0
100
AcDbProxyObject
 90
      499
 91
      574
 93
      164
310
0001014290535410549514D4119600504CADFB0C21
330
506
 94
        0
1001
ACAD
1000
AcadProxyRoundTripData
1071
      539
1071
   851991
1070
     0
  0
ACAD_PROXY_OBJECT
  5
59A
330
0
100
AcDbProxyObject
 90
      499
 91
      574
 93
      220
310
0001014350535513D3D31093D11654119600508C2B0D9CEDEC3DEA83
330
506
 94
        0
1001
ACAD
1000
AcadProxyRoundTripData
1071
      539
1071
   851991
1070
     0
  0
ACAD_PROXY_OBJECT
  5
59B
330
0
100
AcDbProxyObject
 90
      499
 91
      574
 93
      116
310
000101425053511254D410D3D39014
330
506
 94
        0
1001
ACAD
1000
AcadProxyRoundTripData
1071
      518
1071
   851991
1070
     0
  0
ACAD_PROXY_OBJECT
  5
59C
330
0
100
AcDbProxyObject
 90
      499
 91
      574
 93
      108
310
00010142105350D3D39114D41010
330
506
 94
        0
1001
ACAD
1000
AcadProxyRoundTripData
1071
      518
1071
   851991
1070
     0
  0
ACAD_PROXY_OBJECT
  5
59D
330
0
100
AcDbProxyObject
 90
      499
 91
      574
 93
      124
310
0001014290535490511114D414D69191
330
506
 94
        0
1001
ACAD
1000
AcadProxyRoundTripData
1071
      518
1071
   851991
1070
     0
  0
ACAD_PROXY_OBJECT
  5
5A3
330
0
100
AcDbProxyObject
 90
      499
 91
      574
 93
      132
310
00010142D05050555513D4D3D315915016
330
506
 94
        0
1001
ACAD
1000
AcadProxyRoundTripData
1071
      518
1071
   851991
1070
     0
  0
ACAD_PROXY_OBJECT
  5
5A4
330
0
100
AcDbProxyObject
 90
      499
 91
      574
 93
      156
310
00010143905050555513D054D4D153509311501C
330
506
 94
        0
1001
ACAD
1000
AcadProxyRoundTripData
1071
      518
1071
   851991
1070
     0
  0
ACAD_PROXY_OBJECT
  5
5A5
330
0
100
AcDbProxyObject
 90
      499
 91
      574
 93
      148
310
00010143505055925155D49154D513D4915010
330
506
 94
        0
1001
ACAD
1000
AcadProxyRoundTripData
1071
      518
1071
   851991
1070
     0
  0
ACAD_PROXY_OBJECT
  5
5A6
330
0
100
AcDbProxyObject
 90
      499
 91
      574
 93
      124
310
00010142D050525394D15495105094E4
330
506
 94
        0
1001
ACAD
1000
AcadProxyRoundTripData
1071
      518
1071
   851991
1070
     0
  0
ACAD_PROXY_OBJECT
  5
5A7
330
0
100
AcDbProxyObject
 90
      499
 91
      574
 93
      148
310
00010143505054D0D153915554111055115010
330
506
 94
        0
1001
ACAD
1000
AcadProxyRoundTripData
1071
      518
1071
   851991
1070
     0
  0
ACAD_PROXY_OBJECT
  5
5A8
330
0
100
AcDbProxyObject
 90
      499
 91
      574
 93
      172
310
00010143105054D5509054D4D354119600503535542D
330
506
 94
        0
1001
ACAD
1000
AcadProxyRoundTripData
1071
      539
1071
   851991
1070
     0
  0
ACAD_PROXY_OBJECT
  5
5A9
330
0
100
AcDbProxyObject
 90
      499
 91
      574
 93
      172
310
00010142905054D0D15391541196005055343454E45D
330
506
 94
        0
1001
ACAD
1000
AcadProxyRoundTripData
1071
      539
1071
   851991
1070
     0
  0
ACAD_PROXY_OBJECT
  5
5AA
330
0
100
AcDbProxyObject
 90
      499
 91
      574
 93
      148
310
00010143505350555513D313D0D2D4D0D39014
330
506
 94
        0
1001
ACAD
1000
AcadProxyRoundTripData
1071
      518
1071
   851991
1070
     0
  0
ACAD_PROXY_OBJECT
  5
5AF
330
0
100
AcDbProxyObject
 90
      499
 91
      574
 93
       32
310
000100006E
330
506
340
5AC
330
5B1
330
5AC
 94
        0
1001
ACAD
1000
AcadProxyRoundTripData
1071
      557
1071
   851991
1070
     0
  0
ACAD_PROXY_OBJECT
  5
5B0
330
0
100
AcDbProxyObject
 90
      499
 91
      574
 93
       18
310
0001A8
330
506
 94
        0
1001
ACAD
1000
AcadProxyRoundTripData
1071
      558
1071
   851991
1070
     0
  0
ACAD_PROXY_OBJECT
  5
5B1
330
0
100
AcDbProxyObject
 90
      499
 91
      574
 93
      111
310
0001014150D5930C0D5050055400
330
506
330
5AF
330
5B0
 94
        0
1001
ACAD
1000
AcadProxyRoundTripData
1071
      559
1071
   851991
1070
     0
  0
ACAD_PROXY_OBJECT
  5
5B2
330
0
100
AcDbProxyObject
 90
      499
 91
      574
 93
       40
310
000100AAAA00
330
506
330
5B1
 94
        0
1001
ACAD
1000
AcadProxyRoundTripData
1071
      560
1071
   851991
1070
     0
  0
ACAD_PROXY_OBJECT
  5
5B3
330
0
100
AcDbProxyObject
 90
      499
 91
      574
 93
      108
310
0001901422000000000000AAAAA0
330
506
330
5B4
330
5B4
330
5B4
330
5B4
330
5B4
330
0
 94
        0
1001
ACAD
1000
AcadProxyRoundTripData
1071
      561
1071
   851991
1070
     0
  0
ACAD_PROXY_OBJECT
  5
5B4
330
0
100
AcDbProxyObject
 90
      499
 91
      574
 93
       51
310
00010000AAAA80
330
506
330
5B3
330
5B1
 94
        0
1001
ACAD
1000
AcadProxyRoundTripData
1071
      562
1071
   851991
1070
     0
  0
ACAD_PROXY_OBJECT
  5
5C5
330
0
100
AcDbProxyObject
 90
      499
 91
      574
 93
      140
310
00010142105350D55494D5110050349534F4
330
506
 94
        0
1001
ACAD
1000
AcadProxyRoundTripData
1071
      539
1071
   851991
1070
     0
  0
DICTIONARY
  5
4FE
102
{ACAD_REACTORS
330
4FD
102
}
330
4FD
100
AcDbDictionary
  3
DWGSETTINGS
350
4FF
  0
ACAD_PROXY_OBJECT
  5
5C3
102
{ACAD_REACTORS
330
4FD
102
}
330
4FD
100
AcDbProxyObject
 90
      499
 91
      574
 93
    12938
310
41102491013041105357CC1074CA404C504414D5F31439329013241105357CC9054CA404CD04414D5F33419199013441105357CD103466404D504414D5F3540D199013641105357CD90248E404DD04414D5F37411199013841105357CE101466404E504414D5F397F641102324141505357CC4C1074CA408D10505414D5F31
310
3140D19902495041505357CC4C9074C902408C13905414D5F304E41D32902314E41505357CC5390E4CA408C93905414D5F324E41532902334E41505357CCD3906466408D13905414D5F344E40D19902354E41505357CD53903466408D93905414D5F364E40923902374E41505357CDD3904466408E13905414D5F384E40519
310
902394E41505357CE539FD90440CC9053906414D5F31304E41D3290334414E41905357CC4C5390346640D25413906414D5F31324E41D32409044B4C494E41505357D0D3101465094112539193D08414D5F50415245464111942D055241484D3541905357D093D49074C9094115925155D08414D5F56494557534051942D064
310
24548494E4441905357D253959FD90D415514905253105414D5F545240D194250348494441905357D212511074650940D59254D06414D5F56495341D324250650415244494D42505357D410549112535034650941949151911253509414D5F52454644494D4111942553411092139590139CFFFFFFFF415092139594D06424
310
548494E44CFFFFFFFF411093D48C9055241484D3540519411093D48CD055241484D3540923411093D48D5055241484D35CFFFFFFFF4110D0530C90134CFFFFFFFF4110D0530CD0134409234110D0530D5013441D324110D0530DD0134479464110D1539390137CFFFFFFFF4110D15395D0137CFFFFFFFF4110D312539044B4
310
C494ECFFFFFFFF4110D3D38C50130CFFFFFFFF4110D3D38C90131CFFFFFFFF4110D3D38CD0132CFFFFFFFF4110D3D38D10132CFFFFFFFF411111551050134CFFFFFFFF4111125051D0135CFFFFFFFF411112531250135CFFFFFFFF411112535410650415244494DCFFFFFFFF411112535490652454644494DCFFFFFFFF4111
310
91535390138CFFFFFFFF4151915354139013840CFFFFFFFF4151915354D41023441CFFFFFFFF4151915354D5102344140D1941519153559390132CFFFFFFFF4151915355951013240D194112105510D0138CFFFFFFFF411212511390133CFFFFFFFF4112125115D0133CFFFFFFFF411213125390134CFFFFFFFF411213D0D3
310
90137CFFFFFFFF411213D0D5D0137CFFFFFFFF4112539193D04494E464FCFFFFFFFF411311505110135CFFFFFFFF419397D0921395902394ECFFFFFFFF419397D0D3D38C502304ECFFFFFFFF419397D0D3D38C902314ECFFFFFFFF419397D0D3D38CD02324ECFFFFFFFF419397D0D3D38D102324ECFFFFFFFF419397D0D153
310
93902374ECFFFFFFFF419397D0D15395D02374ECFFFFFFFF419397D1125312502354ECFFFFFFFF419397D2105510D02384ECFFFFFFFF419397D2125113902334ECFFFFFFFF419397D2125115D02334ECFFFFFFFF419397D3115051102354ECFFFFFFFF419397D391D25410349504ECFFFFFFFF419397D412105390334414EC
310
FFFFFFFF419397D510D3D3902304ECFFFFFFFF419397D5121312502344ECFFFFFFFF419397D5131153902304ECFFFFFFFF419397D594131250332414ECFFFFFFFF411391D2541024950CFFFFFFFF411410530C9055241484D3540519411410530CD055241484D3540923411410530D5055241484D35CFFFFFFFF4114121053
310
9023441CFFFFFFFF411413D4D390135CFFFFFFFF411490D1D390137CFFFFFFFF411490D1D5D0137CFFFFFFFF4114D09492D0134CFFFFFFFF4114D150D510134CFFFFFFFF4114D6508CD013540923411354D6535013540923411510D3D390130CFFFFFFFF411512131250134CFFFFFFFF411512550C9055241484D354051941
310
1512550CD055241484D3540923411512550D5055241484D35CFFFFFFFF411513115390130CFFFFFFFF415514905253105545241494CCFFFFFFFF411514931250134CFFFFFFFF411516150C5013640D19411516150C9013640D19411516150CD0136CFFFFFFFF411516150D5013641D32411516150DD0136479464115925155
310
D0456494557CFFFFFFFF4115915112103484944CFFFFFFFF4115915115903564953CFFFFFFFF41159413125023241CFFFFFFFF411692569050134CFFFFFFFFAA9FD404FE4290E4C9074C906465054C904465034650248D014651E519FD80
340
16
340
16
340
16
340
5C6
340
16
340
16
340
16
340
5C7
340
16
340
16
340
5C7
340
5C8
340
16
340
16
340
16
340
16
340
5C6
340
16
340
16
340
16
340
5C7
340
16
340
16
340
5C7
340
5C8
340
16
340
5C9
340
16
340
16
340
16
340
16
340
16
340
5C6
340
16
340
16
340
16
340
15
340
15
340
15
340
15
340
15
340
15
340
15
340
15
340
15
340
5CA
340
15
340
15
340
15
340
15
340
15
340
15
340
15
340
15
340
15
340
15
340
15
340
15
340
15
340
16
340
15
340
15
340
15
340
15
340
5CB
340
15
340
15
340
5CA
340
15
340
15
340
15
340
15
340
15
340
15
340
15
340
15
340
5CA
340
15
340
15
340
15
340
5CB
340
15
340
15
340
15
340
15
340
15
340
15
340
15
340
15
340
15
340
15
340
15
340
15
340
15
340
15
340
5CA
340
15
340
15
340
15
340
15
340
15
340
15
340
15
340
15
340
15
340
15
340
15
340
15
340
15
340
15
340
15
340
15
340
15
340
15
340
15
340
15
340
15
340
15
340
5CE
 94
        0
1001
ACAD
1000
AcadProxyRoundTripData
1071
      570
1071
   851991
1070
     0
  0
ACAD_PROXY_OBJECT
  5
5D5
102
{ACAD_REACTORS
330
5D0
102
}
330
5D0
100
AcDbProxyObject
 90
      499
 91
      574
 93
      253
310
43D1444494D454E53494F4E2C414D44545F2A5F44494D404A9012A404A9012AC
 94
        0
1001
ACAD
1000
AcadProxyRoundTripData
1071
      571
1071
   851991
1070
     0
  0
ACAD_PROXY_OBJECT
  5
5D4
102
{ACAD_REACTORS
330
5D0
102
}
330
5D0
100
AcDbProxyObject
 90
      499
 91
      574
 93
      181
310
43D012A42D05357D191504B505357CA9012A404A9012AC
 94
        0
1001
ACAD
1000
AcadProxyRoundTripData
1071
      571
1071
   851991
1070
     0
  0
ACAD_PROXY_OBJECT
  5
5D1
102
{ACAD_REACTORS
330
5D0
102
}
330
5D0
100
AcDbProxyObject
 90
      499
 91
      574
 93
      133
310
43D054841544348404A9012A404A9012AC
 94
        0
1001
ACAD
1000
AcadProxyRoundTripData
1071
      571
1071
   851991
1070
     0
  0
ACAD_PROXY_OBJECT
  5
5D2
102
{ACAD_REACTORS
330
5D0
102
}
330
5D0
100
AcDbProxyObject
 90
      499
 91
      574
 93
      549
310
43D044C494E4549CE0B0E138B0A8B4E0B0A8B4E138B105357CE0B105357CE138B0A8B505357CE0B0A8B505357CE139012A404A910494E534552542C5354445041525432449
 94
        0
1001
ACAD
1000
AcadProxyRoundTripData
1071
      571
1071
   851991
1070
     0
  0
ACAD_PROXY_OBJECT
  5
5D6
102
{ACAD_REACTORS
330
5D0
102
}
330
5D0
100
AcDbProxyObject
 90
      499
 91
      574
 93
      181
310
43D0341524341105357CD5012A404C906494E534552544
 94
        0
1001
ACAD
1000
AcadProxyRoundTripData
1071
      571
1071
   851991
1070
     0
  0
ACAD_PROXY_OBJECT
  5
5D3
102
{ACAD_REACTORS
330
5D0
102
}
330
5D0
100
AcDbProxyObject
 90
      499
 91
      574
 93
     1053
310
43D7841434D46434652414D452C41434D444154554D5441524745542C41434D444154554D49442C41434D57454C4453594D2C41434D5355524653594D2C41434D4645415449442C41434D504152545245462C41434D42414C4C4F4F4E2C414D44544544474553594D2C414D47534352455743414C435441424C45404A9012A
310
404A9012AA
 94
        0
1001
ACAD
1000
AcadProxyRoundTripData
1071
      571
1071
   851991
1070
     0
  0
LAYER_INDEX
  5
5D8
102
{ACAD_REACTORS
330
5D7
102
}
330
5D7
100
AcDbIndex
 40
2454756.575282291
100
AcDbLayerIndex
  8
0
360
5D9
 90
        0
  8
10
360
5DA
 90
      309
  8
12
360
5DB
 90
       12
  8
16
360
5DC
 90
        2
  8
19
360
5DD
 90
        1
  8
DEFPOINTS
360
9FC
 90
        0
  0
ACAD_PROXY_OBJECT
  5
5B8
102
{ACAD_REACTORS
330
5B7
102
}
330
5B7
100
AcDbProxyObject
 90
      499
 91
      574
 93
      187
310
057356C1D5C406406AA8FFFFFFFF0AE50543564C3035404D
330
1F
330
0
330
5B1
 94
        0
1001
ACAD
1000
AcadProxyRoundTripData
1071
      564
1071
   851991
1070
     0
  0
ACAD_PROXY_OBJECT
  5
4FF
102
{ACAD_REACTORS
330
4FE
102
}
330
4FE
100
AcDbProxyObject
 90
      499
 91
      574
 93
     2270
310
4050B44574753455454494E4753A1286829C8E82A4A482B282A106660F8686AF86C608321A2A720A723A0A849A1ABE1C983E18999AA0C868A9C889282940000000000000488083A1A2A72224A0A9A0A8418983E19183E199820E868A9C8892A6A894000000000000010808321A2A72622A7250000000000000122020C868A9
310
C9E8C8C940000000000000488084A1A624A720A92920ACA0A8418983E19183E19982108698929C8AA8B2A082A0AB098929C8A84A22BA3AAA9A1A0A622A50A0E9882A6A89E849482A02608426A0A5A2AB24A2ABA7E8120CA0A68682988A0C00800010652455649534941501304154D0D0531150540CC4E8C50954494D455354
310
414D504A03D0A805197267341441ED115D1D4D15515125391D4D153911F4
 94
        0
1001
ACAD
1000
AcadProxyRoundTripData
1071
      512
1071
   851991
1070
     0
  0
IDBUFFER
  5
5D9
330
0
100
AcDbIdBuffer
  0
IDBUFFER
  5
5DA
330
0
100
AcDbIdBuffer
330
90B
330
90C
330
90D
330
90E
330
90F
330
910
330
911
330
912
330
913
330
914
330
915
330
916
330
917
330
918
330
919
330
91A
330
91B
330
91C
330
91D
330
91E
330
91F
330
920
330
921
330
922
330
923
330
924
330
925
330
926
330
927
330
928
330
929
330
92A
330
92B
330
92C
330
92D
330
92E
330
92F
330
930
330
931
330
932
330
933
330
934
330
935
330
936
330
937
330
938
330
939
330
93A
330
93B
330
93C
330
93D
330
93E
330
93F
330
940
330
941
330
942
330
943
330
944
330
945
330
946
330
947
330
948
330
949
330
94A
330
94B
330
94C
330
94D
330
94E
330
94F
330
804
330
805
330
806
330
807
330
808
330
809
330
80A
330
80B
330
80C
330
80D
330
80E
330
80F
330
810
330
811
330
812
330
813
330
814
330
815
330
817
330
818
330
819
330
81A
330
81B
330
81C
330
81D
330
81E
330
81F
330
820
330
821
330
822
330
823
330
824
330
825
330
826
330
827
330
828
330
829
330
82A
330
82B
330
82C
330
82D
330
82E
330
830
330
831
330
832
330
833
330
836
330
837
330
838
330
839
330
83A
330
83B
330
83C
330
83D
330
83E
330
83F
330
840
330
841
330
842
330
843
330
844
330
845
330
846
330
847
330
848
330
849
330
84A
330
84B
330
84C
330
84D
330
84E
330
84F
330
850
330
851
330
852
330
853
330
854
330
855
330
856
330
857
330
858
330
859
330
85A
330
85B
330
85C
330
85D
330
85E
330
85F
330
860
330
861
330
862
330
863
330
864
330
865
330
866
330
867
330
868
330
869
330
86A
330
86B
330
86C
330
86D
330
86E
330
86F
330
870
330
874
330
875
330
876
330
877
330
878
330
879
330
87A
330
87C
330
880
330
881
330
882
330
883
330
884
330
885
330
886
330
888
330
889
330
88A
330
88B
330
88C
330
88D
330
891
330
892
330
893
330
894
330
895
330
896
330
897
330
899
330
89D
330
89E
330
89F
330
8A0
330
8A1
330
8A2
330
8A3
330
8A5
330
8A6
330
8A7
330
8A9
330
8AA
330
8AC
330
8AD
330
8AE
330
8AF
330
8B0
330
8B1
330
8B2
330
8B3
330
8B5
330
8B6
330
8B7
330
8B8
330
8B9
330
8BA
330
8BB
330
8BC
330
8BD
330
8BE
330
8BF
330
8C0
330
8C1
330
8C2
330
8C3
330
8C4
330
8C5
330
8C6
330
8C7
330
8C8
330
8C9
330
8CA
330
8CB
330
8CC
330
8CD
330
8CE
330
8CF
330
8D0
330
8D1
330
8D2
330
8D3
330
8D4
330
8D5
330
8D6
330
8D7
330
8D8
330
8D9
330
8DA
330
8DB
330
8DC
330
8DD
330
8DE
330
8DF
330
8E0
330
8E1
330
8E2
330
8E3
330
8E4
330
8E5
330
8E6
330
8E7
330
8E8
330
8E9
330
8EA
330
8EB
330
8EC
330
8ED
330
8EE
330
8EF
330
8F0
330
8F1
330
8F2
330
8F3
330
8F4
330
8F5
330
8F6
330
8F7
330
8F8
330
8F9
330
8FA
330
8FB
330
8FC
330
8FD
330
8FE
330
8FF
330
900
330
901
330
902
330
903
330
904
330
905
330
906
330
907
330
908
330
909
330
90A
  0
IDBUFFER
  5
5DB
330
0
100
AcDbIdBuffer
330
816
330
82F
330
871
330
872
330
87D
330
87E
330
88E
330
88F
330
89A
330
89B
330
8A8
330
8AB
  0
IDBUFFER
  5
5DC
330
0
100
AcDbIdBuffer
330
7FB
330
801
  0
IDBUFFER
  5
5DD
330
0
100
AcDbIdBuffer
330
5EB
  0
IDBUFFER
  5
9FC
330
0
100
AcDbIdBuffer
  0
ENDSEC
  0
EOF
