  0
SECTION
  2
HEADER
  9
$ACADVER
  1
AC1014
  9
$ACADMAINTVER
 70
     9
  9
$DWGCODEPAGE
  3
ANSI_932
  9
$INSBASE
 10
0.0
 20
0.0
 30
0.0
  9
$EXTMIN
 10
151.6094869266892
 20
20.30639607973216
 30
-0.0000000000112498
  9
$EXTMAX
 10
905.0995106268018
 20
524.3658423210617
 30
0.0000000000002956
  9
$LIMMIN
 10
0.0
 20
0.0
  9
$LIMMAX
 10
420.0
 20
297.0
  9
$ORTHOMODE
 70
     0
  9
$REGENMODE
 70
     1
  9
$FILLMODE
 70
     1
  9
$QTEXTMODE
 70
     0
  9
$MIRRTEXT
 70
     1
  9
$DRAGMODE
 70
     2
  9
$LTSCALE
 40
1.0
  9
$OSMODE
 70
  2983
  9
$ATTMODE
 70
     1
  9
$TEXTSIZE
 40
2.5
  9
$TRACEWID
 40
1.0
  9
$TEXTSTYLE
  7
STANDARD
  9
$CLAYER
  8
DEFPOINTS
  9
$CELTYPE
  6
BYLAYER
  9
$CECOLOR
 62
   256
  9
$CELTSCALE
 40
1.0
  9
$DELOBJ
 70
     1
  9
$DISPSILH
 70
     0
  9
$DIMSCALE
 40
1.0
  9
$DIMASZ
 40
2.5
  9
$DIMEXO
 40
0.625
  9
$DIMDLI
 40
3.75
  9
$DIMRND
 40
0.0
  9
$DIMDLE
 40
0.0
  9
$DIMEXE
 40
1.25
  9
$DIMTP
 40
0.0
  9
$DIMTM
 40
0.0
  9
$DIMTXT
 40
2.5
  9
$DIMCEN
 40
2.5
  9
$DIMTSZ
 40
0.0
  9
$DIMTOL
 70
     0
  9
$DIMLIM
 70
     0
  9
$DIMTIH
 70
     0
  9
$DIMTOH
 70
     0
  9
$DIMSE1
 70
     0
  9
$DIMSE2
 70
     0
  9
$DIMTAD
 70
     1
  9
$DIMZIN
 70
     8
  9
$DIMBLK
  1

  9
$DIMASO
 70
     1
  9
$DIMSHO
 70
     1
  9
$DIMPOST
  1

  9
$DIMAPOST
  1

  9
$DIMALT
 70
     0
  9
$DIMALTD
 70
     3
  9
$DIMALTF
 40
0.03937007874016
  9
$DIMLFAC
 40
1.0
  9
$DIMTOFL
 70
     1
  9
$DIMTVP
 40
0.0
  9
$DIMTIX
 70
     0
  9
$DIMSOXD
 70
     0
  9
$DIMSAH
 70
     0
  9
$DIMBLK1
  1

  9
$DIMBLK2
  1

  9
$DIMSTYLE
  2
ISO-25
  9
$DIMCLRD
 70
     0
  9
$DIMCLRE
 70
     0
  9
$DIMCLRT
 70
     0
  9
$DIMTFAC
 40
1.0
  9
$DIMGAP
 40
0.625
  9
$DIMJUST
 70
     0
  9
$DIMSD1
 70
     0
  9
$DIMSD2
 70
     0
  9
$DIMTOLJ
 70
     0
  9
$DIMTZIN
 70
     8
  9
$DIMALTZ
 70
     0
  9
$DIMALTTZ
 70
     0
  9
$DIMFIT
 70
     3
  9
$DIMUPT
 70
     0
  9
$DIMUNIT
 70
     2
  9
$DIMDEC
 70
     2
  9
$DIMTDEC
 70
     2
  9
$DIMALTU
 70
     2
  9
$DIMALTTD
 70
     3
  9
$DIMTXSTY
  7
STANDARD
  9
$DIMAUNIT
 70
     0
  9
$LUNITS
 70
     2
  9
$LUPREC
 70
     2
  9
$SKETCHINC
 40
1.0
  9
$FILLETRAD
 40
10.0
  9
$AUNITS
 70
     0
  9
$AUPREC
 70
     0
  9
$MENU
  1
.
  9
$ELEVATION
 40
0.0
  9
$PELEVATION
 40
0.0
  9
$THICKNESS
 40
0.0
  9
$LIMCHECK
 70
     0
  9
$BLIPMODE
 70
     0
  9
$CHAMFERA
 40
10.0
  9
$CHAMFERB
 40
10.0
  9
$CHAMFERC
 40
20.0
  9
$CHAMFERD
 40
0.0
  9
$SKPOLY
 70
     0
  9
$TDCREATE
 40
2454596.550355717
  9
$TDUPDATE
 40
2454890.870827905
  9
$TDINDWG
 40
0.0801383681
  9
$TDUSRTIMER
 40
0.0801378125
  9
$USRTIMER
 70
     1
  9
$ANGBASE
 50
0.0
  9
$ANGDIR
 70
     0
  9
$PDMODE
 70
     0
  9
$PDSIZE
 40
0.0
  9
$PLINEWID
 40
0.0
  9
$COORDS
 70
     0
  9
$SPLFRAME
 70
     0
  9
$SPLINETYPE
 70
     6
  9
$SPLINESEGS
 70
     8
  9
$ATTDIA
 70
     0
  9
$ATTREQ
 70
     1
  9
$HANDLING
 70
 22529
  9
$HANDSEED
  5
13A0
  9
$SURFTAB1
 70
     6
  9
$SURFTAB2
 70
     6
  9
$SURFTYPE
 70
     6
  9
$SURFU
 70
     6
  9
$SURFV
 70
     6
  9
$UCSNAME
  2

  9
$UCSORG
 10
0.0
 20
0.0
 30
0.0
  9
$UCSXDIR
 10
1.0
 20
0.0
 30
0.0
  9
$UCSYDIR
 10
0.0
 20
1.0
 30
0.0
  9
$PUCSNAME
  2

  9
$PUCSORG
 10
0.0
 20
0.0
 30
0.0
  9
$PUCSXDIR
 10
1.0
 20
0.0
 30
0.0
  9
$PUCSYDIR
 10
0.0
 20
1.0
 30
0.0
  9
$USERI1
 70
     0
  9
$USERI2
 70
     0
  9
$USERI3
 70
     0
  9
$USERI4
 70
     0
  9
$USERI5
 70
     0
  9
$USERR1
 40
0.0
  9
$USERR2
 40
0.0
  9
$USERR3
 40
0.0
  9
$USERR4
 40
0.0
  9
$USERR5
 40
0.0
  9
$WORLDVIEW
 70
     1
  9
$SHADEDGE
 70
     3
  9
$SHADEDIF
 70
    70
  9
$TILEMODE
 70
     1
  9
$MAXACTVP
 70
    48
  9
$PINSBASE
 10
0.0
 20
0.0
 30
0.0
  9
$PLIMCHECK
 70
     0
  9
$PEXTMIN
 10
28.5263154029846
 20
19.82258291244505
 30
0.0
  9
$PEXTMAX
 10
256.7368386268614
 20
178.4032462120055
 30
0.0
  9
$PLIMMIN
 10
-5.873748779296875
 20
-5.873749732971191
  9
$PLIMMAX
 10
291.1369018554686
 20
204.0995779037474
  9
$UNITMODE
 70
     0
  9
$VISRETAIN
 70
     1
  9
$PLINEGEN
 70
     0
  9
$PSLTSCALE
 70
     1
  9
$TREEDEPTH
 70
  3020
  9
$PICKSTYLE
 70
     1
  9
$CMLSTYLE
  2
STANDARD
  9
$CMLJUST
 70
     0
  9
$CMLSCALE
 40
20.0
  9
$PROXYGRAPHICS
 70
     1
  9
$MEASUREMENT
 70
     0
  0
ENDSEC
  0
SECTION
  2
CLASSES
  0
CLASS
  1
ACDBDICTIONARYWDFLT
  2
AcDbDictionaryWithDefault
  3
AutoCAD 2000
 90
        0
280
     0
281
     0
  0
CLASS
  1
ACDBPLACEHOLDER
  2
AcDbPlaceHolder
  3
AutoCAD 2000
 90
        0
280
     0
281
     0
  0
CLASS
  1
LAYOUT
  2
AcDbLayout
  3
AutoCAD 2000
 90
        0
280
     0
281
     0
  0
CLASS
  1
DICTIONARYVAR
  2
AcDbDictionaryVar
  3
AutoCAD 2000
 90
        0
280
     0
281
     0
  0
CLASS
  1
LONG_TRANSACTION
  2
AcDbLongTransaction
  3
AutoCAD 2000
 90
        0
280
     0
281
     0
  0
CLASS
  1
LWPOLYLINE
  2
AcDbPolyline
  3
AutoCAD 2000
 90
        0
280
     0
281
     1
  0
CLASS
  1
HATCH
  2
AcDbHatch
  3
AutoCAD 2000
 90
        0
280
     0
281
     1
  0
CLASS
  1
XRECORD
  2
AcDbXrecord
  3
AutoCAD 2000
 90
        0
280
     0
281
     0
  0
CLASS
  1
LONG_TRANSACTION
  2
AcDbLongTransaction
  3
AutoCAD 2000
 90
        0
280
     0
281
     0
  0
CLASS
  1
LWPOLYLINE
  2
AcDbPolyline
  3
AutoCAD 2000
 90
        0
280
     0
281
     1
  0
CLASS
  1
HATCH
  2
AcDbHatch
  3
AutoCAD 2000
 90
        0
280
     0
281
     1
  0
CLASS
  1
XRECORD
  2
AcDbXrecord
  3
AutoCAD 2000
 90
        0
280
     0
281
     0
  0
CLASS
  1
AMGSETTINGSOBJ
  2
AmgSettingsObj
  3
"AcadM|Product Description: AutoCAD Mechanical 2000|Company: Autodesk"
 90
        0
280
     0
281
     0
  0
CLASS
  1
ACME_DOCUMENT
  2
AcMeDbDoc
  3
AcMeServices
 90
        0
280
     0
281
     0
  0
CLASS
  1
ACMESCOPE
  2
AcMeScope
  3
AcMeServices
 90
        0
280
     0
281
     0
  0
CLASS
  1
ACMECOMMANDHISTORY
  2
AcMeCommandHistory
  3
AcMeServices
 90
        0
280
     0
281
     0
  0
CLASS
  1
ACIMSYSVARMAN
  2
AcImSysVarManager
  3
AcMeServices
 90
        0
280
     0
281
     0
  0
CLASS
  1
ACIMREALSYSVAR
  2
AcImRealSysVar
  3
AcMeServices
 90
        0
280
     0
281
     0
  0
CLASS
  1
ACIMINTSYSVAR
  2
AcImIntSysVar
  3
AcMeServices
 90
        0
280
     0
281
     0
  0
CLASS
  1
ACMEDRAWINGMAN
  2
AcMeDrawingMan
  3
AcMeServices
 90
        0
280
     0
281
     0
  0
CLASS
  1
ACMEVIEW
  2
AcMeView
  3
AcMeServices
 90
        0
280
     0
281
     0
  0
CLASS
  1
ACDBENTITYCACHE
  2
AcMeEntityCache
  3
AcMeServices
 90
        0
280
     0
281
     0
  0
CLASS
  1
GSMANAGER
  2
AcMeGSManager
  3
AcMeServices
 90
        0
280
     0
281
     0
  0
CLASS
  1
AMDTINTERNALREACTOR
  2
AmdtInternalReactor
  3
AcMeServices
 90
        0
280
     0
281
     0
  0
CLASS
  1
ACMESTATEMGR
  2
AcMeStateMgr
  3
AcMeServices
 90
        0
280
     0
281
     0
  0
CLASS
  1
ACGREFMASTER
  2
AcGrefMaster
  3
AcAttribServices
 90
        0
280
     0
281
     0
  0
CLASS
  1
AM_DRAWING_MGR
  2
AcDmDwgMgr
  3
AcMechDwgViewMgmt
 90
        0
280
     0
281
     0
  0
CLASS
  1
AM_DWG_DOCUMENT
  2
AcDmDwgDocument
  3
AcMechDwgViewMgmt
 90
        0
280
     0
281
     0
  0
CLASS
  1
AM_DWG_SHEET
  2
AcDmSheet
  3
AcMechDwgViewMgmt
 90
        0
280
     0
281
     0
  0
CLASS
  1
AM_VIEWDIMPARMAP
  2
AcDmViewDimParMap
  3
AcMechDwgViewMgmt
 90
        0
280
     0
281
     0
  0
CLASS
  1
AM_DWGMGR_NAME
  2
AcDmDwgMgrName
  3
AcMechDwgViewMgmt
 90
        0
280
     0
281
     0
  0
CLASS
  1
ACME_DATABASE
  2
AcMeDbDatabase
  3
AcMeServices
 90
        0
280
     0
281
     0
  0
CLASS
  1
ACRFINSADJUSTERMGR
  2
AcRfInsAdjusterMgr
  3
AcMeServices
 90
        0
280
     0
281
     0
  0
CLASS
  1
ACGREFACADMASTER
  2
AcGrefacadMaster
  3
AcGrefServices
 90
        0
280
     0
281
     0
  0
CLASS
  1
AMDTMENUSTATEMGR
  2
AmdtMenuStateMgr
  3
McadcomServices
 90
        0
280
     0
281
     0
  0
CLASS
  1
AMDTMCOMMENUSTATE
  2
AmdtMcomMenuState
  3
McadcomServices
 90
        0
280
     0
281
     0
  0
CLASS
  1
AMIMASTER
  2
AmiMaster
  3
AmiServices
 90
        0
280
     0
281
     0
  0
CLASS
  1
ASAPP
  2
AcAsAppObject
  3
AutoSurfServices
 90
        0
280
     0
281
     0
  0
CLASS
  1
IM_STATIC_MAN
  2
AcImStaticVarManager
  3
AcMeServices
 90
        0
280
     0
281
     0
  0
CLASS
  1
ACIMSTRSYSVAR
  2
AcImStrSysVar
  3
AcMeServices
 90
        0
280
     0
281
     0
  0
CLASS
  1
ACIMDBLSTATICVAR
  2
AcImDblStaticVar
  3
AcMeServices
 90
        0
280
     0
281
     0
  0
CLASS
  1
ACIMSTRSTATICVAR
  2
AcImStrStaticVar
  3
AcMeServices
 90
        0
280
     0
281
     0
  0
CLASS
  1
ACIMINTSTATICVAR
  2
AcImIntStaticVar
  3
AcMeServices
 90
        0
280
     0
281
     0
  0
CLASS
  1
ACASGREFMASTER
  2
AcAsGrefMaster
  3
AutoSurfResolverServices
 90
        0
280
     0
281
     0
  0
CLASS
  1
ACADGREFMODULE
  2
AcAdGrefModule
  3
AdGrefServices
 90
        0
280
     0
281
     0
  0
CLASS
  1
AMDTMAPISURFMOUDULE
  2
AmdtMApiSurfModule
  3
MApiSurfServices
 90
        0
280
     0
281
     0
  0
CLASS
  1
MAPIAMMOUDLE
  2
MApiAmModule
  3
MApiAmServices
 90
        0
280
     0
281
     0
  0
CLASS
  1
AMDTADMENUSTATE
  2
AmdtAdMenuState
  3
DesignerServices
 90
        0
280
     0
281
     0
  0
CLASS
  1
ADAPPL
  2
AcAdAppl
  3
DesignerServices
 90
        0
280
     0
281
     0
  0
CLASS
  1
DEPMGR
  2
AcAdDepMgr
  3
DesignerServices
 90
        0
280
     0
281
     0
  0
CLASS
  1
PARAMMGR
  2
AcAdParamMgr
  3
DesignerServices
 90
        0
280
     0
281
     0
  0
CLASS
  1
PARAMSCOPE
  2
AcAdParamScope
  3
DesignerServices
 90
        0
280
     0
281
     0
  0
CLASS
  1
NAMEDAPPL
  2
AcAdNamedAppl
  3
DesignerServices
 90
        0
280
     0
281
     0
  0
CLASS
  1
AMDTDMMENUSTATE
  2
AmdtDmMenuState
  3
AcMechDwgViewMgmt
 90
        0
280
     0
281
     0
  0
CLASS
  1
MAPIADMODULE
  2
MApiAdModule
  3
MApiAdServices
 90
        0
280
     0
281
     0
  0
CLASS
  1
AMDTAMMENUSTATE
  2
AmdtAmMenuState
  3
DesignerAssemblies
 90
        0
280
     0
281
     0
  0
CLASS
  1
ACAMPROJECT
  2
AcAmProject
  3
DesignerAssemblies
 90
        0
280
     0
281
     0
  0
CLASS
  1
ACAMGRCOMPDEF
  2
AcAmGrCompDef
  3
DesignerAssemblies
 90
        0
280
     0
281
     0
  0
CLASS
  1
ACCMCONTEXT
  2
AcCmContext
  3
DesignerAssemblies
 90
        0
280
     0
281
     0
  0
CLASS
  1
ACAMCOMPDEF
  2
AcAmCompDef
  3
DesignerAssemblies
 90
        0
280
     0
281
     0
  0
CLASS
  1
ACAMCOMPDEFMGR
  2
AcAmCompDefMgr
  3
DesignerAssemblies
 90
        0
280
     0
281
     0
  0
CLASS
  1
AMCONTEXTMGR
  2
AcAmContextMgr
  3
DesignerAssemblies
 90
        0
280
     0
281
     0
  0
CLASS
  1
ACAMCONTEXTMODELER
  2
AcAmContextModeler
  3
DesignerAssemblies
 90
        0
280
     0
281
     0
  0
CLASS
  1
ACMDATADICTIONARY
  2
AcmDataDictionary
  3
"AcmSymBB|Product Description: AutoCAD Mechanical 2000|Company: Autodesk"
 90
        0
280
     0
281
     0
  0
CLASS
  1
ACMDATAENTRYBLOCK
  2
AcmDataEntryBlock
  3
"AcmSymBB|Product Description: AutoCAD Mechanical 2000|Company: Autodesk"
 90
        0
280
     0
281
     0
  0
CLASS
  1
CATALOGSTATE
  2
AcAmCatalogState
  3
DesignerAssemblies
 90
        0
280
     0
281
     0
  0
CLASS
  1
ACAMGRCOMPDEFSET
  2
AcAmGrCompDefSet
  3
DesignerAssemblies
 90
        0
280
     0
281
     0
  0
CLASS
  1
AMDTBROWSERDBTAB
  2
AmdtBrowserDbTab
  3
McadcomServices
 90
        0
280
     0
281
     0
  0
CLASS
  1
CBROWSERAPPOBJECT
  2
CBrowserAppObject
  3
McadcomServices
 90
        0
280
     0
281
     0
  0
CLASS
  1
DM_PLACEHOLDER
  2
AcDmSelsetPlaceholder
  3
AcMechDwgViewMgmt
 90
        0
280
     0
281
     0
  0
CLASS
  1
AMGOBJPROPCFG
  2
AmgObjPropCfg
  3
"AmgLay|Product Description: AutoCAD Mechanical 2000|Company: Autodesk"
 90
        1
280
     0
281
     0
  0
CLASS
  1
ACAMGFILTERDAT
  2
AcAmgFilterDat
  3
"AcadM|Product Description: AutoCAD Mechanical 2000|Company: Autodesk"
 90
        0
280
     0
281
     0
  0
CLASS
  1
LAYER_INDEX
  2
AcDbLayerIndex
  3
AutoCAD 2000
 90
        0
280
     0
281
     0
  0
CLASS
  1
IDBUFFER
  2
AcDbIdBuffer
  3
AutoCAD 2000
 90
        0
280
     0
281
     0
  0
CLASS
  1
ACAD_PROXY_OBJECT_WRAPPER
  2
AcDbProxyObjectWrapper
  3
AutoCAD 2000
 90
        0
280
     0
281
     0
  0
CLASS
  1
LONG_TRANSACTION
  2
AcDbLongTransaction
  3
AutoCAD 2000
 90
        0
280
     0
281
     0
  0
CLASS
  1
LWPOLYLINE
  2
AcDbPolyline
  3
AutoCAD 2000
 90
        0
280
     0
281
     1
  0
CLASS
  1
HATCH
  2
AcDbHatch
  3
AutoCAD 2000
 90
        0
280
     0
281
     1
  0
CLASS
  1
XRECORD
  2
AcDbXrecord
  3
AutoCAD 2000
 90
        0
280
     0
281
     0
  0
CLASS
  1
LONG_TRANSACTION
  2
AcDbLongTransaction
  3
AutoCAD 2000
 90
        0
280
     0
281
     0
  0
CLASS
  1
LWPOLYLINE
  2
AcDbPolyline
  3
AutoCAD 2000
 90
        0
280
     0
281
     1
  0
CLASS
  1
HATCH
  2
AcDbHatch
  3
AutoCAD 2000
 90
        0
280
     0
281
     1
  0
CLASS
  1
XRECORD
  2
AcDbXrecord
  3
AutoCAD 2000
 90
        0
280
     0
281
     0
  0
CLASS
  1
LONG_TRANSACTION
  2
AcDbLongTransaction
  3
AutoCAD 2000
 90
        0
280
     0
281
     0
  0
CLASS
  1
LWPOLYLINE
  2
AcDbPolyline
  3
AutoCAD 2000
 90
        0
280
     0
281
     1
  0
CLASS
  1
HATCH
  2
AcDbHatch
  3
AutoCAD 2000
 90
        0
280
     0
281
     1
  0
CLASS
  1
XRECORD
  2
AcDbXrecord
  3
AutoCAD 2000
 90
        0
280
     0
281
     0
  0
CLASS
  1
LONG_TRANSACTION
  2
AcDbLongTransaction
  3
AutoCAD 2000
 90
        0
280
     0
281
     0
  0
CLASS
  1
LWPOLYLINE
  2
AcDbPolyline
  3
AutoCAD 2000
 90
        0
280
     0
281
     1
  0
CLASS
  1
HATCH
  2
AcDbHatch
  3
AutoCAD 2000
 90
        0
280
     0
281
     1
  0
CLASS
  1
XRECORD
  2
AcDbXrecord
  3
AutoCAD 2000
 90
        0
280
     0
281
     0
  0
CLASS
  1
LONG_TRANSACTION
  2
AcDbLongTransaction
  3
AutoCAD 2000
 90
        0
280
     0
281
     0
  0
CLASS
  1
LWPOLYLINE
  2
AcDbPolyline
  3
AutoCAD 2000
 90
        0
280
     0
281
     1
  0
CLASS
  1
HATCH
  2
AcDbHatch
  3
AutoCAD 2000
 90
        0
280
     0
281
     1
  0
CLASS
  1
XRECORD
  2
AcDbXrecord
  3
AutoCAD 2000
 90
        0
280
     0
281
     0
  0
CLASS
  1
LONG_TRANSACTION
  2
AcDbLongTransaction
  3
AutoCAD 2000
 90
        0
280
     0
281
     0
  0
CLASS
  1
LWPOLYLINE
  2
AcDbPolyline
  3
AutoCAD 2000
 90
        0
280
     0
281
     1
  0
CLASS
  1
HATCH
  2
AcDbHatch
  3
AutoCAD 2000
 90
        0
280
     0
281
     1
  0
CLASS
  1
XRECORD
  2
AcDbXrecord
  3
AutoCAD 2000
 90
        0
280
     0
281
     0
  0
CLASS
  1
LONG_TRANSACTION
  2
AcDbLongTransaction
  3
AutoCAD 2000
 90
        0
280
     0
281
     0
  0
CLASS
  1
LWPOLYLINE
  2
AcDbPolyline
  3
AutoCAD 2000
 90
        0
280
     0
281
     1
  0
CLASS
  1
HATCH
  2
AcDbHatch
  3
AutoCAD 2000
 90
        0
280
     0
281
     1
  0
CLASS
  1
XRECORD
  2
AcDbXrecord
  3
AutoCAD 2000
 90
        0
280
     0
281
     0
  0
CLASS
  1
LONG_TRANSACTION
  2
AcDbLongTransaction
  3
AutoCAD 2000
 90
        0
280
     0
281
     0
  0
CLASS
  1
LWPOLYLINE
  2
AcDbPolyline
  3
AutoCAD 2000
 90
        0
280
     0
281
     1
  0
CLASS
  1
HATCH
  2
AcDbHatch
  3
AutoCAD 2000
 90
        0
280
     0
281
     1
  0
CLASS
  1
XRECORD
  2
AcDbXrecord
  3
AutoCAD 2000
 90
        0
280
     0
281
     0
  0
CLASS
  1
LONG_TRANSACTION
  2
AcDbLongTransaction
  3
AutoCAD 2000
 90
        0
280
     0
281
     0
  0
CLASS
  1
LWPOLYLINE
  2
AcDbPolyline
  3
AutoCAD 2000
 90
        0
280
     0
281
     1
  0
CLASS
  1
HATCH
  2
AcDbHatch
  3
AutoCAD 2000
 90
        0
280
     0
281
     1
  0
CLASS
  1
XRECORD
  2
AcDbXrecord
  3
AutoCAD 2000
 90
        0
280
     0
281
     0
  0
CLASS
  1
LONG_TRANSACTION
  2
AcDbLongTransaction
  3
AutoCAD 2000
 90
        0
280
     0
281
     0
  0
CLASS
  1
LWPOLYLINE
  2
AcDbPolyline
  3
AutoCAD 2000
 90
        0
280
     0
281
     1
  0
CLASS
  1
HATCH
  2
AcDbHatch
  3
AutoCAD 2000
 90
        0
280
     0
281
     1
  0
CLASS
  1
XRECORD
  2
AcDbXrecord
  3
AutoCAD 2000
 90
        0
280
     0
281
     0
  0
CLASS
  1
LONG_TRANSACTION
  2
AcDbLongTransaction
  3
AutoCAD 2000
 90
        0
280
     0
281
     0
  0
CLASS
  1
LWPOLYLINE
  2
AcDbPolyline
  3
AutoCAD 2000
 90
        0
280
     0
281
     1
  0
CLASS
  1
HATCH
  2
AcDbHatch
  3
AutoCAD 2000
 90
        0
280
     0
281
     1
  0
CLASS
  1
XRECORD
  2
AcDbXrecord
  3
AutoCAD 2000
 90
        0
280
     0
281
     0
  0
CLASS
  1
LONG_TRANSACTION
  2
AcDbLongTransaction
  3
AutoCAD 2000
 90
        0
280
     0
281
     0
  0
CLASS
  1
LWPOLYLINE
  2
AcDbPolyline
  3
AutoCAD 2000
 90
        0
280
     0
281
     1
  0
CLASS
  1
HATCH
  2
AcDbHatch
  3
AutoCAD 2000
 90
        0
280
     0
281
     1
  0
CLASS
  1
XRECORD
  2
AcDbXrecord
  3
AutoCAD 2000
 90
        0
280
     0
281
     0
  0
CLASS
  1
LONG_TRANSACTION
  2
AcDbLongTransaction
  3
AutoCAD 2000
 90
        0
280
     0
281
     0
  0
CLASS
  1
LWPOLYLINE
  2
AcDbPolyline
  3
AutoCAD 2000
 90
        0
280
     0
281
     1
  0
CLASS
  1
HATCH
  2
AcDbHatch
  3
AutoCAD 2000
 90
        0
280
     0
281
     1
  0
CLASS
  1
XRECORD
  2
AcDbXrecord
  3
AutoCAD 2000
 90
        0
280
     0
281
     0
  0
CLASS
  1
LONG_TRANSACTION
  2
AcDbLongTransaction
  3
AutoCAD 2000
 90
        0
280
     0
281
     0
  0
CLASS
  1
LWPOLYLINE
  2
AcDbPolyline
  3
AutoCAD 2000
 90
        0
280
     0
281
     1
  0
CLASS
  1
HATCH
  2
AcDbHatch
  3
AutoCAD 2000
 90
        0
280
     0
281
     1
  0
CLASS
  1
XRECORD
  2
AcDbXrecord
  3
AutoCAD 2000
 90
        0
280
     0
281
     0
  0
ENDSEC
  0
SECTION
  2
TABLES
  0
TABLE
  2
VPORT
  5
8
330
0
100
AcDbSymbolTable
 70
     3
  0
VPORT
  5
137D
330
8
100
AcDbSymbolTableRecord
100
AcDbViewportTableRecord
  2
*ACTIVE
 70
     0
 10
0.0
 20
0.0
 11
1.0
 21
1.0
 12
-612.5946678044434
 22
-280.2400552420492
 13
0.0
 23
0.0
 14
10.0
 24
10.0
 15
10.0
 25
10.0
 16
0.0
 26
0.0
 36
1.0
 17
1140.949166581189
 27
552.5761744424462
 37
0.0
 40
565.6756406357389
 41
1.340220385674931
 42
50.0
 43
0.0
 44
0.0
 50
0.0
 51
0.0
 71
     0
 72
   100
 73
     1
 74
     3
 75
     0
 76
     0
 77
     0
 78
     0
  0
ENDTAB
  0
TABLE
  2
LTYPE
  5
5
330
0
100
AcDbSymbolTable
 70
     9
  0
LTYPE
  5
14
330
5
100
AcDbSymbolTableRecord
100
AcDbLinetypeTableRecord
  2
BYBLOCK
 70
     0
  3

 72
    65
 73
     0
 40
0.0
  0
LTYPE
  5
15
330
5
100
AcDbSymbolTableRecord
100
AcDbLinetypeTableRecord
  2
BYLAYER
 70
     0
  3

 72
    65
 73
     0
 40
0.0
  0
LTYPE
  5
16
330
5
100
AcDbSymbolTableRecord
100
AcDbLinetypeTableRecord
  2
CONTINUOUS
 70
     0
  3
Solid line
 72
    65
 73
     0
 40
0.0
  0
LTYPE
  5
5C6
330
5
100
AcDbSymbolTableRecord
100
AcDbLinetypeTableRecord
  2
AM_ISO02W050
 70
     0
  3
__ __ __ __ __ __ __ __ __ __ __ __ __ __ __
 72
    65
 73
     2
 40
7.5
 49
6.0
 74
     0
 49
-1.5
 74
     0
  0
LTYPE
  5
5C7
330
5
100
AcDbSymbolTableRecord
100
AcDbLinetypeTableRecord
  2
AM_ISO08W050
 70
     0
  3
____ . ____ . ____ . ____ . ____ . ____ . ____
 72
    65
 73
     4
 40
18.0
 49
12.0
 74
     0
 49
-1.5
 74
     0
 49
3.0
 74
     0
 49
-1.5
 74
     0
  0
LTYPE
  5
5C8
330
5
100
AcDbSymbolTableRecord
100
AcDbLinetypeTableRecord
  2
AM_ISO09W050
 70
     0
  3
_____ . . _____ . . _____ . . ____ .. ____
 72
    65
 73
     6
 40
22.5
 49
12.0
 74
     0
 49
-1.5
 74
     0
 49
3.0
 74
     0
 49
-1.5
 74
     0
 49
3.0
 74
     0
 49
-1.5
 74
     0
  0
LTYPE
  5
5C9
330
5
100
AcDbSymbolTableRecord
100
AcDbLinetypeTableRecord
  2
AMCONSTR
 70
     0
  3
_______________________
 72
    65
 73
     2
 40
9999.0
 49
9999.0
 74
     0
 49
0.0
 74
     0
  0
LTYPE
  5
5CA
330
5
100
AcDbSymbolTableRecord
100
AcDbLinetypeTableRecord
  2
AM_ISO08W050X2
 70
     0
  3
__ . __ . __ . __ . __ . __
 72
    65
 73
     4
 40
9.0
 49
6.0
 74
     0
 49
-0.75
 74
     0
 49
1.5
 74
     0
 49
-0.75
 74
     0
  0
LTYPE
  5
5CB
330
5
100
AcDbSymbolTableRecord
100
AcDbLinetypeTableRecord
  2
AM_ISO02W050X2
 70
     0
  3
 _ _ _ _ _ _ _ _ _ _ _ _
 72
    65
 73
     2
 40
3.75
 49
3.0
 74
     0
 49
-0.75
 74
     0
  0
LTYPE
  5
5CE
330
5
100
AcDbSymbolTableRecord
100
AcDbLinetypeTableRecord
  2
AMZIGZAG
 70
     0
  3
/\/-/\/-/\/-/\/-/\/-/\/
 72
    65
 73
     2
 40
11.00009999999999
 49
0.0001
 74
     4
 75
   135
340
5CD
 46
0.04
 50
0.0
 44
0.0
 45
0.0
 49
-11.0
 74
     0
  0
LTYPE
  5
BFF
330
5
100
AcDbSymbolTableRecord
100
AcDbLinetypeTableRecord
  2
CENTER
 70
     0
  3
Center ____ _ ____ _ ____ _ ____ _ ____ _ ____
 72
    65
 73
     4
 40
2.0
 49
1.25
 74
     0
 49
-0.25
 74
     0
 49
0.25
 74
     0
 49
-0.25
 74
     0
  0
ENDTAB
  0
TABLE
  2
LAYER
  5
2
102
{ACAD_XDICTIONARY
360
41
102
}
330
0
100
AcDbSymbolTable
 70
     6
  0
LAYER
  5
10
330
2
100
AcDbSymbolTableRecord
100
AcDbLayerTableRecord
  2
0
 70
     0
 62
     7
  6
CONTINUOUS
  0
LAYER
  5
35
330
2
100
AcDbSymbolTableRecord
100
AcDbLayerTableRecord
  2
10
 70
     0
 62
     4
  6
CONTINUOUS
  0
LAYER
  5
36
330
2
100
AcDbSymbolTableRecord
100
AcDbLayerTableRecord
  2
12
 70
     0
 62
     3
  6
CENTER
  0
LAYER
  5
37
330
2
100
AcDbSymbolTableRecord
100
AcDbLayerTableRecord
  2
16
 70
     0
 62
     4
  6
CENTER
  0
LAYER
  5
38
330
2
100
AcDbSymbolTableRecord
100
AcDbLayerTableRecord
  2
19
 70
     0
 62
     7
  6
CONTINUOUS
  0
LAYER
  5
636
330
2
100
AcDbSymbolTableRecord
100
AcDbLayerTableRecord
  2
DEFPOINTS
 70
     0
 62
    -7
  6
CONTINUOUS
  0
ENDTAB
  0
TABLE
  2
STYLE
  5
3
330
0
100
AcDbSymbolTable
 70
     3
  0
STYLE
  5
11
330
3
100
AcDbSymbolTableRecord
100
AcDbTextStyleTableRecord
  2
STANDARD
 70
     0
 40
0.0
 41
1.0
 50
0.0
 71
     0
 42
2.5
  3
txt
  4

  0
STYLE
  5
3A
330
3
100
AcDbSymbolTableRecord
100
AcDbTextStyleTableRecord
  2
STANDARD1X3
 70
     0
 40
9.599999999999999
 41
0.7
 50
0.0
 71
     0
 42
9.599999999999999
  3
romans.shx
  4
extfont.shx
  0
STYLE
  5
5CD
330
3
100
AcDbSymbolTableRecord
100
AcDbTextStyleTableRecord
  2

 70
     1
 40
0.0
 41
1.0
 50
0.0
 71
     0
 42
2.5
  3
ltypeshp.shx
  4

  0
ENDTAB
  0
TABLE
  2
VIEW
  5
6
330
0
100
AcDbSymbolTable
 70
     0
  0
ENDTAB
  0
TABLE
  2
UCS
  5
7
330
0
100
AcDbSymbolTable
 70
     0
  0
ENDTAB
  0
TABLE
  2
APPID
  5
9
330
0
100
AcDbSymbolTable
 70
    18
  0
APPID
  5
12
330
9
100
AcDbSymbolTableRecord
100
AcDbRegAppTableRecord
  2
ACAD
 70
     0
  0
APPID
  5
3C
330
9
100
AcDbSymbolTableRecord
100
AcDbRegAppTableRecord
  2
ACAD_PSEXT
 70
     0
  0
APPID
  5
3D
330
9
100
AcDbSymbolTableRecord
100
AcDbRegAppTableRecord
  2
ACAD_DSTYLE_DIMEXT_LENGTH
 70
     0
  0
APPID
  5
3E
330
9
100
AcDbSymbolTableRecord
100
AcDbRegAppTableRecord
  2
ACAD_DSTYLE_DIMEXT_ENABLED
 70
     0
  0
APPID
  5
3F
330
9
100
AcDbSymbolTableRecord
100
AcDbRegAppTableRecord
  2
ACAD_DSTYLE_DIMJOGGED_JOGA
 70
     0
  0
APPID
  5
40
330
9
100
AcDbSymbolTableRecord
100
AcDbRegAppTableRecord
  2
ACAD_DSTYLE_DIMARC_LENGTH_
 70
     0
  0
APPID
  5
500
330
9
100
AcDbSymbolTableRecord
100
AcDbRegAppTableRecord
  2
GENIUS_GENDIM_13
 70
     0
  0
APPID
  5
501
330
9
100
AcDbSymbolTableRecord
100
AcDbRegAppTableRecord
  2
GENIUS_GENDTOL_13
 70
     0
  0
APPID
  5
502
330
9
100
AcDbSymbolTableRecord
100
AcDbRegAppTableRecord
  2
GENIUS_GE3DTOL_13
 70
     0
  0
APPID
  5
504
330
9
100
AcDbSymbolTableRecord
100
AcDbRegAppTableRecord
  2
MCAD_NO_VIS
 70
     0
  0
APPID
  5
505
330
9
100
AcDbSymbolTableRecord
100
AcDbRegAppTableRecord
  2
ACAD_TEMP_GRAPHIC
 70
     0
  0
APPID
  5
537
330
9
100
AcDbSymbolTableRecord
100
AcDbRegAppTableRecord
  2
AD_DRAW
 70
     0
  0
APPID
  5
53A
330
9
100
AcDbSymbolTableRecord
100
AcDbRegAppTableRecord
  2
ACATTRIBSERVICES
 70
     0
  0
APPID
  5
586
330
9
100
AcDbSymbolTableRecord
100
AcDbRegAppTableRecord
  2
ASURF_PCURVE_APPNAME
 70
     0
  0
APPID
  5
5B5
330
9
100
AcDbSymbolTableRecord
100
AcDbRegAppTableRecord
  2
DESIGNERASSEMBLIES
 70
     0
  0
APPID
  5
5BD
330
9
100
AcDbSymbolTableRecord
100
AcDbRegAppTableRecord
  2
ACADM_DIM_EDIT
 70
     0
  0
APPID
  5
5BE
330
9
100
AcDbSymbolTableRecord
100
AcDbRegAppTableRecord
  2
AMDT_DM_ADJ
 70
     0
  0
APPID
  5
642
330
9
100
AcDbSymbolTableRecord
100
AcDbRegAppTableRecord
  2
ACAECLAYERSTANDARD
 70
     0
  0
ENDTAB
  0
TABLE
  2
DIMSTYLE
  5
A
330
0
100
AcDbSymbolTable
 70
     2
  0
DIMSTYLE
105
27
330
A
100
AcDbSymbolTableRecord
100
AcDbDimStyleTableRecord
  2
ISO-25
 70
     0
  3

  4

  5

  6

  7

 40
1.0
 41
2.5
 42
0.625
 43
3.75
 44
1.25
 45
0.0
 46
0.0
 47
0.0
 48
0.0
140
2.5
141
2.5
142
0.0
143
0.03937007874016
144
1.0
145
0.0
146
1.0
147
0.625
 71
     0
 72
     0
 73
     0
 74
     0
 75
     0
 76
     0
 77
     1
 78
     8
170
     0
171
     3
172
     1
173
     0
174
     0
175
     0
176
     0
177
     0
178
     0
270
     2
271
     2
272
     2
273
     2
274
     3
340
11
275
     0
280
     0
281
     0
282
     0
283
     0
284
     8
285
     0
286
     0
287
     3
288
     0
  0
DIMSTYLE
105
C9C
330
A
100
AcDbSymbolTableRecord
100
AcDbDimStyleTableRecord
  2
STANDARD
 70
     0
  3

  4

  5

  6

  7

 40
1.0
 41
0.18
 42
0.0625
 43
0.38
 44
0.18
 45
0.0
 46
0.0
 47
0.0
 48
0.0
140
0.18
141
0.09
142
0.0
143
25.4
144
1.0
145
0.0
146
1.0
147
0.09
 71
     0
 72
     0
 73
     1
 74
     1
 75
     0
 76
     0
 77
     0
 78
     0
170
     0
171
     2
172
     0
173
     0
174
     0
175
     0
176
     0
177
     0
178
     0
270
     2
271
     4
272
     4
273
     2
274
     2
340
11
275
     0
280
     0
281
     0
282
     0
283
     1
284
     0
285
     0
286
     0
287
     3
288
     0
  0
ENDTAB
  0
TABLE
  2
BLOCK_RECORD
  5
1
330
0
100
AcDbSymbolTable
 70
     1
  0
BLOCK_RECORD
  5
1F
102
{ACAD_XDICTIONARY
360
438
102
}
330
1
100
AcDbSymbolTableRecord
100
AcDbBlockTableRecord
  2
*MODEL_SPACE
  0
BLOCK_RECORD
  5
23
102
{ACAD_XDICTIONARY
360
43A
102
}
330
1
100
AcDbSymbolTableRecord
100
AcDbBlockTableRecord
  2
*PAPER_SPACE
  0
BLOCK_RECORD
  5
5AC
330
1
100
AcDbSymbolTableRecord
100
AcDbBlockTableRecord
  2
*U0
  0
ENDTAB
  0
ENDSEC
  0
SECTION
  2
BLOCKS
  0
BLOCK
  5
20
330
1F
100
AcDbEntity
  8
0
100
AcDbBlockBegin
  2
*MODEL_SPACE
 70
     0
 10
0.0
 20
0.0
 30
0.0
  3
*MODEL_SPACE
  1

  0
ENDBLK
  5
21
330
1F
100
AcDbEntity
  8
0
100
AcDbBlockEnd
  0
BLOCK
  5
24
330
23
100
AcDbEntity
 67
     1
  8
0
100
AcDbBlockBegin
  2
*PAPER_SPACE
 70
     0
 10
0.0
 20
0.0
 30
0.0
  3
*PAPER_SPACE
  1

  0
ENDBLK
  5
25
330
23
100
AcDbEntity
 67
     1
  8
0
100
AcDbBlockEnd
  0
BLOCK
  5
5AD
330
5AC
100
AcDbEntity
  8
0
100
AcDbBlockBegin
  2
*U0
 70
     1
 10
0.0
 20
0.0
 30
0.0
  3
*U0
  1

  0
ENDBLK
  5
5AE
330
5AC
100
AcDbEntity
  8
0
100
AcDbBlockEnd
  0
ENDSEC
  0
SECTION
  2
ENTITIES
  0
MTEXT
  5
ABA
330
1F
100
AcDbEntity
  8
19
100
AcDbMText
 10
864.2131127246104
 20
44.80392442027711
 30
0.0
 40
5.0
 41
209.0513165993296
 71
     1
 72
     5
  1
HELH27\PFR-HEL-H400K
  7
STANDARD1X3
1001
ACAD
1000
MTEXTBEGIN
1070
    73
1070
     1
1070
    44
1040
1.0
1070
    74
1070
     0
1000
MTEXTEND
  0
ARC
  5
E4D
330
1F
100
AcDbEntity
  8
10
100
AcDbCircle
 10
651.8598930494142
 20
44.845055918332
 30
0.0
 40
10.00000000000131
100
AcDbArc
 50
23.57817847820576
 51
336.4218215217942
  0
ARC
  5
E4E
330
1F
100
AcDbEntity
  8
10
100
AcDbCircle
 10
651.8598930494142
 20
44.845055918332
 30
0.0
 40
16.30000000000048
100
AcDbArc
 50
29.39301544770798
 51
330.606984552292
  0
LINE
  5
E4F
330
1F
100
AcDbEntity
  8
10
100
AcDbLine
 10
743.3598930494142
 20
22.84505591833203
 30
0.0
 11
743.3598930494142
 21
66.84505591833204
 31
0.0
  0
LINE
  5
E50
330
1F
100
AcDbEntity
  8
10
100
AcDbLine
 10
784.3598930494143
 20
22.84505591833203
 30
0.0
 11
784.3598930494143
 21
66.84505591833204
 31
0.0
  0
LINE
  5
E51
330
1F
100
AcDbEntity
  8
10
100
AcDbLine
 10
788.8598930494143
 20
22.84505591833203
 30
0.0
 11
788.8598930494143
 21
66.84505591833204
 31
0.0
  0
LINE
  5
E52
330
1F
100
AcDbEntity
  8
10
100
AcDbLine
 10
683.3598930494142
 20
66.84505591833204
 30
0.0
 11
683.3598930494142
 21
22.84505591833203
 31
0.0
  0
LINE
  5
E53
330
1F
100
AcDbEntity
  8
10
100
AcDbLine
 10
687.8598930494142
 20
77.34505591833204
 30
0.0
 11
687.8598930494142
 21
22.84505591833203
 31
0.0
  0
LINE
  5
E54
330
1F
100
AcDbEntity
  8
10
100
AcDbLine
 10
738.8598930494143
 20
77.34505591833204
 30
0.0
 11
738.8598930494143
 21
22.84505591833203
 31
0.0
  0
LINE
  5
E55
330
1F
100
AcDbEntity
  8
10
100
AcDbLine
 10
735.8598930494142
 20
77.34505591833204
 30
0.0
 11
735.8598930494142
 21
22.34505591833203
 31
0.0
  0
LINE
  5
E56
330
1F
100
AcDbEntity
  8
10
100
AcDbLine
 10
690.8598930494142
 20
22.34505591833203
 30
0.0
 11
690.8598930494142
 21
77.34505591833204
 31
0.0
  0
LINE
  5
E57
330
1F
100
AcDbEntity
  8
12
100
AcDbLine
 10
651.8598930494146
 20
66.03505591833209
 30
0.0
 11
651.8598930494142
 21
23.65505591833198
 31
0.0
  0
LINE
  5
E60
330
1F
100
AcDbEntity
  8
10
100
AcDbLine
 10
735.8598930494142
 20
22.34505591833203
 30
0.0
 11
690.8598930494142
 21
22.34505591833203
 31
0.0
  0
LINE
  5
EA8
330
1F
100
AcDbEntity
  8
10
100
AcDbLine
 10
738.8598930494143
 20
22.84505591833203
 30
0.0
 11
788.8598930494143
 21
22.84505591833203
 31
0.0
  0
LINE
  5
EA9
330
1F
100
AcDbEntity
  8
10
100
AcDbLine
 10
788.8598930494143
 20
33.84505591833203
 30
0.0
 11
784.3598930494143
 21
33.84505591833203
 31
0.0
  0
POINT
  5
EAA
330
1F
100
AcDbEntity
  8
10
100
AcDbPoint
 10
788.8598930494143
 20
22.84505591833203
 30
0.0
  0
LINE
  5
EAB
330
1F
100
AcDbEntity
  8
10
100
AcDbLine
 10
738.8598930494143
 20
26.28505591833209
 30
0.0
 11
735.8598930494142
 21
26.28505591833209
 31
0.0
  0
POINT
  5
EAC
330
1F
100
AcDbEntity
  8
10
100
AcDbPoint
 10
735.8598930494142
 20
22.34505591833203
 30
0.0
  0
LINE
  5
F5E
330
1F
100
AcDbEntity
  8
10
100
AcDbLine
 10
683.3598930494142
 20
22.84505591833203
 30
0.0
 11
687.8598930494142
 21
22.84505591833203
 31
0.0
  0
LINE
  5
F5F
330
1F
100
AcDbEntity
  8
10
100
AcDbLine
 10
687.8598930494142
 20
26.28505591833209
 30
0.0
 11
690.8598930494142
 21
26.28505591833209
 31
0.0
  0
LINE
  5
F60
330
1F
100
AcDbEntity
  8
10
100
AcDbLine
 10
768.8598930494152
 20
467.345055918332
 30
0.0
 11
612.8598930494145
 21
467.345055918332
 31
0.0
  0
LINE
  5
F61
330
1F
100
AcDbEntity
  8
10
100
AcDbLine
 10
612.8598930494145
 20
77.34505591833204
 30
0.0
 11
768.8598930494152
 21
77.34505591833204
 31
0.0
  0
LINE
  5
F62
330
1F
100
AcDbEntity
  8
10
100
AcDbLine
 10
690.8598930494142
 20
522.345055918332
 30
0.0
 11
735.8598930494142
 21
522.345055918332
 31
0.0
  0
LINE
  5
F63
330
1F
100
AcDbEntity
  8
10
100
AcDbLine
 10
690.8598930494142
 20
477.345055918332
 30
0.0
 11
735.8598930494142
 21
477.345055918332
 31
0.0
  0
LINE
  5
F64
330
1F
100
AcDbEntity
  8
10
100
AcDbLine
 10
735.8598930494142
 20
471.345055918332
 30
0.0
 11
690.8598930494142
 21
471.345055918332
 31
0.0
  0
LINE
  5
F65
330
1F
100
AcDbEntity
  8
10
100
AcDbLine
 10
690.8598930494142
 20
73.34505591833203
 30
0.0
 11
735.8598930494142
 21
73.34505591833203
 31
0.0
  0
LINE
  5
F66
330
1F
100
AcDbEntity
  8
10
100
AcDbLine
 10
735.8598930494142
 20
67.34505591833204
 30
0.0
 11
690.8598930494142
 21
67.34505591833204
 31
0.0
  0
LINE
  5
F67
330
1F
100
AcDbEntity
  8
12
100
AcDbLine
 10
630.669893049415
 20
44.84505591833204
 30
0.0
 11
758.1407436485792
 21
44.84505591833204
 31
0.0
  0
LINE
  5
F68
330
1F
100
AcDbEntity
  8
12
100
AcDbLine
 10
758.1407436485793
 20
499.845055918332
 30
0.0
 11
630.6698930494154
 21
499.845055918332
 31
0.0
  0
LINE
  5
F69
330
1F
100
AcDbEntity
  8
16
100
AcDbLine
 10
604.2110176803678
 20
272.345055918332
 30
0.0
 11
801.1952318082423
 21
272.345055918332
 31
0.0
  0
LINE
  5
F6A
330
1F
100
AcDbEntity
  8
10
100
AcDbLine
 10
735.8598930494142
 20
522.345055918332
 30
0.0
 11
735.8598930494142
 21
467.345055918332
 31
0.0
  0
LINE
  5
F6B
330
1F
100
AcDbEntity
  8
10
100
AcDbLine
 10
738.8598930494143
 20
521.845055918332
 30
0.0
 11
738.8598930494143
 21
467.345055918332
 31
0.0
  0
LINE
  5
F6C
330
1F
100
AcDbEntity
  8
10
100
AcDbLine
 10
788.8598930494143
 20
477.845055918332
 30
0.0
 11
788.8598930494143
 21
521.845055918332
 31
0.0
  0
LINE
  5
F6D
330
1F
100
AcDbEntity
  8
10
100
AcDbLine
 10
784.3598930494143
 20
477.845055918332
 30
0.0
 11
784.3598930494143
 21
521.845055918332
 31
0.0
  0
LINE
  5
F6E
330
1F
100
AcDbEntity
  8
10
100
AcDbLine
 10
743.3598930494142
 20
477.845055918332
 30
0.0
 11
743.3598930494142
 21
521.845055918332
 31
0.0
  0
LINE
  5
F6F
330
1F
100
AcDbEntity
  8
10
100
AcDbLine
 10
768.8598930494152
 20
77.34505591833204
 30
0.0
 11
768.8598930494152
 21
467.345055918332
 31
0.0
  0
LINE
  5
F70
330
1F
100
AcDbEntity
  8
10
100
AcDbLine
 10
788.8598930494143
 20
66.84505591833204
 30
0.0
 11
738.8598930494143
 21
66.84505591833204
 31
0.0
  0
LINE
  5
F71
330
1F
100
AcDbEntity
  8
10
100
AcDbLine
 10
784.3598930494143
 20
55.84505591833203
 30
0.0
 11
788.8598930494143
 21
55.84505591833203
 31
0.0
  0
LINE
  5
F72
330
1F
100
AcDbEntity
  8
12
100
AcDbLine
 10
782.3598930494142
 20
44.84505591833204
 30
0.0
 11
790.8598930494142
 21
44.84505591833204
 31
0.0
  0
LINE
  5
F74
330
1F
100
AcDbEntity
  8
10
100
AcDbLine
 10
738.8598930494143
 20
477.845055918332
 30
0.0
 11
788.8598930494143
 21
477.845055918332
 31
0.0
  0
LINE
  5
F75
330
1F
100
AcDbEntity
  8
10
100
AcDbLine
 10
788.8598930494143
 20
488.845055918332
 30
0.0
 11
784.3598930494143
 21
488.845055918332
 31
0.0
  0
LINE
  5
F76
330
1F
100
AcDbEntity
  8
12
100
AcDbLine
 10
790.8598930494142
 20
499.845055918332
 30
0.0
 11
782.3598930494142
 21
499.845055918332
 31
0.0
  0
LINE
  5
F78
330
1F
100
AcDbEntity
  8
10
100
AcDbLine
 10
788.8598930494143
 20
521.845055918332
 30
0.0
 11
738.8598930494143
 21
521.845055918332
 31
0.0
  0
LINE
  5
F79
330
1F
100
AcDbEntity
  8
10
100
AcDbLine
 10
784.3598930494143
 20
510.845055918332
 30
0.0
 11
788.8598930494143
 21
510.845055918332
 31
0.0
  0
LINE
  5
F7A
330
1F
100
AcDbEntity
  8
10
100
AcDbLine
 10
735.8598930494142
 20
518.405055918332
 30
0.0
 11
738.8598930494143
 21
518.405055918332
 31
0.0
  0
POINT
  5
F7B
330
1F
100
AcDbEntity
  8
10
100
AcDbPoint
 10
735.8598930494142
 20
522.345055918332
 30
0.0
  0
CIRCLE
  5
F7C
330
1F
100
AcDbEntity
  8
10
100
AcDbCircle
 10
651.8598930494144
 20
499.845055918332
 30
0.0
 40
10.0
  0
ARC
  5
F7D
330
1F
100
AcDbEntity
  8
10
100
AcDbCircle
 10
651.8598930494144
 20
499.845055918332
 30
0.0
 40
16.30000000000013
100
AcDbArc
 50
29.39301544770798
 51
330.606984552292
  0
LINE
  5
F7E
330
1F
100
AcDbEntity
  8
10
100
AcDbLine
 10
690.8598930494142
 20
467.345055918332
 30
0.0
 11
690.8598930494142
 21
522.345055918332
 31
0.0
  0
LINE
  5
F7F
330
1F
100
AcDbEntity
  8
10
100
AcDbLine
 10
687.8598930494142
 20
521.845055918332
 30
0.0
 11
687.8598930494142
 21
467.345055918332
 31
0.0
  0
LINE
  5
F80
330
1F
100
AcDbEntity
  8
10
100
AcDbLine
 10
683.3598930494142
 20
477.845055918332
 30
0.0
 11
683.3598930494142
 21
521.845055918332
 31
0.0
  0
LINE
  5
F81
330
1F
100
AcDbEntity
  8
12
100
AcDbLine
 10
651.8598930494146
 20
521.0350559183321
 30
0.0
 11
651.8598930494146
 21
478.655055918332
 31
0.0
  0
LINE
  5
F82
330
1F
100
AcDbEntity
  8
10
100
AcDbLine
 10
657.8598930494142
 20
467.345055918332
 30
0.0
 11
657.8598930494142
 21
77.34505591833204
 31
0.0
  0
ARC
  5
F83
330
1F
100
AcDbEntity
  8
10
100
AcDbCircle
 10
585.3598930494142
 20
41.60272918566213
 30
0.0
 40
30.29232673267006
100
AcDbArc
 50
90.0
 51
116.4364747980026
  0
ARC
  5
F84
330
1F
100
AcDbEntity
  8
10
100
AcDbCircle
 10
563.8598930494182
 20
84.84505591832245
 30
0.0
 40
18.00000000001175
100
AcDbArc
 50
63.56352520203373
 51
284.9999999999978
  0
ARC
  5
F85
330
1F
100
AcDbEntity
  8
10
100
AcDbCircle
 10
585.3598930494144
 20
128.0873826510118
 30
0.0
 40
30.29232673267516
100
AcDbArc
 50
243.5635252019972
 51
270.0
  0
LINE
  5
F86
330
1F
100
AcDbEntity
  8
10
100
AcDbLine
 10
603.8598930494141
 20
47.34505591833204
 30
0.0
 11
538.8598930494141
 21
47.34505591833204
 31
0.0
  0
LINE
  5
F87
330
1F
100
AcDbEntity
  8
10
100
AcDbLine
 10
538.8598930494147
 20
122.345055918332
 30
0.0
 11
603.8598930494146
 21
122.345055918332
 31
0.0
  0
LINE
  5
F88
330
1F
100
AcDbEntity
  8
10
100
AcDbLine
 10
657.8598930494142
 20
92.34505591833203
 30
0.0
 11
612.8598930494145
 21
92.34505591833203
 31
0.0
  0
LINE
  5
F89
330
1F
100
AcDbEntity
  8
10
100
AcDbLine
 10
675.4404496330161
 20
52.35060941780194
 30
0.0
 11
681.3598930494142
 21
52.35060941780194
 31
0.0
  0
LINE
  5
F8A
330
1F
100
AcDbEntity
  8
10
100
AcDbLine
 10
675.4404496330161
 20
48.59783266806243
 30
0.0
 11
681.3598930494142
 21
48.59783266806243
 31
0.0
  0
LINE
  5
F8B
330
1F
100
AcDbEntity
  8
10
100
AcDbLine
 10
675.4404496330161
 20
41.09227916860208
 30
0.0
 11
681.3598930494142
 21
41.09227916860208
 31
0.0
  0
LINE
  5
F8C
330
1F
100
AcDbEntity
  8
10
100
AcDbLine
 10
675.4404496330161
 20
37.33950241887214
 30
0.0
 11
681.3598930494142
 21
37.33950241887214
 31
0.0
  0
LINE
  5
F8D
330
1F
100
AcDbEntity
  8
10
100
AcDbLine
 10
681.3598930494142
 20
52.54505591833185
 30
0.0
 11
681.3598930494142
 21
37.14505591833221
 31
0.0
  0
LINE
  5
F8E
330
1F
100
AcDbEntity
  8
10
100
AcDbLine
 10
683.3598930494142
 20
52.54505591833185
 30
0.0
 11
681.3598930494142
 21
52.54505591833185
 31
0.0
  0
LINE
  5
F8F
330
1F
100
AcDbEntity
  8
10
100
AcDbLine
 10
681.3598930494142
 20
37.14505591833221
 30
0.0
 11
683.3598930494142
 21
37.14505591833221
 31
0.0
  0
LINE
  5
F90
330
1F
100
AcDbEntity
  8
10
100
AcDbLine
 10
687.8598930494142
 20
66.84505591833204
 30
0.0
 11
683.3598930494142
 21
66.84505591833204
 31
0.0
  0
ARC
  5
F91
330
1F
100
AcDbEntity
  8
10
100
AcDbCircle
 10
677.5793364658142
 20
44.845055918332
 30
0.0
 40
12.41944341639908
100
AcDbArc
 50
162.4120462260091
 51
197.5879537739893
  0
ARC
  5
F92
330
1F
100
AcDbEntity
  8
10
100
AcDbCircle
 10
687.2793364658142
 20
44.845055918332
 30
0.0
 40
12.41944341639813
100
AcDbArc
 50
162.4120462260091
 51
197.5879537739908
  0
LINE
  5
F93
330
1F
100
AcDbEntity
  8
10
100
AcDbLine
 10
662.3598930494142
 20
40.84505591833203
 30
0.0
 11
662.8598930494142
 21
36.84505591833203
 31
0.0
  0
LINE
  5
F94
330
1F
100
AcDbEntity
  8
10
100
AcDbLine
 10
662.8598930494142
 20
52.84505591833204
 30
0.0
 11
662.3598930494142
 21
48.84505591833203
 31
0.0
  0
LINE
  5
F95
330
1F
100
AcDbEntity
  8
10
100
AcDbLine
 10
662.8598930494142
 20
36.84505591833203
 30
0.0
 11
674.8598930494142
 21
36.84505591833203
 31
0.0
  0
LINE
  5
F96
330
1F
100
AcDbEntity
  8
10
100
AcDbLine
 10
674.8598930494142
 20
52.84505591833204
 30
0.0
 11
662.8598930494142
 21
52.84505591833204
 31
0.0
  0
LINE
  5
F97
330
1F
100
AcDbEntity
  8
10
100
AcDbLine
 10
665.1598930494152
 20
47.59505591833203
 30
0.0
 11
653.3598930494142
 21
47.59505591833203
 31
0.0
  0
LINE
  5
F98
330
1F
100
AcDbEntity
  8
10
100
AcDbLine
 10
665.1598930494152
 20
42.09505591833203
 30
0.0
 11
653.3598930494142
 21
42.09505591833203
 31
0.0
  0
LINE
  5
F99
330
1F
100
AcDbEntity
  8
10
100
AcDbLine
 10
665.1598930494152
 20
40.84505591833203
 30
0.0
 11
654.6098930494142
 21
40.84505591833203
 31
0.0
  0
LINE
  5
F9A
330
1F
100
AcDbEntity
  8
10
100
AcDbLine
 10
673.6598930494152
 20
52.84505591833204
 30
0.0
 11
673.6598930494152
 21
36.84505591833203
 31
0.0
  0
LINE
  5
F9B
330
1F
100
AcDbEntity
  8
10
100
AcDbLine
 10
665.1598930494152
 20
50.47422104293218
 30
0.0
 11
665.1598930494152
 21
39.21589079373234
 31
0.0
  0
LINE
  5
F9C
330
1F
100
AcDbEntity
  8
10
100
AcDbLine
 10
673.6598930494152
 20
52.54505591833185
 30
0.0
 11
671.6598930494152
 21
52.54505591833185
 31
0.0
  0
LINE
  5
F9D
330
1F
100
AcDbEntity
  8
10
100
AcDbLine
 10
671.6598930494152
 20
37.14505591833221
 30
0.0
 11
673.6598930494152
 21
37.14505591833221
 31
0.0
  0
LINE
  5
F9E
330
1F
100
AcDbEntity
  8
10
100
AcDbLine
 10
665.7404496330152
 20
37.33950241887214
 30
0.0
 11
671.6598930494152
 21
37.33950241887214
 31
0.0
  0
LINE
  5
F9F
330
1F
100
AcDbEntity
  8
10
100
AcDbLine
 10
665.7404496330152
 20
41.09227916860208
 30
0.0
 11
671.6598930494152
 21
41.09227916860208
 31
0.0
  0
LINE
  5
FA0
330
1F
100
AcDbEntity
  8
10
100
AcDbLine
 10
665.7404496330152
 20
48.59783266806243
 30
0.0
 11
671.6598930494152
 21
48.59783266806243
 31
0.0
  0
LINE
  5
FA1
330
1F
100
AcDbEntity
  8
10
100
AcDbLine
 10
665.7404496330152
 20
52.35060941780194
 30
0.0
 11
671.6598930494152
 21
52.35060941780194
 31
0.0
  0
LINE
  5
FA2
330
1F
100
AcDbEntity
  8
10
100
AcDbLine
 10
671.6598930494152
 20
52.54505591833185
 30
0.0
 11
671.6598930494152
 21
37.14505591833221
 31
0.0
  0
LINE
  5
FA3
330
1F
100
AcDbEntity
  8
10
100
AcDbLine
 10
654.6098930494142
 20
40.84505591833203
 30
0.0
 11
654.6098930494142
 21
48.84505591833203
 31
0.0
  0
LINE
  5
FA4
330
1F
100
AcDbEntity
  8
10
100
AcDbLine
 10
653.3598930494142
 20
42.09505591833203
 30
0.0
 11
654.6098930494142
 21
40.84505591833203
 31
0.0
  0
LINE
  5
FA5
330
1F
100
AcDbEntity
  8
10
100
AcDbLine
 10
653.3598930494142
 20
47.59505591833203
 30
0.0
 11
654.6098930494142
 21
48.84505591833203
 31
0.0
  0
LINE
  5
FA6
330
1F
100
AcDbEntity
  8
10
100
AcDbLine
 10
674.8598930494142
 20
52.84505591833204
 30
0.0
 11
674.8598930494142
 21
36.84505591833203
 31
0.0
  0
LINE
  5
FA7
330
1F
100
AcDbEntity
  8
10
100
AcDbLine
 10
653.3598930494142
 20
42.09505591833203
 30
0.0
 11
653.3598930494142
 21
47.59505591833203
 31
0.0
  0
LINE
  5
FA8
330
1F
100
AcDbEntity
  8
10
100
AcDbLine
 10
654.6098930494142
 20
48.84505591833203
 30
0.0
 11
665.1598930494152
 21
48.84505591833203
 31
0.0
  0
LINE
  5
FA9
330
1F
100
AcDbEntity
  8
10
100
AcDbLine
 10
585.3598930494144
 20
71.89505591833222
 30
0.0
 11
585.3598930494144
 21
97.79505591833185
 31
0.0
  0
LINE
  5
FAA
330
1F
100
AcDbEntity
  8
10
100
AcDbLine
 10
612.8598930494145
 20
97.79505591833185
 30
0.0
 11
612.8598930494145
 21
71.89505591833222
 31
0.0
  0
LINE
  5
FAB
330
1F
100
AcDbEntity
  8
10
100
AcDbLine
 10
603.8598930494145
 20
71.89505591833222
 30
0.0
 11
603.8598930494145
 21
97.79505591833185
 31
0.0
  0
LINE
  5
FAC
330
1F
100
AcDbEntity
  8
10
100
AcDbLine
 10
595.8598930494145
 20
122.345055918332
 30
0.0
 11
595.8598930494141
 21
47.34505591833204
 31
0.0
  0
LINE
  5
FAD
330
1F
100
AcDbEntity
  8
10
100
AcDbLine
 10
603.8598930494145
 20
71.89505591833222
 30
0.0
 11
603.8598930494141
 21
47.34505591833204
 31
0.0
  0
LINE
  5
FAE
330
1F
100
AcDbEntity
  8
10
100
AcDbLine
 10
595.8598930494145
 20
57.34505591833204
 30
0.0
 11
603.8598930494145
 21
57.34505591833204
 31
0.0
  0
LINE
  5
FAF
330
1F
100
AcDbEntity
  8
12
100
AcDbLine
 10
593.8598930494144
 20
64.84505591833204
 30
0.0
 11
605.8598930494144
 21
64.84505591833204
 31
0.0
  0
LINE
  5
FB0
330
1F
100
AcDbEntity
  8
10
100
AcDbLine
 10
612.8598930494145
 20
71.89505591833222
 30
0.0
 11
585.3598930494144
 21
71.89505591833222
 31
0.0
  0
LINE
  5
FB1
330
1F
100
AcDbEntity
  8
10
100
AcDbLine
 10
603.8598930494145
 20
72.34505591833204
 30
0.0
 11
595.8598930494145
 21
72.34505591833204
 31
0.0
  0
LINE
  5
FB2
330
1F
100
AcDbEntity
  8
10
100
AcDbLine
 10
585.3598930494144
 20
97.79505591833185
 30
0.0
 11
612.8598930494145
 21
97.79505591833185
 31
0.0
  0
LINE
  5
FB3
330
1F
100
AcDbEntity
  8
10
100
AcDbLine
 10
603.8598930494146
 20
122.345055918332
 30
0.0
 11
603.8598930494145
 21
97.79505591833185
 31
0.0
  0
LINE
  5
FB4
330
1F
100
AcDbEntity
  8
10
100
AcDbLine
 10
595.8598930494145
 20
97.34505591833205
 30
0.0
 11
603.8598930494145
 21
97.34505591833205
 31
0.0
  0
LINE
  5
FB5
330
1F
100
AcDbEntity
  8
10
100
AcDbLine
 10
603.8598930494145
 20
112.345055918332
 30
0.0
 11
595.8598930494145
 21
112.345055918332
 31
0.0
  0
LINE
  5
FB6
330
1F
100
AcDbEntity
  8
12
100
AcDbLine
 10
593.8598930494144
 20
104.845055918332
 30
0.0
 11
605.8598930494144
 21
104.845055918332
 31
0.0
  0
CIRCLE
  5
FB7
330
1F
100
AcDbEntity
  8
10
100
AcDbCircle
 10
563.8598930494182
 20
84.84505591832245
 30
0.0
 40
13.00000000001
  0
LINE
  5
FB8
330
1F
100
AcDbEntity
  8
10
100
AcDbLine
 10
538.8598930494141
 20
47.34505591833204
 30
0.0
 11
538.8598930494147
 21
122.345055918332
 31
0.0
  0
LINE
  5
FB9
330
1F
100
AcDbEntity
  8
12
100
AcDbLine
 10
563.8598930494144
 20
97.44505591833195
 30
0.0
 11
563.8598930494144
 21
72.24505591833213
 31
0.0
  0
CIRCLE
  5
FBA
330
1F
100
AcDbEntity
  8
10
100
AcDbCircle
 10
563.8598930494182
 20
84.84505591832245
 30
0.0
 40
9.000000000010004
  0
CIRCLE
  5
FBB
330
1F
100
AcDbEntity
  8
10
100
AcDbCircle
 10
563.8598930494182
 20
84.84505591832245
 30
0.0
 40
6.000000000010004
  0
CIRCLE
  5
FBC
330
1F
100
AcDbEntity
  8
10
100
AcDbCircle
 10
563.8598930494182
 20
84.84505591832245
 30
0.0
 40
10.75000000001
  0
ARC
  5
FBD
330
1F
100
AcDbEntity
  8
10
100
AcDbCircle
 10
563.8598930494182
 20
84.84505591832245
 30
0.0
 40
17.99999999998568
100
AcDbArc
 50
284.9999999999978
 51
296.4364747980118
  0
LINE
  5
FBE
330
1F
100
AcDbEntity
  8
10
100
AcDbLine
 10
572.8598930494144
 20
90.04120834104242
 30
0.0
 11
563.8598930494144
 21
95.2373607637519
 31
0.0
  0
LINE
  5
FBF
330
1F
100
AcDbEntity
  8
10
100
AcDbLine
 10
563.8598930494144
 20
95.2373607637519
 30
0.0
 11
554.8598930494145
 21
90.04120834104242
 31
0.0
  0
LINE
  5
FC0
330
1F
100
AcDbEntity
  8
10
100
AcDbLine
 10
554.8598930494145
 20
90.04120834104242
 30
0.0
 11
554.8598930494145
 21
79.64890349562256
 31
0.0
  0
LINE
  5
FC1
330
1F
100
AcDbEntity
  8
10
100
AcDbLine
 10
554.8598930494145
 20
79.64890349562256
 30
0.0
 11
563.8598930494144
 21
74.45275107292264
 31
0.0
  0
LINE
  5
FC2
330
1F
100
AcDbEntity
  8
10
100
AcDbLine
 10
563.8598930494144
 20
74.45275107292264
 30
0.0
 11
572.8598930494144
 21
79.64890349562256
 31
0.0
  0
LINE
  5
FC3
330
1F
100
AcDbEntity
  8
10
100
AcDbLine
 10
572.8598930494144
 20
79.64890349562256
 30
0.0
 11
572.8598930494144
 21
90.04120834104242
 31
0.0
  0
LINE
  5
FC4
330
1F
100
AcDbEntity
  8
12
100
AcDbLine
 10
551.2598930494142
 20
84.84505591833203
 30
0.0
 11
576.4598930494144
 21
84.84505591833203
 31
0.0
  0
POINT
  5
FC5
330
1F
100
AcDbEntity
  8
10
100
AcDbPoint
 10
538.8598930494141
 20
47.34505591833204
 30
0.0
  0
POINT
  5
FC6
330
1F
100
AcDbEntity
  8
10
100
AcDbPoint
 10
538.8598930494147
 20
122.345055918332
 30
0.0
  0
ARC
  5
FC7
330
1F
100
AcDbEntity
  8
10
100
AcDbCircle
 10
585.3598930494144
 20
416.6027291856626
 30
0.0
 40
30.29232673267006
100
AcDbArc
 50
90.0
 51
116.4364747980026
  0
ARC
  5
FC8
330
1F
100
AcDbEntity
  8
10
100
AcDbCircle
 10
563.8598930494144
 20
459.845055918332
 30
0.0
 40
18.0000000000064
100
AcDbArc
 50
75.00000000000716
 51
296.4364747980089
  0
ARC
  5
FC9
330
1F
100
AcDbEntity
  8
10
100
AcDbCircle
 10
585.3598930494144
 20
503.0873826510118
 30
0.0
 40
30.29232673267516
100
AcDbArc
 50
243.5635252019972
 51
270.0
  0
LINE
  5
FCA
330
1F
100
AcDbEntity
  8
10
100
AcDbLine
 10
603.8598930494146
 20
422.345055918332
 30
0.0
 11
538.8598930494147
 21
422.345055918332
 31
0.0
  0
LINE
  5
FCB
330
1F
100
AcDbEntity
  8
10
100
AcDbLine
 10
538.8598930494147
 20
497.345055918332
 30
0.0
 11
603.8598930494146
 21
497.345055918332
 31
0.0
  0
LINE
  5
FCC
330
1F
100
AcDbEntity
  8
10
100
AcDbLine
 10
612.8598930494145
 20
452.345055918332
 30
0.0
 11
657.8598930494142
 21
452.345055918332
 31
0.0
  0
LINE
  5
FCD
330
1F
100
AcDbEntity
  8
10
100
AcDbLine
 10
681.3598930494142
 20
507.3506094178023
 30
0.0
 11
675.4404496330163
 21
507.3506094178023
 31
0.0
  0
LINE
  5
FCE
330
1F
100
AcDbEntity
  8
10
100
AcDbLine
 10
681.3598930494142
 20
503.5978326680624
 30
0.0
 11
675.4404496330163
 21
503.5978326680624
 31
0.0
  0
LINE
  5
FCF
330
1F
100
AcDbEntity
  8
10
100
AcDbLine
 10
681.3598930494142
 20
496.0922791686016
 30
0.0
 11
675.4404496330163
 21
496.0922791686016
 31
0.0
  0
LINE
  5
FD0
330
1F
100
AcDbEntity
  8
10
100
AcDbLine
 10
681.3598930494142
 20
492.3395024188721
 30
0.0
 11
675.4404496330163
 21
492.3395024188721
 31
0.0
  0
LINE
  5
FD1
330
1F
100
AcDbEntity
  8
10
100
AcDbLine
 10
683.3598930494142
 20
477.845055918332
 30
0.0
 11
687.8598930494142
 21
477.845055918332
 31
0.0
  0
LINE
  5
FD2
330
1F
100
AcDbEntity
  8
10
100
AcDbLine
 10
681.3598930494142
 20
507.5450559183318
 30
0.0
 11
681.3598930494142
 21
492.1450559183321
 31
0.0
  0
LINE
  5
FD3
330
1F
100
AcDbEntity
  8
10
100
AcDbLine
 10
681.3598930494142
 20
492.1450559183321
 30
0.0
 11
683.3598930494142
 21
492.1450559183321
 31
0.0
  0
LINE
  5
FD4
330
1F
100
AcDbEntity
  8
10
100
AcDbLine
 10
683.3598930494142
 20
507.5450559183318
 30
0.0
 11
681.3598930494142
 21
507.5450559183318
 31
0.0
  0
ARC
  5
FD5
330
1F
100
AcDbEntity
  8
10
100
AcDbCircle
 10
687.2793364658142
 20
499.845055918332
 30
0.0
 40
12.41944341639813
100
AcDbArc
 50
162.4120462260091
 51
197.5879537739908
  0
LINE
  5
FD6
330
1F
100
AcDbEntity
  8
10
100
AcDbLine
 10
662.8598930494142
 20
491.845055918332
 30
0.0
 11
674.8598930494142
 21
491.845055918332
 31
0.0
  0
LINE
  5
FD7
330
1F
100
AcDbEntity
  8
10
100
AcDbLine
 10
661.8598930494142
 20
499.845055918332
 30
0.0
 11
662.8598930494142
 21
491.845055918332
 31
0.0
  0
LINE
  5
FD8
330
1F
100
AcDbEntity
  8
10
100
AcDbLine
 10
662.8598930494142
 20
507.845055918332
 30
0.0
 11
661.8598930494142
 21
499.845055918332
 31
0.0
  0
LINE
  5
FD9
330
1F
100
AcDbEntity
  8
10
100
AcDbLine
 10
674.8598930494142
 20
507.845055918332
 30
0.0
 11
662.8598930494142
 21
507.845055918332
 31
0.0
  0
LINE
  5
FDA
330
1F
100
AcDbEntity
  8
10
100
AcDbLine
 10
674.8598930494142
 20
491.845055918332
 30
0.0
 11
674.8598930494142
 21
507.845055918332
 31
0.0
  0
LINE
  5
FDB
330
1F
100
AcDbEntity
  8
10
100
AcDbLine
 10
612.8598930494145
 20
472.7950559183319
 30
0.0
 11
612.8598930494145
 21
446.8950559183322
 31
0.0
  0
LINE
  5
FDC
330
1F
100
AcDbEntity
  8
10
100
AcDbLine
 10
595.8598930494146
 20
497.345055918332
 30
0.0
 11
595.8598930494146
 21
422.345055918332
 31
0.0
  0
LINE
  5
FDD
330
1F
100
AcDbEntity
  8
10
100
AcDbLine
 10
603.8598930494146
 20
446.8950559183322
 30
0.0
 11
603.8598930494146
 21
472.7950559183319
 31
0.0
  0
LINE
  5
FDE
330
1F
100
AcDbEntity
  8
10
100
AcDbLine
 10
585.3598930494146
 20
446.8950559183322
 30
0.0
 11
585.3598930494146
 21
472.7950559183319
 31
0.0
  0
LINE
  5
FDF
330
1F
100
AcDbEntity
  8
10
100
AcDbLine
 10
603.8598930494146
 20
446.8950559183322
 30
0.0
 11
603.8598930494146
 21
422.345055918332
 31
0.0
  0
LINE
  5
FE0
330
1F
100
AcDbEntity
  8
10
100
AcDbLine
 10
612.8598930494145
 20
446.8950559183322
 30
0.0
 11
585.3598930494146
 21
446.8950559183322
 31
0.0
  0
LINE
  5
FE1
330
1F
100
AcDbEntity
  8
10
100
AcDbLine
 10
595.8598930494146
 20
432.345055918332
 30
0.0
 11
603.8598930494146
 21
432.345055918332
 31
0.0
  0
LINE
  5
FE2
330
1F
100
AcDbEntity
  8
10
100
AcDbLine
 10
603.8598930494146
 20
447.345055918332
 30
0.0
 11
595.8598930494146
 21
447.345055918332
 31
0.0
  0
LINE
  5
FE3
330
1F
100
AcDbEntity
  8
12
100
AcDbLine
 10
605.8598930494146
 20
439.845055918332
 30
0.0
 11
593.8598930494146
 21
439.845055918332
 31
0.0
  0
LINE
  5
FE4
330
1F
100
AcDbEntity
  8
10
100
AcDbLine
 10
603.8598930494146
 20
497.345055918332
 30
0.0
 11
603.8598930494146
 21
472.7950559183319
 31
0.0
  0
LINE
  5
FE5
330
1F
100
AcDbEntity
  8
10
100
AcDbLine
 10
585.3598930494146
 20
472.7950559183319
 30
0.0
 11
612.8598930494145
 21
472.7950559183319
 31
0.0
  0
LINE
  5
FE6
330
1F
100
AcDbEntity
  8
10
100
AcDbLine
 10
595.8598930494146
 20
472.345055918332
 30
0.0
 11
603.8598930494146
 21
472.345055918332
 31
0.0
  0
LINE
  5
FE7
330
1F
100
AcDbEntity
  8
10
100
AcDbLine
 10
603.8598930494146
 20
487.345055918332
 30
0.0
 11
595.8598930494146
 21
487.345055918332
 31
0.0
  0
LINE
  5
FE8
330
1F
100
AcDbEntity
  8
12
100
AcDbLine
 10
593.8598930494146
 20
479.845055918332
 30
0.0
 11
605.8598930494146
 21
479.845055918332
 31
0.0
  0
CIRCLE
  5
FE9
330
1F
100
AcDbEntity
  8
10
100
AcDbCircle
 10
563.8598930494144
 20
459.845055918332
 30
0.0
 40
13.0
  0
CIRCLE
  5
FEA
330
1F
100
AcDbEntity
  8
10
100
AcDbCircle
 10
563.8598930494144
 20
459.845055918332
 30
0.0
 40
10.74999999999999
  0
LINE
  5
FEB
330
1F
100
AcDbEntity
  8
12
100
AcDbLine
 10
563.8598930494146
 20
472.4450559183319
 30
0.0
 11
563.8598930494146
 21
447.2450559183321
 31
0.0
  0
LINE
  5
FEC
330
1F
100
AcDbEntity
  8
10
100
AcDbLine
 10
538.8598930494147
 20
422.345055918332
 30
0.0
 11
538.8598930494147
 21
497.345055918332
 31
0.0
  0
CIRCLE
  5
FED
330
1F
100
AcDbEntity
  8
10
100
AcDbCircle
 10
563.8598930494144
 20
459.845055918332
 30
0.0
 40
6.0
  0
CIRCLE
  5
FEE
330
1F
100
AcDbEntity
  8
10
100
AcDbCircle
 10
563.8598930494144
 20
459.845055918332
 30
0.0
 40
9.0
  0
ARC
  5
FEF
330
1F
100
AcDbEntity
  8
10
100
AcDbCircle
 10
563.8598930494144
 20
459.845055918332
 30
0.0
 40
18.00000000000444
100
AcDbArc
 50
63.56352520201495
 51
75.00000000000716
  0
LINE
  5
FF0
330
1F
100
AcDbEntity
  8
12
100
AcDbLine
 10
576.4598930494145
 20
459.845055918332
 30
0.0
 11
551.2598930494142
 21
459.845055918332
 31
0.0
  0
LINE
  5
FF1
330
1F
100
AcDbEntity
  8
10
100
AcDbLine
 10
572.8598930494146
 20
454.6489034956316
 30
0.0
 11
572.8598930494146
 21
465.041208341042
 31
0.0
  0
LINE
  5
FF2
330
1F
100
AcDbEntity
  8
10
100
AcDbLine
 10
572.8598930494146
 20
465.041208341042
 30
0.0
 11
563.8598930494146
 21
470.2373607637518
 31
0.0
  0
LINE
  5
FF3
330
1F
100
AcDbEntity
  8
10
100
AcDbLine
 10
563.8598930494146
 20
470.2373607637518
 30
0.0
 11
554.8598930494145
 21
465.041208341042
 31
0.0
  0
LINE
  5
FF4
330
1F
100
AcDbEntity
  8
10
100
AcDbLine
 10
554.8598930494145
 20
465.041208341042
 30
0.0
 11
554.8598930494145
 21
454.6489034956316
 31
0.0
  0
LINE
  5
FF5
330
1F
100
AcDbEntity
  8
10
100
AcDbLine
 10
554.8598930494145
 20
454.6489034956316
 30
0.0
 11
563.8598930494146
 21
449.4527510729226
 31
0.0
  0
LINE
  5
FF6
330
1F
100
AcDbEntity
  8
10
100
AcDbLine
 10
563.8598930494146
 20
449.4527510729226
 30
0.0
 11
572.8598930494146
 21
454.6489034956316
 31
0.0
  0
LINE
  5
FF7
330
1F
100
AcDbEntity
  8
10
100
AcDbLine
 10
690.8598930494142
 20
518.405055918332
 30
0.0
 11
687.8598930494142
 21
518.405055918332
 31
0.0
  0
LINE
  5
FF8
330
1F
100
AcDbEntity
  8
10
100
AcDbLine
 10
687.8598930494142
 20
521.845055918332
 30
0.0
 11
683.3598930494142
 21
521.845055918332
 31
0.0
  0
ARC
  5
FF9
330
1F
100
AcDbEntity
  8
10
100
AcDbCircle
 10
668.4824626223611
 20
39.21589079373584
 30
0.0
 40
3.322569572945849
100
AcDbArc
 50
145.6157525319459
 51
214.3842474680385
  0
ARC
  5
FFA
330
1F
100
AcDbEntity
  8
10
100
AcDbCircle
 10
668.4824626223769
 20
50.47422104293307
 30
0.0
 40
3.322569572961527
100
AcDbArc
 50
145.6157525320422
 51
214.3842474679676
  0
ARC
  5
FFB
330
1F
100
AcDbEntity
  8
10
100
AcDbCircle
 10
678.1824626223778
 20
50.47422104293307
 30
0.0
 40
3.322569572961527
100
AcDbArc
 50
145.6157525320422
 51
214.3842474679676
  0
ARC
  5
FFC
330
1F
100
AcDbEntity
  8
10
100
AcDbCircle
 10
678.182462622362
 20
39.21589079373584
 30
0.0
 40
3.322569572945849
100
AcDbArc
 50
145.6157525319459
 51
214.3842474680385
  0
ARC
  5
1000
330
1F
100
AcDbEntity
  8
10
100
AcDbCircle
 10
678.1824626223778
 20
505.474221042933
 30
0.0
 40
3.322569572961527
100
AcDbArc
 50
145.6157525320422
 51
214.3842474679676
  0
ARC
  5
1001
330
1F
100
AcDbEntity
  8
10
100
AcDbCircle
 10
678.182462622362
 20
494.2158907937358
 30
0.0
 40
3.322569572945849
100
AcDbArc
 50
145.6157525319459
 51
214.3842474680385
  0
LINE
  5
11A2
330
1F
100
AcDbEntity
  8
10
100
AcDbLine
 10
297.4204296522964
 20
73.3450559183321
 30
0.0
 11
297.4204296522964
 21
77.34505591833209
 31
0.0
  0
LINE
  5
11A3
330
1F
100
AcDbEntity
  8
10
100
AcDbLine
 10
299.9204296522964
 20
66.84505591833198
 30
0.0
 11
299.9204296522964
 21
77.34505591833209
 31
0.0
  0
CIRCLE
  5
11A4
330
1F
100
AcDbEntity
  8
10
100
AcDbCircle
 10
287.4204296522964
 20
439.8450559183321
 30
0.0
 40
7.5
  0
CIRCLE
  5
11A5
330
1F
100
AcDbEntity
  8
10
100
AcDbCircle
 10
247.4204296522964
 20
439.8450559183321
 30
0.0
 40
7.5
  0
CIRCLE
  5
11A6
330
1F
100
AcDbEntity
  8
10
100
AcDbCircle
 10
287.4204296522964
 20
479.845055918332
 30
0.0
 40
7.5
  0
CIRCLE
  5
11A7
330
1F
100
AcDbEntity
  8
10
100
AcDbCircle
 10
247.4204296522964
 20
479.845055918332
 30
0.0
 40
7.5
  0
CIRCLE
  5
11A8
330
1F
100
AcDbEntity
  8
10
100
AcDbCircle
 10
287.4204296522964
 20
64.84505591833209
 30
0.0
 40
7.5
  0
CIRCLE
  5
11A9
330
1F
100
AcDbEntity
  8
10
100
AcDbCircle
 10
247.4204296522964
 20
64.84505591833209
 30
0.0
 40
7.5
  0
CIRCLE
  5
11AA
330
1F
100
AcDbEntity
  8
10
100
AcDbCircle
 10
247.4204296522964
 20
104.845055918332
 30
0.0
 40
7.5
  0
CIRCLE
  5
11AB
330
1F
100
AcDbEntity
  8
10
100
AcDbCircle
 10
287.4204296522964
 20
104.845055918332
 30
0.0
 40
7.5
  0
ARC
  5
11AC
330
1F
100
AcDbEntity
  8
10
100
AcDbCircle
 10
169.4704296523066
 20
459.845055918332
 30
0.0
 40
12.95000000000027
100
AcDbArc
 50
207.601579369468
 51
303.8893616055707
  0
ARC
  5
11AD
330
1F
100
AcDbEntity
  8
10
100
AcDbCircle
 10
169.4704296523066
 20
459.845055918332
 30
0.0
 40
9.750000000000305
100
AcDbArc
 50
217.9798724448457
 51
235.3679430612467
  0
ARC
  5
11AE
330
1F
100
AcDbEntity
  8
10
100
AcDbCircle
 10
169.4704296523066
 20
459.845055918332
 30
0.0
 40
9.750000000000174
100
AcDbArc
 50
124.6320569332455
 51
142.0201275551542
  0
ARC
  5
11AF
330
1F
100
AcDbEntity
  8
10
100
AcDbCircle
 10
169.4704296523066
 20
459.845055918332
 30
0.0
 40
12.94999999999756
100
AcDbArc
 50
56.11063839442925
 51
152.3984206305319
  0
ARC
  5
11B0
330
1F
100
AcDbEntity
  8
10
100
AcDbCircle
 10
365.3704296523067
 20
459.84505591833
 30
0.0
 40
9.749999999992514
100
AcDbArc
 50
304.6320569386958
 51
322.0201275551206
  0
ARC
  5
11B1
330
1F
100
AcDbEntity
  8
10
100
AcDbCircle
 10
365.3704296523067
 20
459.84505591833
 30
0.0
 40
9.749999999993283
100
AcDbArc
 50
37.97987244489462
 51
55.36794306675449
  0
ARC
  5
11B2
330
1F
100
AcDbEntity
  8
10
100
AcDbCircle
 10
365.3704296523067
 20
459.84505591833
 30
0.0
 40
12.950000000001
100
AcDbArc
 50
27.60157936947535
 51
123.8893616056027
  0
ARC
  5
11B3
330
1F
100
AcDbEntity
  8
10
100
AcDbCircle
 10
365.3704296523067
 20
459.84505591833
 30
0.0
 40
12.9500000000016
100
AcDbArc
 50
236.110638394394
 51
332.3984206305392
  0
ARC
  5
11B4
330
1F
100
AcDbEntity
  8
10
100
AcDbCircle
 10
169.4704296523066
 20
84.84505591833812
 30
0.0
 40
9.750000000003995
100
AcDbArc
 50
217.9798724448793
 51
235.3679430667793
  0
ARC
  5
11B5
330
1F
100
AcDbEntity
  8
10
100
AcDbCircle
 10
169.4704296523066
 20
84.84505591833812
 30
0.0
 40
9.750000000000847
100
AcDbArc
 50
124.6320569388196
 51
142.0201275551715
  0
ARC
  5
11B6
330
1F
100
AcDbEntity
  8
10
100
AcDbCircle
 10
169.4704296523066
 20
84.84505591833812
 30
0.0
 40
12.95000000000306
100
AcDbArc
 50
207.6015793695007
 51
303.8893616055662
  0
ARC
  5
11B7
330
1F
100
AcDbEntity
  8
10
100
AcDbCircle
 10
169.4704296523066
 20
84.84505591833812
 30
0.0
 40
12.94999999999258
100
AcDbArc
 50
56.11063839440443
 51
152.3984206305501
  0
ARC
  5
11B8
330
1F
100
AcDbEntity
  8
10
100
AcDbCircle
 10
365.3704296523067
 20
84.84505591833414
 30
0.0
 40
9.749999999990828
100
AcDbArc
 50
37.97987244487934
 51
55.36794306130416
  0
ARC
  5
11B9
330
1F
100
AcDbEntity
  8
10
100
AcDbCircle
 10
365.3704296523067
 20
84.84505591833414
 30
0.0
 40
9.750000000001692
100
AcDbArc
 50
304.6320569332455
 51
322.020127555146
  0
ARC
  5
11BA
330
1F
100
AcDbEntity
  8
10
100
AcDbCircle
 10
365.3704296523067
 20
84.84505591833414
 30
0.0
 40
12.95000000000492
100
AcDbArc
 50
236.1106383943985
 51
332.3984206305093
  0
ARC
  5
11BB
330
1F
100
AcDbEntity
  8
10
100
AcDbCircle
 10
365.3704296523067
 20
84.84505591833414
 30
0.0
 40
12.94999999999915
100
AcDbArc
 50
27.60157936946079
 51
123.8893616056059
  0
ARC
  5
11BC
330
1F
100
AcDbEntity
  8
10
100
AcDbCircle
 10
319.9204296522964
 20
499.8450559183321
 30
0.0
 40
8.000000000000081
100
AcDbArc
 50
113.1880375421743
 51
198.2099568642967
  0
ARC
  5
11BD
330
1F
100
AcDbEntity
  8
10
100
AcDbCircle
 10
214.9204296522966
 20
499.8450559183321
 30
0.0
 40
4.000000000000751
100
AcDbArc
 50
321.3178125465109
 51
218.6821874535769
  0
ARC
  5
11BE
330
1F
100
AcDbEntity
  8
10
100
AcDbCircle
 10
214.9204296522966
 20
499.8450559183321
 30
0.0
 40
6.5
100
AcDbArc
 50
337.3801350519648
 51
202.6198649480351
  0
ARC
  5
11BF
330
1F
100
AcDbEntity
  8
10
100
AcDbCircle
 10
214.9204296522966
 20
499.8450559183321
 30
0.0
 40
8.000000000004416
100
AcDbArc
 50
341.7900431357238
 51
198.2099568642967
  0
ARC
  5
11C0
330
1F
100
AcDbEntity
  8
10
100
AcDbCircle
 10
351.8165820750066
 20
459.845055918332
 30
0.0
 40
17.19615242270394
100
AcDbArc
 50
162.4120462260054
 51
197.5879537739945
  0
ARC
  5
11C1
330
1F
100
AcDbEntity
  8
10
100
AcDbCircle
 10
353.7242772295964
 20
459.845055918332
 30
0.0
 40
17.19615242270348
100
AcDbArc
 50
342.4120462260054
 51
17.58795377399455
  0
ARC
  5
11C2
330
1F
100
AcDbEntity
  8
10
100
AcDbCircle
 10
181.1165820750066
 20
459.845055918332
 30
0.0
 40
17.19615242270372
100
AcDbArc
 50
162.4120462260054
 51
197.5879537739945
  0
ARC
  5
11C3
330
1F
100
AcDbEntity
  8
10
100
AcDbCircle
 10
183.0242772295964
 20
459.845055918332
 30
0.0
 40
17.1961524227037
100
AcDbArc
 50
342.4120462260054
 51
17.58795377399455
  0
ARC
  5
11C4
330
1F
100
AcDbEntity
  8
10
100
AcDbCircle
 10
351.8165820750066
 20
84.8450559183321
 30
0.0
 40
17.19615242270393
100
AcDbArc
 50
162.4120462260054
 51
197.5879537739945
  0
ARC
  5
11C5
330
1F
100
AcDbEntity
  8
10
100
AcDbCircle
 10
353.7242772295964
 20
84.8450559183321
 30
0.0
 40
17.19615242270349
100
AcDbArc
 50
342.4120462260054
 51
17.58795377399455
  0
ARC
  5
11C6
330
1F
100
AcDbEntity
  8
10
100
AcDbCircle
 10
181.1165820750066
 20
84.8450559183321
 30
0.0
 40
17.19615242270371
100
AcDbArc
 50
162.4120462260054
 51
197.5879537739945
  0
ARC
  5
11C7
330
1F
100
AcDbEntity
  8
10
100
AcDbCircle
 10
183.0242772295964
 20
84.8450559183321
 30
0.0
 40
17.19615242270371
100
AcDbArc
 50
342.4120462260054
 51
17.58795377399455
  0
ARC
  5
11C8
330
1F
100
AcDbEntity
  8
10
100
AcDbCircle
 10
319.9204296522964
 20
44.84505591833164
 30
0.0
 40
3.999999999992896
100
AcDbArc
 50
141.3178125464184
 51
38.68218745348999
  0
ARC
  5
11C9
330
1F
100
AcDbEntity
  8
10
100
AcDbCircle
 10
319.9204296522964
 20
44.84505591833164
 30
0.0
 40
6.499999999990955
100
AcDbArc
 50
157.3801350519224
 51
22.6198649480497
  0
ARC
  5
11CA
330
1F
100
AcDbEntity
  8
10
100
AcDbCircle
 10
319.9204296522964
 20
44.84505591833164
 30
0.0
 40
7.999999999995067
100
AcDbArc
 50
161.7900431357033
 51
18.20995686427969
  0
ARC
  5
11CB
330
1F
100
AcDbEntity
  8
10
100
AcDbCircle
 10
214.9204296522966
 20
44.84505591833197
 30
0.0
 40
8.000000000003982
100
AcDbArc
 50
293.1880375422327
 51
18.20995686427608
  0
ARC
  5
11CC
330
1F
100
AcDbEntity
  8
10
100
AcDbCircle
 10
214.9204296522966
 20
44.84505591833197
 30
0.0
 40
8.000000000004478
100
AcDbArc
 50
18.20995686427608
 51
66.81196245782439
  0
ARC
  5
11CD
330
1F
100
AcDbEntity
  8
10
100
AcDbCircle
 10
214.9204296522966
 20
44.84505591833197
 30
0.0
 40
7.999999999994941
100
AcDbArc
 50
161.7900431357033
 51
246.8119624579076
  0
ARC
  5
11CE
330
1F
100
AcDbEntity
  8
10
100
AcDbCircle
 10
214.9204296522966
 20
31.69505591833211
 30
0.0
 40
3.149999999989857
100
AcDbArc
 50
180.0
 51
0.0
  0
ARC
  5
11CF
330
1F
100
AcDbEntity
  8
10
100
AcDbCircle
 10
214.9204296522966
 20
57.99505591833201
 30
0.0
 40
3.150000000010095
100
AcDbArc
 50
0.0
 51
180.0
  0
ARC
  5
11D0
330
1F
100
AcDbEntity
  8
10
100
AcDbCircle
 10
319.9204296522964
 20
499.8450559183321
 30
0.0
 40
8.000000000004416
100
AcDbArc
 50
341.7900431357238
 51
66.81196245776731
  0
ARC
  5
11D1
330
1F
100
AcDbEntity
  8
10
100
AcDbCircle
 10
319.9204296522964
 20
499.8450559183321
 30
0.0
 40
7.999999999994912
100
AcDbArc
 50
198.2099568642967
 51
246.8119624578256
  0
ARC
  5
11D2
330
1F
100
AcDbEntity
  8
10
100
AcDbCircle
 10
319.9204296522964
 20
486.6950559183321
 30
0.0
 40
3.150000000000091
100
AcDbArc
 50
180.0
 51
0.0
  0
ARC
  5
11D3
330
1F
100
AcDbEntity
  8
10
100
AcDbCircle
 10
319.9204296522964
 20
512.995055918332
 30
0.0
 40
3.150000000010095
100
AcDbArc
 50
0.0
 51
180.0
  0
ARC
  5
11D4
330
1F
100
AcDbEntity
  8
12
100
AcDbCircle
 10
364.9204296522964
 20
49.84505591833197
 30
0.0
 40
6.0
100
AcDbArc
 50
0.0
 51
180.0
  0
ARC
  5
11D5
330
1F
100
AcDbEntity
  8
12
100
AcDbCircle
 10
364.9204296522964
 20
39.84505591833197
 30
0.0
 40
6.0
100
AcDbArc
 50
180.0
 51
0.0
  0
ARC
  5
11D6
330
1F
100
AcDbEntity
  8
12
100
AcDbCircle
 10
169.9204296522966
 20
49.84505591833197
 30
0.0
 40
6.0
100
AcDbArc
 50
0.0
 51
180.0
  0
ARC
  5
11D7
330
1F
100
AcDbEntity
  8
12
100
AcDbCircle
 10
169.9204296522966
 20
39.84505591833197
 30
0.0
 40
6.0
100
AcDbArc
 50
180.0
 51
0.0
  0
ARC
  5
11D8
330
1F
100
AcDbEntity
  8
12
100
AcDbCircle
 10
169.9204296522966
 20
504.8450559183319
 30
0.0
 40
6.0
100
AcDbArc
 50
0.0
 51
180.0
  0
ARC
  5
11D9
330
1F
100
AcDbEntity
  8
12
100
AcDbCircle
 10
169.9204296522966
 20
494.8450559183321
 30
0.0
 40
6.0
100
AcDbArc
 50
180.0
 51
0.0
  0
ARC
  5
11DA
330
1F
100
AcDbEntity
  8
12
100
AcDbCircle
 10
364.9204296522964
 20
504.8450559183319
 30
0.0
 40
6.0
100
AcDbArc
 50
0.0
 51
180.0
  0
ARC
  5
11DB
330
1F
100
AcDbEntity
  8
12
100
AcDbCircle
 10
364.9204296522964
 20
494.8450559183321
 30
0.0
 40
6.0
100
AcDbArc
 50
180.0
 51
0.0
  0
ARC
  5
11DC
330
1F
100
AcDbEntity
  8
10
100
AcDbCircle
 10
214.9204296522966
 20
499.8450559183321
 30
0.0
 40
3.999999999992763
100
AcDbArc
 50
218.6821874535769
 51
321.3178125465109
  0
ARC
  5
11DD
330
1F
100
AcDbEntity
  8
10
100
AcDbCircle
 10
214.9204296522966
 20
499.8450559183321
 30
0.0
 40
6.5
100
AcDbArc
 50
202.6198649480351
 51
337.3801350519648
  0
ARC
  5
11DE
330
1F
100
AcDbEntity
  8
10
100
AcDbCircle
 10
214.9204296522966
 20
499.8450559183321
 30
0.0
 40
7.999999999994912
100
AcDbArc
 50
198.2099568642967
 51
341.7900431357238
  0
ARC
  5
11DF
330
1F
100
AcDbEntity
  8
10
100
AcDbCircle
 10
319.9204296522964
 20
499.8450559183321
 30
0.0
 40
8.000000000003918
100
AcDbArc
 50
293.1880375422327
 51
341.7900431357238
  0
ARC
  5
11E0
330
1F
100
AcDbEntity
  8
10
100
AcDbCircle
 10
214.9204296522966
 20
44.84505591833197
 30
0.0
 40
7.999999999996106
100
AcDbArc
 50
113.1880375420924
 51
161.7900431357033
  0
ARC
  5
11E1
330
1F
100
AcDbEntity
  8
10
100
AcDbCircle
 10
319.9204296522964
 20
44.84505591833164
 30
0.0
 40
8.000000000004572
100
AcDbArc
 50
18.20995686427969
 51
161.7900431357033
  0
ARC
  5
11E2
330
1F
100
AcDbEntity
  8
10
100
AcDbCircle
 10
319.9204296522964
 20
44.84505591833164
 30
0.0
 40
6.500000000000191
100
AcDbArc
 50
22.6198649480497
 51
157.3801350519224
  0
ARC
  5
11E3
330
1F
100
AcDbEntity
  8
10
100
AcDbCircle
 10
319.9204296522964
 20
44.84505591833164
 30
0.0
 40
4.000000000001061
100
AcDbArc
 50
38.68218745348999
 51
141.3178125464184
  0
LINE
  5
11E4
330
1F
100
AcDbEntity
  8
10
100
AcDbLine
 10
267.4204296522964
 20
49.34505591833209
 30
0.0
 11
267.4204296522964
 21
20.345055918332
 31
0.0
  0
LINE
  5
11E5
330
1F
100
AcDbEntity
  8
16
100
AcDbLine
 10
267.4204296522964
 20
20.845055918332
 30
0.0
 11
267.4204296522964
 21
523.845055918332
 31
0.0
  0
LINE
  5
11E6
330
1F
100
AcDbEntity
  8
16
100
AcDbLine
 10
379.4204296522964
 20
272.3450559183321
 30
0.0
 11
155.4204296522966
 21
272.3450559183321
 31
0.0
  0
LINE
  5
11E7
330
1F
100
AcDbEntity
  8
16
100
AcDbLine
 10
267.4204296522964
 20
524.345055918332
 30
0.0
 11
267.4204296522964
 21
495.3450559183321
 31
0.0
  0
LINE
  5
11E8
330
1F
100
AcDbEntity
  8
12
100
AcDbLine
 10
287.4204296522964
 20
449.595055918332
 30
0.0
 11
287.4204296522964
 21
430.0950559183321
 31
0.0
  0
LINE
  5
11E9
330
1F
100
AcDbEntity
  8
12
100
AcDbLine
 10
297.1704296522964
 20
439.8450559183321
 30
0.0
 11
277.6704296522964
 21
439.8450559183321
 31
0.0
  0
LINE
  5
11EA
330
1F
100
AcDbEntity
  8
12
100
AcDbLine
 10
247.4204296522964
 20
449.595055918332
 30
0.0
 11
247.4204296522964
 21
430.0950559183321
 31
0.0
  0
LINE
  5
11EB
330
1F
100
AcDbEntity
  8
12
100
AcDbLine
 10
257.1704296522964
 20
439.8450559183321
 30
0.0
 11
237.6704296522964
 21
439.8450559183321
 31
0.0
  0
LINE
  5
11EC
330
1F
100
AcDbEntity
  8
12
100
AcDbLine
 10
287.4204296522964
 20
489.5950559183321
 30
0.0
 11
287.4204296522964
 21
470.095055918332
 31
0.0
  0
LINE
  5
11ED
330
1F
100
AcDbEntity
  8
12
100
AcDbLine
 10
297.1704296522964
 20
479.845055918332
 30
0.0
 11
277.6704296522964
 21
479.845055918332
 31
0.0
  0
LINE
  5
11EE
330
1F
100
AcDbEntity
  8
12
100
AcDbLine
 10
247.4204296522964
 20
489.5950559183321
 30
0.0
 11
247.4204296522964
 21
470.095055918332
 31
0.0
  0
LINE
  5
11EF
330
1F
100
AcDbEntity
  8
12
100
AcDbLine
 10
257.1704296522964
 20
479.845055918332
 30
0.0
 11
237.6704296522964
 21
479.845055918332
 31
0.0
  0
LINE
  5
11F0
330
1F
100
AcDbEntity
  8
12
100
AcDbLine
 10
287.4204296522964
 20
74.5950559183321
 30
0.0
 11
287.4204296522964
 21
55.09505591833209
 31
0.0
  0
LINE
  5
11F1
330
1F
100
AcDbEntity
  8
12
100
AcDbLine
 10
297.1704296522964
 20
64.84505591833209
 30
0.0
 11
277.6704296522964
 21
64.84505591833209
 31
0.0
  0
LINE
  5
11F2
330
1F
100
AcDbEntity
  8
12
100
AcDbLine
 10
247.4204296522964
 20
74.5950559183321
 30
0.0
 11
247.4204296522964
 21
55.09505591833209
 31
0.0
  0
LINE
  5
11F3
330
1F
100
AcDbEntity
  8
12
100
AcDbLine
 10
257.1704296522964
 20
64.84505591833209
 30
0.0
 11
237.6704296522964
 21
64.84505591833209
 31
0.0
  0
LINE
  5
11F4
330
1F
100
AcDbEntity
  8
12
100
AcDbLine
 10
247.4204296522964
 20
114.5950559183321
 30
0.0
 11
247.4204296522964
 21
95.09505591833208
 31
0.0
  0
LINE
  5
11F5
330
1F
100
AcDbEntity
  8
12
100
AcDbLine
 10
257.1704296522964
 20
104.845055918332
 30
0.0
 11
237.6704296522964
 21
104.845055918332
 31
0.0
  0
LINE
  5
11F6
330
1F
100
AcDbEntity
  8
12
100
AcDbLine
 10
287.4204296522964
 20
114.5950559183321
 30
0.0
 11
287.4204296522964
 21
95.09505591833208
 31
0.0
  0
LINE
  5
11F7
330
1F
100
AcDbEntity
  8
12
100
AcDbLine
 10
297.1704296522964
 20
104.845055918332
 30
0.0
 11
277.6704296522964
 21
104.845055918332
 31
0.0
  0
LINE
  5
11F8
330
1F
100
AcDbEntity
  8
12
100
AcDbLine
 10
319.9204296522964
 20
482.887108464583
 30
0.0
 11
319.9204296522964
 21
517.0182451998762
 31
0.0
  0
LINE
  5
11F9
330
1F
100
AcDbEntity
  8
12
100
AcDbLine
 10
309.5204296522963
 20
499.8450559183321
 30
0.0
 11
330.3204296523065
 21
499.8450559183321
 31
0.0
  0
LINE
  5
11FA
330
1F
100
AcDbEntity
  8
12
100
AcDbLine
 10
214.9204296522966
 20
27.88710846458292
 30
0.0
 11
214.9204296522966
 21
62.01824519987588
 31
0.0
  0
LINE
  5
11FB
330
1F
100
AcDbEntity
  8
12
100
AcDbLine
 10
204.5204296523065
 20
44.84505591833197
 30
0.0
 11
225.3204296523065
 21
44.84505591833197
 31
0.0
  0
LINE
  5
11FC
330
1F
100
AcDbEntity
  8
10
100
AcDbLine
 10
262.4204296522964
 20
403.1637920833631
 30
0.0
 11
262.4204296522964
 21
149.7272847909031
 31
0.0
  0
LINE
  5
11FD
330
1F
100
AcDbEntity
  8
10
100
AcDbLine
 10
272.4204296522964
 20
402.3450559183321
 30
0.0
 11
272.4204296522964
 21
149.8621713840801
 31
0.0
  0
LINE
  5
11FE
330
1F
100
AcDbEntity
  8
10
100
AcDbLine
 10
300.0624180573506
 20
67.34505591833197
 30
0.0
 11
234.9204296522964
 21
67.34505591833197
 31
0.0
  0
LINE
  5
11FF
330
1F
100
AcDbEntity
  8
10
100
AcDbLine
 10
297.1704296522964
 20
66.84505591833198
 30
0.0
 11
352.4204296522964
 21
66.84505591833198
 31
0.0
  0
LINE
  5
1200
330
1F
100
AcDbEntity
  8
10
100
AcDbLine
 10
326.0838583515362
 20
77.34505591833209
 30
0.0
 11
367.4204296522964
 21
77.34505591833209
 31
0.0
  0
LINE
  5
1201
330
1F
100
AcDbEntity
  8
10
100
AcDbLine
 10
262.4204296522964
 20
149.7272847909031
 30
0.0
 11
262.4204296522964
 21
122.345055918332
 31
0.0
  0
LINE
  5
1202
330
1F
100
AcDbEntity
  8
10
100
AcDbLine
 10
272.4204296522964
 20
149.8621713840801
 30
0.0
 11
272.4204296522964
 21
122.345055918332
 31
0.0
  0
LINE
  5
1203
330
1F
100
AcDbEntity
  8
10
100
AcDbLine
 10
272.4204296522964
 20
422.345055918332
 30
0.0
 11
272.4204296522964
 21
402.3450559183321
 31
0.0
  0
LINE
  5
1204
330
1F
100
AcDbEntity
  8
10
100
AcDbLine
 10
316.7704296522963
 20
497.3450559183319
 30
0.0
 11
316.7704296522963
 21
512.995055918332
 31
0.0
  0
LINE
  5
1205
330
1F
100
AcDbEntity
  8
10
100
AcDbLine
 10
221.4204296522966
 20
497.3450559183319
 30
0.0
 11
221.4204296522966
 21
503.5978326680641
 31
0.0
  0
LINE
  5
1206
330
1F
100
AcDbEntity
  8
10
100
AcDbLine
 10
192.4204296522966
 20
497.3450559183319
 30
0.0
 11
192.4204296522966
 21
522.345055918332
 31
0.0
  0
LINE
  5
1207
330
1F
100
AcDbEntity
  8
10
100
AcDbLine
 10
179.2204296523066
 20
477.8450559183321
 30
0.0
 11
157.4204296522966
 21
477.8450559183321
 31
0.0
  0
LINE
  5
1208
330
1F
100
AcDbEntity
  8
10
100
AcDbLine
 10
262.4204296522964
 20
422.345055918332
 30
0.0
 11
262.4204296522964
 21
403.1637920833631
 31
0.0
  0
LINE
  5
1209
330
1F
100
AcDbEntity
  8
10
100
AcDbLine
 10
179.2204296523066
 20
441.845055918332
 30
0.0
 11
182.4204296522966
 21
441.845055918332
 31
0.0
  0
LINE
  5
120A
330
1F
100
AcDbEntity
  8
10
100
AcDbLine
 10
179.2204296523066
 20
477.8450559183321
 30
0.0
 11
179.2204296523066
 21
441.845055918332
 31
0.0
  0
LINE
  5
120B
330
1F
100
AcDbEntity
  8
10
100
AcDbLine
 10
182.4204296522966
 20
477.8450559183321
 30
0.0
 11
179.2204296523066
 21
477.8450559183321
 31
0.0
  0
LINE
  5
120C
330
1F
100
AcDbEntity
  8
10
100
AcDbLine
 10
380.3704296523076
 20
453.8450559183321
 30
0.0
 11
370.9204296522964
 21
453.8450559183321
 31
0.0
  0
LINE
  5
120D
330
1F
100
AcDbEntity
  8
10
100
AcDbLine
 10
370.9204296522964
 20
465.8450559183321
 30
0.0
 11
380.3704296523076
 21
465.8450559183321
 31
0.0
  0
LINE
  5
120E
330
1F
100
AcDbEntity
  8
10
100
AcDbLine
 10
355.6204296523067
 20
441.845055918332
 30
0.0
 11
352.4204296522964
 21
441.845055918332
 31
0.0
  0
LINE
  5
120F
330
1F
100
AcDbEntity
  8
10
100
AcDbLine
 10
355.6204296523067
 20
477.8450559183321
 30
0.0
 11
355.6204296523067
 21
441.845055918332
 31
0.0
  0
LINE
  5
1210
330
1F
100
AcDbEntity
  8
10
100
AcDbLine
 10
352.4204296522964
 20
477.8450559183321
 30
0.0
 11
355.6204296523067
 21
477.8450559183321
 31
0.0
  0
LINE
  5
1211
330
1F
100
AcDbEntity
  8
10
100
AcDbLine
 10
355.6204296523067
 20
472.8450559183321
 30
0.0
 11
357.9204296522964
 21
472.8450559183321
 31
0.0
  0
LINE
  5
1212
330
1F
100
AcDbEntity
  8
10
100
AcDbLine
 10
355.6204296523067
 20
446.845055918332
 30
0.0
 11
357.9204296522964
 21
446.845055918332
 31
0.0
  0
LINE
  5
1213
330
1F
100
AcDbEntity
  8
10
100
AcDbLine
 10
342.1204296523067
 20
446.845055918332
 30
0.0
 11
344.4204296522964
 21
446.845055918332
 31
0.0
  0
LINE
  5
1214
330
1F
100
AcDbEntity
  8
10
100
AcDbLine
 10
342.1204296523067
 20
472.8450559183321
 30
0.0
 11
344.4204296522964
 21
472.8450559183321
 31
0.0
  0
LINE
  5
1215
330
1F
100
AcDbEntity
  8
10
100
AcDbLine
 10
357.9204296522964
 20
470.595055918332
 30
0.0
 11
360.9204296522964
 21
470.595055918332
 31
0.0
  0
LINE
  5
1216
330
1F
100
AcDbEntity
  8
10
100
AcDbLine
 10
360.9204296522964
 20
449.095055918332
 30
0.0
 11
357.9204296522964
 21
449.095055918332
 31
0.0
  0
LINE
  5
1217
330
1F
100
AcDbEntity
  8
10
100
AcDbLine
 10
335.4242772295963
 20
470.2373607637451
 30
0.0
 11
342.1204296523067
 21
470.2373607637451
 31
0.0
  0
LINE
  5
1218
330
1F
100
AcDbEntity
  8
10
100
AcDbLine
 10
342.1204296523067
 20
449.4527510729191
 30
0.0
 11
335.4242772295963
 21
449.4527510729191
 31
0.0
  0
LINE
  5
1219
330
1F
100
AcDbEntity
  8
10
100
AcDbLine
 10
382.1204296523067
 20
464.0950559183321
 30
0.0
 11
382.1204296523067
 21
455.5950559183321
 31
0.0
  0
LINE
  5
121A
330
1F
100
AcDbEntity
  8
10
100
AcDbLine
 10
335.4242772295963
 20
465.041208341039
 30
0.0
 11
342.1204296523067
 21
465.041208341039
 31
0.0
  0
LINE
  5
121B
330
1F
100
AcDbEntity
  8
10
100
AcDbLine
 10
335.4242772295963
 20
454.6489034956251
 30
0.0
 11
342.1204296523067
 21
454.6489034956251
 31
0.0
  0
LINE
  5
121C
330
1F
100
AcDbEntity
  8
10
100
AcDbLine
 10
334.6204296523067
 20
467.639284552392
 30
0.0
 11
334.6204296523067
 21
452.0508272842721
 31
0.0
  0
LINE
  5
121D
330
1F
100
AcDbEntity
  8
10
100
AcDbLine
 10
380.3704296523076
 20
465.8450559183321
 30
0.0
 11
382.1204296523067
 21
464.0950559183321
 31
0.0
  0
LINE
  5
121E
330
1F
100
AcDbEntity
  8
10
100
AcDbLine
 10
380.3704296523076
 20
453.8450559183321
 30
0.0
 11
382.1204296523067
 21
455.5950559183321
 31
0.0
  0
LINE
  5
121F
330
1F
100
AcDbEntity
  8
10
100
AcDbLine
 10
382.1204296523067
 20
464.0950559183321
 30
0.0
 11
370.9204296522964
 21
464.0950559183321
 31
0.0
  0
LINE
  5
1220
330
1F
100
AcDbEntity
  8
10
100
AcDbLine
 10
382.1204296523067
 20
455.5950559183321
 30
0.0
 11
370.9204296522964
 21
455.5950559183321
 31
0.0
  0
LINE
  5
1221
330
1F
100
AcDbEntity
  8
10
100
AcDbLine
 10
380.3704296523076
 20
465.8450559183321
 30
0.0
 11
380.3704296523076
 21
453.8450559183321
 31
0.0
  0
LINE
  5
1222
330
1F
100
AcDbEntity
  8
12
100
AcDbLine
 10
332.1704296522964
 20
459.845055918332
 30
0.0
 11
383.1704296522964
 21
459.845055918332
 31
0.0
  0
LINE
  5
1223
330
1F
100
AcDbEntity
  8
10
100
AcDbLine
 10
342.1204296523067
 20
472.8450559183321
 30
0.0
 11
342.1204296523067
 21
446.845055918332
 31
0.0
  0
LINE
  5
1224
330
1F
100
AcDbEntity
  8
10
100
AcDbLine
 10
357.9204296522964
 20
446.845055918332
 30
0.0
 11
357.9204296522964
 21
472.8450559183321
 31
0.0
  0
LINE
  5
1225
330
1F
100
AcDbEntity
  8
10
100
AcDbLine
 10
370.9204296522964
 20
452.0508272842721
 30
0.0
 11
370.9204296522964
 21
467.639284552392
 31
0.0
  0
LINE
  5
1226
330
1F
100
AcDbEntity
  8
10
100
AcDbLine
 10
370.1165820750063
 20
470.2373607637451
 30
0.0
 11
360.9204296522964
 21
470.2373607637451
 31
0.0
  0
LINE
  5
1227
330
1F
100
AcDbEntity
  8
10
100
AcDbLine
 10
370.1165820750063
 20
465.041208341039
 30
0.0
 11
360.9204296522964
 21
465.041208341039
 31
0.0
  0
LINE
  5
1228
330
1F
100
AcDbEntity
  8
10
100
AcDbLine
 10
370.1165820750063
 20
454.6489034956251
 30
0.0
 11
360.9204296522964
 21
454.6489034956251
 31
0.0
  0
LINE
  5
1229
330
1F
100
AcDbEntity
  8
10
100
AcDbLine
 10
370.1165820750063
 20
449.4527510729191
 30
0.0
 11
360.9204296522964
 21
449.4527510729191
 31
0.0
  0
LINE
  5
122A
330
1F
100
AcDbEntity
  8
10
100
AcDbLine
 10
360.9204296522964
 20
449.095055918332
 30
0.0
 11
360.9204296522964
 21
470.595055918332
 31
0.0
  0
LINE
  5
122B
330
1F
100
AcDbEntity
  8
10
100
AcDbLine
 10
154.4704296523066
 20
465.8450559183321
 30
0.0
 11
163.9204296522966
 21
465.8450559183321
 31
0.0
  0
LINE
  5
122C
330
1F
100
AcDbEntity
  8
10
100
AcDbLine
 10
173.9204296522966
 20
470.595055918332
 30
0.0
 11
173.9204296522966
 21
449.095055918332
 31
0.0
  0
LINE
  5
122D
330
1F
100
AcDbEntity
  8
10
100
AcDbLine
 10
173.9204296522966
 20
449.4527510729191
 30
0.0
 11
164.7242772295962
 21
449.4527510729191
 31
0.0
  0
LINE
  5
122E
330
1F
100
AcDbEntity
  8
10
100
AcDbLine
 10
173.9204296522966
 20
454.6489034956251
 30
0.0
 11
164.7242772295962
 21
454.6489034956251
 31
0.0
  0
LINE
  5
122F
330
1F
100
AcDbEntity
  8
10
100
AcDbLine
 10
173.9204296522966
 20
465.041208341039
 30
0.0
 11
164.7242772295962
 21
465.041208341039
 31
0.0
  0
LINE
  5
1230
330
1F
100
AcDbEntity
  8
10
100
AcDbLine
 10
173.9204296522966
 20
470.2373607637451
 30
0.0
 11
164.7242772295962
 21
470.2373607637451
 31
0.0
  0
LINE
  5
1231
330
1F
100
AcDbEntity
  8
10
100
AcDbLine
 10
163.9204296522966
 20
467.639284552392
 30
0.0
 11
163.9204296522966
 21
452.0508272842721
 31
0.0
  0
LINE
  5
1232
330
1F
100
AcDbEntity
  8
10
100
AcDbLine
 10
176.9204296522966
 20
472.8450559183321
 30
0.0
 11
176.9204296522966
 21
446.845055918332
 31
0.0
  0
LINE
  5
1233
330
1F
100
AcDbEntity
  8
12
100
AcDbLine
 10
151.6704296522966
 20
459.845055918332
 30
0.0
 11
202.6704296522966
 21
459.845055918332
 31
0.0
  0
LINE
  5
1234
330
1F
100
AcDbEntity
  8
10
100
AcDbLine
 10
154.4704296523066
 20
453.8450559183321
 30
0.0
 11
154.4704296523066
 21
465.8450559183321
 31
0.0
  0
LINE
  5
1235
330
1F
100
AcDbEntity
  8
10
100
AcDbLine
 10
163.9204296522966
 20
455.5950559183321
 30
0.0
 11
152.7204296523066
 21
455.5950559183321
 31
0.0
  0
LINE
  5
1236
330
1F
100
AcDbEntity
  8
10
100
AcDbLine
 10
163.9204296522966
 20
464.0950559183321
 30
0.0
 11
152.7204296523066
 21
464.0950559183321
 31
0.0
  0
LINE
  5
1237
330
1F
100
AcDbEntity
  8
10
100
AcDbLine
 10
152.7204296523066
 20
455.5950559183321
 30
0.0
 11
154.4704296523066
 21
453.8450559183321
 31
0.0
  0
LINE
  5
1238
330
1F
100
AcDbEntity
  8
10
100
AcDbLine
 10
152.7204296523066
 20
464.0950559183321
 30
0.0
 11
154.4704296523066
 21
465.8450559183321
 31
0.0
  0
LINE
  5
1239
330
1F
100
AcDbEntity
  8
10
100
AcDbLine
 10
200.2204296523066
 20
452.0508272842721
 30
0.0
 11
200.2204296523066
 21
467.639284552392
 31
0.0
  0
LINE
  5
123A
330
1F
100
AcDbEntity
  8
10
100
AcDbLine
 10
192.7204296523066
 20
454.6489034956251
 30
0.0
 11
199.4165820750065
 21
454.6489034956251
 31
0.0
  0
LINE
  5
123B
330
1F
100
AcDbEntity
  8
10
100
AcDbLine
 10
192.7204296523066
 20
446.845055918332
 30
0.0
 11
192.7204296523066
 21
472.8450559183321
 31
0.0
  0
LINE
  5
123C
330
1F
100
AcDbEntity
  8
10
100
AcDbLine
 10
192.7204296523066
 20
465.041208341039
 30
0.0
 11
199.4165820750065
 21
465.041208341039
 31
0.0
  0
LINE
  5
123D
330
1F
100
AcDbEntity
  8
10
100
AcDbLine
 10
163.9204296522966
 20
453.8450559183321
 30
0.0
 11
154.4704296523066
 21
453.8450559183321
 31
0.0
  0
LINE
  5
123E
330
1F
100
AcDbEntity
  8
10
100
AcDbLine
 10
152.7204296523066
 20
455.5950559183321
 30
0.0
 11
152.7204296523066
 21
464.0950559183321
 31
0.0
  0
LINE
  5
123F
330
1F
100
AcDbEntity
  8
10
100
AcDbLine
 10
199.4165820750065
 20
449.4527510729191
 30
0.0
 11
192.7204296523066
 21
449.4527510729191
 31
0.0
  0
LINE
  5
1240
330
1F
100
AcDbEntity
  8
10
100
AcDbLine
 10
192.7204296523066
 20
470.2373607637451
 30
0.0
 11
199.4165820750065
 21
470.2373607637451
 31
0.0
  0
LINE
  5
1241
330
1F
100
AcDbEntity
  8
10
100
AcDbLine
 10
176.9204296522966
 20
449.095055918332
 30
0.0
 11
173.9204296522966
 21
449.095055918332
 31
0.0
  0
LINE
  5
1242
330
1F
100
AcDbEntity
  8
10
100
AcDbLine
 10
173.9204296522966
 20
470.595055918332
 30
0.0
 11
176.9204296522966
 21
470.595055918332
 31
0.0
  0
LINE
  5
1243
330
1F
100
AcDbEntity
  8
10
100
AcDbLine
 10
190.4204296522966
 20
472.8450559183321
 30
0.0
 11
192.7204296523066
 21
472.8450559183321
 31
0.0
  0
LINE
  5
1244
330
1F
100
AcDbEntity
  8
10
100
AcDbLine
 10
190.4204296522966
 20
446.845055918332
 30
0.0
 11
192.7204296523066
 21
446.845055918332
 31
0.0
  0
LINE
  5
1245
330
1F
100
AcDbEntity
  8
10
100
AcDbLine
 10
176.9204296522966
 20
446.845055918332
 30
0.0
 11
179.2204296523066
 21
446.845055918332
 31
0.0
  0
LINE
  5
1246
330
1F
100
AcDbEntity
  8
10
100
AcDbLine
 10
176.9204296522966
 20
472.8450559183321
 30
0.0
 11
179.2204296523066
 21
472.8450559183321
 31
0.0
  0
LINE
  5
1247
330
1F
100
AcDbEntity
  8
10
100
AcDbLine
 10
190.4204296522966
 20
497.3450559183319
 30
0.0
 11
190.4204296522966
 21
422.345055918332
 31
0.0
  0
LINE
  5
1248
330
1F
100
AcDbEntity
  8
10
100
AcDbLine
 10
352.4204296522964
 20
422.345055918332
 30
0.0
 11
182.4204296522966
 21
422.345055918332
 31
0.0
  0
LINE
  5
1249
330
1F
100
AcDbEntity
  8
10
100
AcDbLine
 10
344.4204296522964
 20
497.3450559183319
 30
0.0
 11
344.4204296522964
 21
422.345055918332
 31
0.0
  0
LINE
  5
124A
330
1F
100
AcDbEntity
  8
10
100
AcDbLine
 10
182.4204296522966
 20
422.345055918332
 30
0.0
 11
182.4204296522966
 21
497.3450559183319
 31
0.0
  0
LINE
  5
124B
330
1F
100
AcDbEntity
  8
10
100
AcDbLine
 10
179.2204296523066
 20
102.845055918332
 30
0.0
 11
179.2204296523066
 21
66.84505591833198
 31
0.0
  0
LINE
  5
124C
330
1F
100
AcDbEntity
  8
10
100
AcDbLine
 10
182.4204296522966
 20
102.845055918332
 30
0.0
 11
179.2204296523066
 21
102.845055918332
 31
0.0
  0
LINE
  5
124D
330
1F
100
AcDbEntity
  8
10
100
AcDbLine
 10
352.4204296522964
 20
66.84505591833198
 30
0.0
 11
377.4204296522964
 21
66.84505591833198
 31
0.0
  0
LINE
  5
124E
330
1F
100
AcDbEntity
  8
10
100
AcDbLine
 10
380.3704296523076
 20
78.84505591833209
 30
0.0
 11
370.9204296522964
 21
78.84505591833209
 31
0.0
  0
LINE
  5
124F
330
1F
100
AcDbEntity
  8
10
100
AcDbLine
 10
370.9204296522964
 20
90.8450559183321
 30
0.0
 11
380.3704296523076
 21
90.8450559183321
 31
0.0
  0
LINE
  5
1250
330
1F
100
AcDbEntity
  8
10
100
AcDbLine
 10
355.6204296523067
 20
102.845055918332
 30
0.0
 11
355.6204296523067
 21
66.84505591833198
 31
0.0
  0
LINE
  5
1251
330
1F
100
AcDbEntity
  8
10
100
AcDbLine
 10
352.4204296522964
 20
102.845055918332
 30
0.0
 11
355.6204296523067
 21
102.845055918332
 31
0.0
  0
LINE
  5
1252
330
1F
100
AcDbEntity
  8
10
100
AcDbLine
 10
355.6204296523067
 20
97.84505591833209
 30
0.0
 11
357.9204296522964
 21
97.84505591833209
 31
0.0
  0
LINE
  5
1253
330
1F
100
AcDbEntity
  8
10
100
AcDbLine
 10
355.6204296523067
 20
71.84505591833204
 30
0.0
 11
357.9204296522964
 21
71.84505591833204
 31
0.0
  0
LINE
  5
1254
330
1F
100
AcDbEntity
  8
10
100
AcDbLine
 10
342.1204296523067
 20
71.84505591833204
 30
0.0
 11
344.4204296522964
 21
71.84505591833204
 31
0.0
  0
LINE
  5
1255
330
1F
100
AcDbEntity
  8
10
100
AcDbLine
 10
342.1204296523067
 20
97.84505591833209
 30
0.0
 11
344.4204296522964
 21
97.84505591833209
 31
0.0
  0
LINE
  5
1256
330
1F
100
AcDbEntity
  8
10
100
AcDbLine
 10
357.9204296522964
 20
95.59505591833209
 30
0.0
 11
360.9204296522964
 21
95.59505591833209
 31
0.0
  0
LINE
  5
1257
330
1F
100
AcDbEntity
  8
10
100
AcDbLine
 10
360.9204296522964
 20
74.09505591833209
 30
0.0
 11
357.9204296522964
 21
74.09505591833209
 31
0.0
  0
LINE
  5
1258
330
1F
100
AcDbEntity
  8
10
100
AcDbLine
 10
335.4242772295963
 20
95.23736076374513
 30
0.0
 11
342.1204296523067
 21
95.23736076374513
 31
0.0
  0
LINE
  5
1259
330
1F
100
AcDbEntity
  8
10
100
AcDbLine
 10
342.1204296523067
 20
74.45275107291911
 30
0.0
 11
335.4242772295963
 21
74.45275107291911
 31
0.0
  0
LINE
  5
125A
330
1F
100
AcDbEntity
  8
10
100
AcDbLine
 10
382.1204296523067
 20
89.09505591833209
 30
0.0
 11
382.1204296523067
 21
80.59505591833209
 31
0.0
  0
LINE
  5
125B
330
1F
100
AcDbEntity
  8
10
100
AcDbLine
 10
335.4242772295963
 20
90.04120834103913
 30
0.0
 11
342.1204296523067
 21
90.04120834103913
 31
0.0
  0
LINE
  5
125C
330
1F
100
AcDbEntity
  8
10
100
AcDbLine
 10
335.4242772295963
 20
79.64890349562512
 30
0.0
 11
342.1204296523067
 21
79.64890349562512
 31
0.0
  0
LINE
  5
125D
330
1F
100
AcDbEntity
  8
10
100
AcDbLine
 10
334.6204296523067
 20
92.63928455239209
 30
0.0
 11
334.6204296523067
 21
77.05082728427209
 31
0.0
  0
LINE
  5
125E
330
1F
100
AcDbEntity
  8
10
100
AcDbLine
 10
380.3704296523076
 20
90.8450559183321
 30
0.0
 11
382.1204296523067
 21
89.09505591833209
 31
0.0
  0
LINE
  5
125F
330
1F
100
AcDbEntity
  8
10
100
AcDbLine
 10
380.3704296523076
 20
78.84505591833209
 30
0.0
 11
382.1204296523067
 21
80.59505591833209
 31
0.0
  0
LINE
  5
1260
330
1F
100
AcDbEntity
  8
10
100
AcDbLine
 10
382.1204296523067
 20
89.09505591833209
 30
0.0
 11
370.9204296522964
 21
89.09505591833209
 31
0.0
  0
LINE
  5
1261
330
1F
100
AcDbEntity
  8
10
100
AcDbLine
 10
382.1204296523067
 20
80.59505591833209
 30
0.0
 11
370.9204296522964
 21
80.59505591833209
 31
0.0
  0
LINE
  5
1262
330
1F
100
AcDbEntity
  8
10
100
AcDbLine
 10
380.3704296523076
 20
90.8450559183321
 30
0.0
 11
380.3704296523076
 21
78.84505591833209
 31
0.0
  0
LINE
  5
1263
330
1F
100
AcDbEntity
  8
12
100
AcDbLine
 10
332.1704296522964
 20
84.8450559183321
 30
0.0
 11
383.1704296522964
 21
84.8450559183321
 31
0.0
  0
LINE
  5
1264
330
1F
100
AcDbEntity
  8
10
100
AcDbLine
 10
342.1204296523067
 20
97.84505591833209
 30
0.0
 11
342.1204296523067
 21
71.84505591833204
 31
0.0
  0
LINE
  5
1265
330
1F
100
AcDbEntity
  8
10
100
AcDbLine
 10
357.9204296522964
 20
71.84505591833204
 30
0.0
 11
357.9204296522964
 21
97.84505591833209
 31
0.0
  0
LINE
  5
1266
330
1F
100
AcDbEntity
  8
10
100
AcDbLine
 10
370.9204296522964
 20
77.05082728427209
 30
0.0
 11
370.9204296522964
 21
92.63928455239209
 31
0.0
  0
LINE
  5
1267
330
1F
100
AcDbEntity
  8
10
100
AcDbLine
 10
370.1165820750063
 20
95.23736076374513
 30
0.0
 11
360.9204296522964
 21
95.23736076374513
 31
0.0
  0
LINE
  5
1268
330
1F
100
AcDbEntity
  8
10
100
AcDbLine
 10
370.1165820750063
 20
90.04120834103913
 30
0.0
 11
360.9204296522964
 21
90.04120834103913
 31
0.0
  0
LINE
  5
1269
330
1F
100
AcDbEntity
  8
10
100
AcDbLine
 10
370.1165820750063
 20
79.64890349562512
 30
0.0
 11
360.9204296522964
 21
79.64890349562512
 31
0.0
  0
LINE
  5
126A
330
1F
100
AcDbEntity
  8
10
100
AcDbLine
 10
370.1165820750063
 20
74.45275107291911
 30
0.0
 11
360.9204296522964
 21
74.45275107291911
 31
0.0
  0
LINE
  5
126B
330
1F
100
AcDbEntity
  8
10
100
AcDbLine
 10
360.9204296522964
 20
74.09505591833209
 30
0.0
 11
360.9204296522964
 21
95.59505591833209
 31
0.0
  0
LINE
  5
126C
330
1F
100
AcDbEntity
  8
10
100
AcDbLine
 10
154.4704296523066
 20
90.8450559183321
 30
0.0
 11
163.9204296522966
 21
90.8450559183321
 31
0.0
  0
LINE
  5
126D
330
1F
100
AcDbEntity
  8
10
100
AcDbLine
 10
173.9204296522966
 20
95.59505591833209
 30
0.0
 11
173.9204296522966
 21
74.09505591833209
 31
0.0
  0
LINE
  5
126E
330
1F
100
AcDbEntity
  8
10
100
AcDbLine
 10
173.9204296522966
 20
74.45275107291911
 30
0.0
 11
164.7242772295962
 21
74.45275107291911
 31
0.0
  0
LINE
  5
126F
330
1F
100
AcDbEntity
  8
10
100
AcDbLine
 10
173.9204296522966
 20
79.64890349562512
 30
0.0
 11
164.7242772295962
 21
79.64890349562512
 31
0.0
  0
LINE
  5
1270
330
1F
100
AcDbEntity
  8
10
100
AcDbLine
 10
173.9204296522966
 20
90.04120834103913
 30
0.0
 11
164.7242772295962
 21
90.04120834103913
 31
0.0
  0
LINE
  5
1271
330
1F
100
AcDbEntity
  8
10
100
AcDbLine
 10
173.9204296522966
 20
95.23736076374513
 30
0.0
 11
164.7242772295962
 21
95.23736076374513
 31
0.0
  0
LINE
  5
1272
330
1F
100
AcDbEntity
  8
10
100
AcDbLine
 10
163.9204296522966
 20
92.63928455239209
 30
0.0
 11
163.9204296522966
 21
77.05082728427209
 31
0.0
  0
LINE
  5
1273
330
1F
100
AcDbEntity
  8
10
100
AcDbLine
 10
176.9204296522966
 20
97.84505591833209
 30
0.0
 11
176.9204296522966
 21
71.84505591833204
 31
0.0
  0
LINE
  5
1274
330
1F
100
AcDbEntity
  8
12
100
AcDbLine
 10
151.6704296522966
 20
84.8450559183321
 30
0.0
 11
202.6704296522966
 21
84.8450559183321
 31
0.0
  0
LINE
  5
1275
330
1F
100
AcDbEntity
  8
10
100
AcDbLine
 10
154.4704296523066
 20
78.84505591833209
 30
0.0
 11
154.4704296523066
 21
90.8450559183321
 31
0.0
  0
LINE
  5
1276
330
1F
100
AcDbEntity
  8
10
100
AcDbLine
 10
163.9204296522966
 20
80.59505591833209
 30
0.0
 11
152.7204296523066
 21
80.59505591833209
 31
0.0
  0
LINE
  5
1277
330
1F
100
AcDbEntity
  8
10
100
AcDbLine
 10
163.9204296522966
 20
89.09505591833209
 30
0.0
 11
152.7204296523066
 21
89.09505591833209
 31
0.0
  0
LINE
  5
1278
330
1F
100
AcDbEntity
  8
10
100
AcDbLine
 10
152.7204296523066
 20
80.59505591833209
 30
0.0
 11
154.4704296523066
 21
78.84505591833209
 31
0.0
  0
LINE
  5
1279
330
1F
100
AcDbEntity
  8
10
100
AcDbLine
 10
152.7204296523066
 20
89.09505591833209
 30
0.0
 11
154.4704296523066
 21
90.8450559183321
 31
0.0
  0
LINE
  5
127A
330
1F
100
AcDbEntity
  8
10
100
AcDbLine
 10
200.2204296523066
 20
77.05082728427209
 30
0.0
 11
200.2204296523066
 21
92.63928455239209
 31
0.0
  0
LINE
  5
127B
330
1F
100
AcDbEntity
  8
10
100
AcDbLine
 10
192.7204296523066
 20
79.64890349562512
 30
0.0
 11
199.4165820750065
 21
79.64890349562512
 31
0.0
  0
LINE
  5
127C
330
1F
100
AcDbEntity
  8
10
100
AcDbLine
 10
192.7204296523066
 20
71.84505591833204
 30
0.0
 11
192.7204296523066
 21
97.84505591833209
 31
0.0
  0
LINE
  5
127D
330
1F
100
AcDbEntity
  8
10
100
AcDbLine
 10
192.7204296523066
 20
90.04120834103913
 30
0.0
 11
199.4165820750065
 21
90.04120834103913
 31
0.0
  0
LINE
  5
127E
330
1F
100
AcDbEntity
  8
10
100
AcDbLine
 10
163.9204296522966
 20
78.84505591833209
 30
0.0
 11
154.4704296523066
 21
78.84505591833209
 31
0.0
  0
LINE
  5
127F
330
1F
100
AcDbEntity
  8
10
100
AcDbLine
 10
152.7204296523066
 20
80.59505591833209
 30
0.0
 11
152.7204296523066
 21
89.09505591833209
 31
0.0
  0
LINE
  5
1280
330
1F
100
AcDbEntity
  8
10
100
AcDbLine
 10
199.4165820750065
 20
74.45275107291911
 30
0.0
 11
192.7204296523066
 21
74.45275107291911
 31
0.0
  0
LINE
  5
1281
330
1F
100
AcDbEntity
  8
10
100
AcDbLine
 10
192.7204296523066
 20
95.23736076374513
 30
0.0
 11
199.4165820750065
 21
95.23736076374513
 31
0.0
  0
LINE
  5
1282
330
1F
100
AcDbEntity
  8
10
100
AcDbLine
 10
176.9204296522966
 20
74.09505591833209
 30
0.0
 11
173.9204296522966
 21
74.09505591833209
 31
0.0
  0
LINE
  5
1283
330
1F
100
AcDbEntity
  8
10
100
AcDbLine
 10
173.9204296522966
 20
95.59505591833209
 30
0.0
 11
176.9204296522966
 21
95.59505591833209
 31
0.0
  0
LINE
  5
1284
330
1F
100
AcDbEntity
  8
10
100
AcDbLine
 10
190.4204296522966
 20
97.84505591833209
 30
0.0
 11
192.7204296523066
 21
97.84505591833209
 31
0.0
  0
LINE
  5
1285
330
1F
100
AcDbEntity
  8
10
100
AcDbLine
 10
190.4204296522966
 20
71.84505591833204
 30
0.0
 11
192.7204296523066
 21
71.84505591833204
 31
0.0
  0
LINE
  5
1286
330
1F
100
AcDbEntity
  8
10
100
AcDbLine
 10
176.9204296522966
 20
71.84505591833204
 30
0.0
 11
179.2204296523066
 21
71.84505591833204
 31
0.0
  0
LINE
  5
1287
330
1F
100
AcDbEntity
  8
10
100
AcDbLine
 10
176.9204296522966
 20
97.84505591833209
 30
0.0
 11
179.2204296523066
 21
97.84505591833209
 31
0.0
  0
LINE
  5
1288
330
1F
100
AcDbEntity
  8
10
100
AcDbLine
 10
313.4204296522964
 20
47.34505591833209
 30
0.0
 11
313.4204296522964
 21
41.09227916859907
 31
0.0
  0
LINE
  5
1289
330
1F
100
AcDbEntity
  8
10
100
AcDbLine
 10
342.4204296522964
 20
47.34505591833209
 30
0.0
 11
342.4204296522964
 21
22.34505591833201
 31
0.0
  0
LINE
  5
128A
330
1F
100
AcDbEntity
  8
10
100
AcDbLine
 10
218.0704296523065
 20
47.34505591833209
 30
0.0
 11
218.0704296523065
 21
31.69505591833211
 31
0.0
  0
LINE
  5
128B
330
1F
100
AcDbEntity
  8
10
100
AcDbLine
 10
272.4204296522964
 20
122.345055918332
 30
0.0
 11
272.4204296522964
 21
77.34505591833209
 31
0.0
  0
LINE
  5
128C
330
1F
100
AcDbEntity
  8
10
100
AcDbLine
 10
262.4204296522964
 20
122.345055918332
 30
0.0
 11
262.4204296522964
 21
77.34505591833209
 31
0.0
  0
LINE
  5
128D
330
1F
100
AcDbEntity
  8
10
100
AcDbLine
 10
192.4204296522966
 20
47.34505591833209
 30
0.0
 11
192.4204296522966
 21
77.34505591833209
 31
0.0
  0
LINE
  5
128E
330
1F
100
AcDbEntity
  8
10
100
AcDbLine
 10
190.4204296522966
 20
122.345055918332
 30
0.0
 11
190.4204296522966
 21
47.34505591833209
 31
0.0
  0
LINE
  5
128F
330
1F
100
AcDbEntity
  8
10
100
AcDbLine
 10
352.4204296522964
 20
47.34505591833209
 30
0.0
 11
182.4204296522966
 21
47.34505591833209
 31
0.0
  0
LINE
  5
1290
330
1F
100
AcDbEntity
  8
10
100
AcDbLine
 10
344.4204296522964
 20
122.345055918332
 30
0.0
 11
344.4204296522964
 21
47.34505591833209
 31
0.0
  0
LINE
  5
1291
330
1F
100
AcDbEntity
  8
10
100
AcDbLine
 10
182.4204296522966
 20
47.34505591833209
 30
0.0
 11
182.4204296522966
 21
122.345055918332
 31
0.0
  0
LINE
  5
1292
330
1F
100
AcDbEntity
  8
10
100
AcDbLine
 10
182.4204296522966
 20
122.345055918332
 30
0.0
 11
352.4204296522964
 21
122.345055918332
 31
0.0
  0
LINE
  5
1293
330
1F
100
AcDbEntity
  8
10
100
AcDbLine
 10
326.4204296522964
 20
48.59783266806402
 30
0.0
 11
319.9204296522964
 21
52.35060941779659
 31
0.0
  0
LINE
  5
1294
330
1F
100
AcDbEntity
  8
10
100
AcDbLine
 10
319.9204296522964
 20
52.35060941779659
 30
0.0
 11
313.4204296522964
 21
48.59783266806402
 31
0.0
  0
LINE
  5
1295
330
1F
100
AcDbEntity
  8
10
100
AcDbLine
 10
313.4204296522964
 20
48.59783266806402
 30
0.0
 11
313.4204296522964
 21
47.34505591833209
 31
0.0
  0
LINE
  5
1296
330
1F
100
AcDbEntity
  8
10
100
AcDbLine
 10
313.4204296522964
 20
41.09227916859907
 30
0.0
 11
319.9204296522964
 21
37.33950241886629
 31
0.0
  0
LINE
  5
1297
330
1F
100
AcDbEntity
  8
10
100
AcDbLine
 10
319.9204296522964
 20
37.33950241886629
 30
0.0
 11
326.4204296522964
 21
41.09227916859907
 31
0.0
  0
LINE
  5
1298
330
1F
100
AcDbEntity
  8
10
100
AcDbLine
 10
326.4204296522964
 20
41.09227916859907
 30
0.0
 11
326.4204296522964
 21
47.34505591833209
 31
0.0
  0
LINE
  5
1299
330
1F
100
AcDbEntity
  8
12
100
AcDbLine
 10
319.9204296522964
 20
53.9450559183316
 30
0.0
 11
319.9204296522964
 21
35.7450559183315
 31
0.0
  0
LINE
  5
129A
330
1F
100
AcDbEntity
  8
12
100
AcDbLine
 10
310.8204296523065
 20
44.84505591833164
 30
0.0
 11
329.0204296522963
 21
44.84505591833164
 31
0.0
  0
LINE
  5
129B
330
1F
100
AcDbEntity
  8
10
100
AcDbLine
 10
218.0704296523065
 20
57.99505591833201
 30
0.0
 11
218.0704296523065
 21
47.34505591833209
 31
0.0
  0
LINE
  5
129C
330
1F
100
AcDbEntity
  8
10
100
AcDbLine
 10
211.7704296523065
 20
31.69505591833211
 30
0.0
 11
211.7704296523065
 21
47.34505591833209
 31
0.0
  0
LINE
  5
129D
330
1F
100
AcDbEntity
  8
10
100
AcDbLine
 10
323.0704296523065
 20
512.995055918332
 30
0.0
 11
323.0704296523065
 21
497.3450559183319
 31
0.0
  0
LINE
  5
129E
330
1F
100
AcDbEntity
  8
10
100
AcDbLine
 10
316.7704296522963
 20
486.6950559183321
 30
0.0
 11
316.7704296522963
 21
497.3450559183319
 31
0.0
  0
LINE
  5
129F
330
1F
100
AcDbEntity
  8
10
100
AcDbLine
 10
214.9204296522966
 20
507.3506094177971
 30
0.0
 11
208.4204296522966
 21
503.5978326680641
 31
0.0
  0
LINE
  5
12A0
330
1F
100
AcDbEntity
  8
10
100
AcDbLine
 10
221.4204296522966
 20
503.5978326680641
 30
0.0
 11
214.9204296522966
 21
507.3506094177971
 31
0.0
  0
LINE
  5
12A1
330
1F
100
AcDbEntity
  8
10
100
AcDbLine
 10
221.4204296522966
 20
496.0922791685989
 30
0.0
 11
221.4204296522966
 21
497.3450559183319
 31
0.0
  0
LINE
  5
12A2
330
1F
100
AcDbEntity
  8
10
100
AcDbLine
 10
214.9204296522966
 20
492.3395024188669
 30
0.0
 11
221.4204296522966
 21
496.0922791685989
 31
0.0
  0
LINE
  5
12A3
330
1F
100
AcDbEntity
  8
10
100
AcDbLine
 10
208.4204296522966
 20
496.0922791685989
 30
0.0
 11
214.9204296522966
 21
492.3395024188669
 31
0.0
  0
LINE
  5
12A4
330
1F
100
AcDbEntity
  8
10
100
AcDbLine
 10
208.4204296522966
 20
503.5978326680641
 30
0.0
 11
208.4204296522966
 21
497.3450559183319
 31
0.0
  0
LINE
  5
12A5
330
1F
100
AcDbEntity
  8
12
100
AcDbLine
 10
214.9204296522966
 20
490.7450559183319
 30
0.0
 11
214.9204296522966
 21
508.9450559183321
 31
0.0
  0
LINE
  5
12A6
330
1F
100
AcDbEntity
  8
12
100
AcDbLine
 10
205.8204296523065
 20
499.8450559183321
 30
0.0
 11
224.0204296523065
 21
499.8450559183321
 31
0.0
  0
LINE
  5
12A7
330
1F
100
AcDbEntity
  8
10
100
AcDbLine
 10
262.4204296522964
 20
77.34505591833209
 30
0.0
 11
167.4204296522966
 21
77.34505591833209
 31
0.0
  0
LINE
  5
12A8
330
1F
100
AcDbEntity
  8
10
100
AcDbLine
 10
157.4204296522966
 20
66.84505591833198
 30
0.0
 11
182.4204296522966
 21
66.84505591833198
 31
0.0
  0
LINE
  5
12A9
330
1F
100
AcDbEntity
  8
10
100
AcDbLine
 10
192.4204296522966
 20
22.34505591833201
 30
0.0
 11
192.4204296522966
 21
47.34505591833209
 31
0.0
  0
LINE
  5
12AA
330
1F
100
AcDbEntity
  8
10
100
AcDbLine
 10
377.4204296522964
 20
22.845055918332
 30
0.0
 11
157.4204296522966
 21
22.845055918332
 31
0.0
  0
LINE
  5
12AB
330
1F
100
AcDbEntity
  8
10
100
AcDbLine
 10
342.4204296522964
 20
77.34505591833209
 30
0.0
 11
342.4204296522964
 21
47.34505591833209
 31
0.0
  0
LINE
  5
12AC
330
1F
100
AcDbEntity
  8
10
100
AcDbLine
 10
342.4204296522964
 20
22.34505591833201
 30
0.0
 11
192.4204296522966
 21
22.34505591833201
 31
0.0
  0
LINE
  5
12AD
330
1F
100
AcDbEntity
  8
10
100
AcDbLine
 10
339.9204296522964
 20
66.84505591833198
 30
0.0
 11
339.9204296522964
 21
77.34505591833209
 31
0.0
  0
LINE
  5
12AE
330
1F
100
AcDbEntity
  8
10
100
AcDbLine
 10
342.4204296522964
 20
67.34505591833197
 30
0.0
 11
339.9204296522964
 21
67.34505591833197
 31
0.0
  0
LINE
  5
12AF
330
1F
100
AcDbEntity
  8
10
100
AcDbLine
 10
339.9204296522964
 20
73.3450559183321
 30
0.0
 11
342.4204296522964
 21
73.3450559183321
 31
0.0
  0
LINE
  5
12B0
330
1F
100
AcDbEntity
  8
10
100
AcDbLine
 10
237.4204296522964
 20
73.3450559183321
 30
0.0
 11
237.4204296522964
 21
77.34505591833209
 31
0.0
  0
LINE
  5
12B1
330
1F
100
AcDbEntity
  8
10
100
AcDbLine
 10
234.9204296522964
 20
66.84505591833198
 30
0.0
 11
234.9204296522964
 21
77.34505591833209
 31
0.0
  0
LINE
  5
12B2
330
1F
100
AcDbEntity
  8
10
100
AcDbLine
 10
234.9204296522964
 20
73.3450559183321
 30
0.0
 11
299.9204296522964
 21
73.3450559183321
 31
0.0
  0
LINE
  5
12B3
330
1F
100
AcDbEntity
  8
10
100
AcDbLine
 10
194.9204296522975
 20
73.3450559183321
 30
0.0
 11
192.4204296522966
 21
73.3450559183321
 31
0.0
  0
LINE
  5
12B4
330
1F
100
AcDbEntity
  8
10
100
AcDbLine
 10
194.9204296522975
 20
67.34505591833197
 30
0.0
 11
192.4204296522966
 21
67.34505591833197
 31
0.0
  0
LINE
  5
12B5
330
1F
100
AcDbEntity
  8
10
100
AcDbLine
 10
194.9204296522975
 20
66.84505591833198
 30
0.0
 11
194.9204296522975
 21
77.34505591833209
 31
0.0
  0
LINE
  5
12B6
330
1F
100
AcDbEntity
  8
10
100
AcDbLine
 10
157.4204296522966
 20
22.845055918332
 30
0.0
 11
157.4204296522966
 21
66.84505591833198
 31
0.0
  0
LINE
  5
12B7
330
1F
100
AcDbEntity
  8
10
100
AcDbLine
 10
377.4204296522964
 20
22.845055918332
 30
0.0
 11
377.4204296522964
 21
66.84505591833198
 31
0.0
  0
LINE
  5
12B8
330
1F
100
AcDbEntity
  8
12
100
AcDbLine
 10
370.9204296522964
 20
39.84505591833197
 30
0.0
 11
370.9204296522964
 21
49.84505591833197
 31
0.0
  0
LINE
  5
12B9
330
1F
100
AcDbEntity
  8
12
100
AcDbLine
 10
358.9204296522964
 20
49.84505591833197
 30
0.0
 11
358.9204296522964
 21
39.84505591833197
 31
0.0
  0
LINE
  5
12BA
330
1F
100
AcDbEntity
  8
12
100
AcDbLine
 10
364.9204296522964
 20
31.64505591833119
 30
0.0
 11
364.9204296522964
 21
58.04505591833271
 31
0.0
  0
LINE
  5
12BB
330
1F
100
AcDbEntity
  8
12
100
AcDbLine
 10
372.7204296523066
 20
44.84505591833197
 30
0.0
 11
357.1204296523067
 21
44.84505591833197
 31
0.0
  0
LINE
  5
12BC
330
1F
100
AcDbEntity
  8
12
100
AcDbLine
 10
175.9204296522966
 20
39.84505591833197
 30
0.0
 11
175.9204296522966
 21
49.84505591833197
 31
0.0
  0
LINE
  5
12BD
330
1F
100
AcDbEntity
  8
12
100
AcDbLine
 10
163.9204296522966
 20
49.84505591833197
 30
0.0
 11
163.9204296522966
 21
39.84505591833197
 31
0.0
  0
LINE
  5
12BE
330
1F
100
AcDbEntity
  8
12
100
AcDbLine
 10
169.9204296522966
 20
31.64505591833119
 30
0.0
 11
169.9204296522966
 21
58.04505591833271
 31
0.0
  0
LINE
  5
12BF
330
1F
100
AcDbEntity
  8
12
100
AcDbLine
 10
177.7204296523066
 20
44.84505591833197
 30
0.0
 11
162.1204296523067
 21
44.84505591833197
 31
0.0
  0
LINE
  5
12C0
330
1F
100
AcDbEntity
  8
12
100
AcDbLine
 10
162.1204296523067
 20
499.8450559183321
 30
0.0
 11
177.7204296523066
 21
499.8450559183321
 31
0.0
  0
LINE
  5
12C1
330
1F
100
AcDbEntity
  8
12
100
AcDbLine
 10
169.9204296522966
 20
486.6450559183311
 30
0.0
 11
169.9204296522966
 21
513.045055918332
 31
0.0
  0
LINE
  5
12C2
330
1F
100
AcDbEntity
  8
12
100
AcDbLine
 10
163.9204296522966
 20
504.8450559183319
 30
0.0
 11
163.9204296522966
 21
494.8450559183321
 31
0.0
  0
LINE
  5
12C3
330
1F
100
AcDbEntity
  8
12
100
AcDbLine
 10
175.9204296522966
 20
494.8450559183321
 30
0.0
 11
175.9204296522966
 21
504.8450559183319
 31
0.0
  0
LINE
  5
12C4
330
1F
100
AcDbEntity
  8
12
100
AcDbLine
 10
357.1204296523067
 20
499.8450559183321
 30
0.0
 11
372.7204296523066
 21
499.8450559183321
 31
0.0
  0
LINE
  5
12C5
330
1F
100
AcDbEntity
  8
12
100
AcDbLine
 10
364.9204296522964
 20
486.6450559183311
 30
0.0
 11
364.9204296522964
 21
513.045055918332
 31
0.0
  0
LINE
  5
12C6
330
1F
100
AcDbEntity
  8
12
100
AcDbLine
 10
358.9204296522964
 20
504.8450559183319
 30
0.0
 11
358.9204296522964
 21
494.8450559183321
 31
0.0
  0
LINE
  5
12C7
330
1F
100
AcDbEntity
  8
12
100
AcDbLine
 10
370.9204296522964
 20
494.8450559183321
 30
0.0
 11
370.9204296522964
 21
504.8450559183319
 31
0.0
  0
LINE
  5
12C8
330
1F
100
AcDbEntity
  8
10
100
AcDbLine
 10
377.4204296522964
 20
477.8450559183321
 30
0.0
 11
377.4204296522964
 21
521.845055918332
 31
0.0
  0
LINE
  5
12C9
330
1F
100
AcDbEntity
  8
10
100
AcDbLine
 10
157.4204296522966
 20
477.8450559183321
 30
0.0
 11
157.4204296522966
 21
521.845055918332
 31
0.0
  0
LINE
  5
12CA
330
1F
100
AcDbEntity
  8
10
100
AcDbLine
 10
194.9204296522975
 20
467.345055918332
 30
0.0
 11
194.9204296522975
 21
477.8450559183321
 31
0.0
  0
LINE
  5
12CB
330
1F
100
AcDbEntity
  8
10
100
AcDbLine
 10
192.4204296522966
 20
477.3450559183321
 30
0.0
 11
194.9204296522975
 21
477.3450559183321
 31
0.0
  0
LINE
  5
12CC
330
1F
100
AcDbEntity
  8
10
100
AcDbLine
 10
192.4204296522966
 20
471.345055918332
 30
0.0
 11
194.9204296522975
 21
471.345055918332
 31
0.0
  0
LINE
  5
12CD
330
1F
100
AcDbEntity
  8
10
100
AcDbLine
 10
299.9204296522964
 20
471.345055918332
 30
0.0
 11
234.9204296522964
 21
471.345055918332
 31
0.0
  0
LINE
  5
12CE
330
1F
100
AcDbEntity
  8
10
100
AcDbLine
 10
234.9204296522964
 20
477.3450559183321
 30
0.0
 11
299.9204296522964
 21
477.3450559183321
 31
0.0
  0
LINE
  5
12CF
330
1F
100
AcDbEntity
  8
10
100
AcDbLine
 10
234.9204296522964
 20
467.345055918332
 30
0.0
 11
234.9204296522964
 21
477.8450559183321
 31
0.0
  0
LINE
  5
12D0
330
1F
100
AcDbEntity
  8
10
100
AcDbLine
 10
237.4204296522964
 20
467.345055918332
 30
0.0
 11
237.4204296522964
 21
471.345055918332
 31
0.0
  0
LINE
  5
12D1
330
1F
100
AcDbEntity
  8
10
100
AcDbLine
 10
297.4204296522964
 20
467.345055918332
 30
0.0
 11
297.4204296522964
 21
471.345055918332
 31
0.0
  0
LINE
  5
12D2
330
1F
100
AcDbEntity
  8
10
100
AcDbLine
 10
299.9204296522964
 20
467.345055918332
 30
0.0
 11
299.9204296522964
 21
477.8450559183321
 31
0.0
  0
LINE
  5
12D3
330
1F
100
AcDbEntity
  8
10
100
AcDbLine
 10
192.4204296522966
 20
522.345055918332
 30
0.0
 11
342.4204296522964
 21
522.345055918332
 31
0.0
  0
LINE
  5
12D4
330
1F
100
AcDbEntity
  8
10
100
AcDbLine
 10
157.4204296522966
 20
521.845055918332
 30
0.0
 11
377.4204296522964
 21
521.845055918332
 31
0.0
  0
LINE
  5
12D5
330
1F
100
AcDbEntity
  8
10
100
AcDbLine
 10
377.4204296522964
 20
477.8450559183321
 30
0.0
 11
355.6204296523067
 21
477.8450559183321
 31
0.0
  0
LINE
  5
12D6
330
1F
100
AcDbEntity
  8
10
100
AcDbLine
 10
262.4204296522964
 20
467.345055918332
 30
0.0
 11
262.4204296522964
 21
422.345055918332
 31
0.0
  0
LINE
  5
12D7
330
1F
100
AcDbEntity
  8
10
100
AcDbLine
 10
167.4204296522966
 20
77.34505591833209
 30
0.0
 11
167.4204296522966
 21
97.63176777087615
 31
0.0
  0
LINE
  5
12D8
330
1F
100
AcDbEntity
  8
10
100
AcDbLine
 10
367.4204296522964
 20
77.34505591833209
 30
0.0
 11
367.4204296522964
 21
97.63176777087615
 31
0.0
  0
LINE
  5
12D9
330
1F
100
AcDbEntity
  8
10
100
AcDbLine
 10
272.4204296522964
 20
77.34505591833209
 30
0.0
 11
328.0755546644888
 21
77.34505591833209
 31
0.0
  0
LINE
  5
12DA
330
1F
100
AcDbEntity
  8
10
100
AcDbLine
 10
272.4204296522964
 20
467.345055918332
 30
0.0
 11
272.4204296522964
 21
422.345055918332
 31
0.0
  0
LINE
  5
12DB
330
1F
100
AcDbEntity
  8
10
100
AcDbLine
 10
367.4204296522964
 20
467.345055918332
 30
0.0
 11
272.4204296522964
 21
467.345055918332
 31
0.0
  0
LINE
  5
12DC
330
1F
100
AcDbEntity
  8
10
100
AcDbLine
 10
342.4204296522964
 20
522.345055918332
 30
0.0
 11
342.4204296522964
 21
497.3450559183319
 31
0.0
  0
LINE
  5
12DD
330
1F
100
AcDbEntity
  8
10
100
AcDbLine
 10
339.9204296522964
 20
467.345055918332
 30
0.0
 11
339.9204296522964
 21
477.8450559183321
 31
0.0
  0
LINE
  5
12DE
330
1F
100
AcDbEntity
  8
10
100
AcDbLine
 10
339.9204296522964
 20
477.3450559183323
 30
0.0
 11
342.4204296522964
 21
477.3450559183321
 31
0.0
  0
LINE
  5
12DF
330
1F
100
AcDbEntity
  8
10
100
AcDbLine
 10
342.4204296522964
 20
471.345055918332
 30
0.0
 11
339.9204296522964
 21
471.345055918332
 31
0.0
  0
LINE
  5
12E0
330
1F
100
AcDbEntity
  8
10
100
AcDbLine
 10
182.4204296522966
 20
497.3450559183319
 30
0.0
 11
352.4204296522964
 21
497.3450559183319
 31
0.0
  0
LINE
  5
12E1
330
1F
100
AcDbEntity
  8
10
100
AcDbLine
 10
167.4204296522966
 20
447.058344065787
 30
0.0
 11
167.4204296522966
 21
467.345055918332
 31
0.0
  0
LINE
  5
12E2
330
1F
100
AcDbEntity
  8
10
100
AcDbLine
 10
167.4204296522966
 20
467.345055918332
 30
0.0
 11
262.4204296522964
 21
467.345055918332
 31
0.0
  0
LINE
  5
12E3
330
1F
100
AcDbEntity
  8
10
100
AcDbLine
 10
192.4204296522966
 20
497.3450559183319
 30
0.0
 11
192.4204296522966
 21
467.345055918332
 31
0.0
  0
LINE
  5
12E4
330
1F
100
AcDbEntity
  8
10
100
AcDbLine
 10
352.4204296522964
 20
497.3450559183319
 30
0.0
 11
352.4204296522964
 21
422.345055918332
 31
0.0
  0
LINE
  5
12E5
330
1F
100
AcDbEntity
  8
10
100
AcDbLine
 10
342.4204296522964
 20
497.3450559183319
 30
0.0
 11
342.4204296522964
 21
467.345055918332
 31
0.0
  0
LINE
  5
12E6
330
1F
100
AcDbEntity
  8
10
100
AcDbLine
 10
367.4204296522964
 20
447.058344065787
 30
0.0
 11
367.4204296522964
 21
467.345055918332
 31
0.0
  0
LINE
  5
12E7
330
1F
100
AcDbEntity
  8
10
100
AcDbLine
 10
367.4204296522964
 20
97.63176777087615
 30
0.0
 11
367.4204296522964
 21
447.058344065787
 31
0.0
  0
LINE
  5
12E8
330
1F
100
AcDbEntity
  8
10
100
AcDbLine
 10
167.4204296522966
 20
97.63176777087615
 30
0.0
 11
167.4204296522966
 21
447.058344065787
 31
0.0
  0
LINE
  5
12E9
330
1F
100
AcDbEntity
  8
10
100
AcDbLine
 10
352.4204296522964
 20
477.8450559183321
 30
0.0
 11
182.4204296522966
 21
477.8450559183321
 31
0.0
  0
LINE
  5
12EA
330
1F
100
AcDbEntity
  8
10
100
AcDbLine
 10
208.4204296522966
 20
497.3450559183319
 30
0.0
 11
208.4204296522966
 21
496.0922791685989
 31
0.0
  0
LINE
  5
12EB
330
1F
100
AcDbEntity
  8
10
100
AcDbLine
 10
323.0704296523065
 20
497.3450559183319
 30
0.0
 11
323.0704296523065
 21
486.6950559183321
 31
0.0
  0
LINE
  5
12EC
330
1F
100
AcDbEntity
  8
10
100
AcDbLine
 10
182.4204296522966
 20
66.84505591833198
 30
0.0
 11
297.1704296522964
 21
66.84505591833198
 31
0.0
  0
LINE
  5
12ED
330
1F
100
AcDbEntity
  8
10
100
AcDbLine
 10
352.4204296522964
 20
122.345055918332
 30
0.0
 11
352.4204296522964
 21
47.34505591833209
 31
0.0
  0
LINE
  5
12EE
330
1F
100
AcDbEntity
  8
10
100
AcDbLine
 10
211.7704296523065
 20
47.34505591833209
 30
0.0
 11
211.7704296523065
 21
57.99505591833201
 31
0.0
  0
LINE
  5
12EF
330
1F
100
AcDbEntity
  8
10
100
AcDbLine
 10
326.4204296522964
 20
47.34505591833209
 30
0.0
 11
326.4204296522964
 21
48.59783266806402
 31
0.0
  0
POINT
  5
12F0
330
1F
100
AcDbEntity
  8
10
100
AcDbPoint
 10
287.4204296522964
 20
114.5950559183321
 30
0.0
  0
POINT
  5
12F1
330
1F
100
AcDbEntity
  8
10
100
AcDbPoint
 10
247.4204296522964
 20
114.5950559183321
 30
0.0
  0
POINT
  5
12F2
330
1F
100
AcDbEntity
  8
10
100
AcDbPoint
 10
297.1704296522964
 20
64.84505591833209
 30
0.0
  0
POINT
  5
12F3
330
1F
100
AcDbEntity
  8
10
100
AcDbPoint
 10
297.1704296522964
 20
104.845055918332
 30
0.0
  0
POINT
  5
12F4
330
1F
100
AcDbEntity
  8
10
100
AcDbPoint
 10
382.1204296523067
 20
455.5950559183321
 30
0.0
  0
POINT
  5
12F5
330
1F
100
AcDbEntity
  8
10
100
AcDbPoint
 10
152.7204296523066
 20
455.5950559183321
 30
0.0
  0
LINE
  5
132C
330
1F
100
AcDbEntity
  8
10
100
AcDbLine
 10
335.4242772295963
 20
95.23736076374513
 30
0.0
 11
334.6204296523067
 21
92.63928455239209
 31
0.0
  0
LINE
  5
132D
330
1F
100
AcDbEntity
  8
10
100
AcDbLine
 10
335.4242772295963
 20
95.23736076374513
 30
0.0
 11
335.424277229596
 21
90.04120834103813
 31
0.0
  0
LINE
  5
132E
330
1F
100
AcDbEntity
  8
10
100
AcDbLine
 10
335.4242772295963
 20
79.64890349562512
 30
0.0
 11
335.4242772295963
 21
74.45275107291911
 31
0.0
  0
LINE
  5
132F
330
1F
100
AcDbEntity
  8
10
100
AcDbLine
 10
335.4242772295963
 20
74.45275107291911
 30
0.0
 11
334.6204296523067
 21
77.05082728427209
 31
0.0
  0
LINE
  5
1330
330
1F
100
AcDbEntity
  8
10
100
AcDbLine
 10
370.1165820750063
 20
95.23736076374513
 30
0.0
 11
370.9113956045546
 21
92.86753660175437
 31
0.0
  0
LINE
  5
1331
330
1F
100
AcDbEntity
  8
10
100
AcDbLine
 10
370.9113956037976
 20
76.82257523437788
 30
0.0
 11
370.1165820750063
 21
74.45275107291911
 31
0.0
  0
LINE
  5
1332
330
1F
100
AcDbEntity
  8
10
100
AcDbLine
 10
370.1165820750067
 20
90.04120834103799
 30
0.0
 11
370.1165820750063
 21
95.23736076374513
 31
0.0
  0
LINE
  5
1333
330
1F
100
AcDbEntity
  8
10
100
AcDbLine
 10
370.1165820750063
 20
79.64890349562512
 30
0.0
 11
370.1165820750063
 21
74.45275107291911
 31
0.0
  0
LINE
  5
1334
330
1F
100
AcDbEntity
  8
10
100
AcDbLine
 10
199.4165820750065
 20
95.23736076374513
 30
0.0
 11
200.2204296523066
 21
92.63928455239209
 31
0.0
  0
LINE
  5
1335
330
1F
100
AcDbEntity
  8
10
100
AcDbLine
 10
199.4165820750065
 20
95.23736076374513
 30
0.0
 11
199.4165820750065
 21
90.04120834103913
 31
0.0
  0
LINE
  5
1336
330
1F
100
AcDbEntity
  8
10
100
AcDbLine
 10
199.4165820750065
 20
79.64890349562512
 30
0.0
 11
199.4165820750065
 21
74.45275107291911
 31
0.0
  0
LINE
  5
1337
330
1F
100
AcDbEntity
  8
10
100
AcDbLine
 10
200.2204296523066
 20
77.05082728427209
 30
0.0
 11
199.4165820750065
 21
74.45275107291911
 31
0.0
  0
LINE
  5
1338
330
1F
100
AcDbEntity
  8
10
100
AcDbLine
 10
164.7242772295962
 20
74.45275107291911
 30
0.0
 11
163.9204296522966
 21
77.05082728427209
 31
0.0
  0
LINE
  5
1339
330
1F
100
AcDbEntity
  8
10
100
AcDbLine
 10
163.9204296522966
 20
92.63928455239209
 30
0.0
 11
164.7242772295962
 21
95.23736076374513
 31
0.0
  0
LINE
  5
133A
330
1F
100
AcDbEntity
  8
10
100
AcDbLine
 10
164.7242772295962
 20
95.23736076374513
 30
0.0
 11
164.7242772295961
 21
90.04120834103806
 31
0.0
  0
LINE
  5
133B
330
1F
100
AcDbEntity
  8
10
100
AcDbLine
 10
164.7242772295965
 20
79.64890349562512
 30
0.0
 11
164.7242772295965
 21
74.45275107291911
 31
0.0
  0
LINE
  5
133C
330
1F
100
AcDbEntity
  8
10
100
AcDbLine
 10
335.4242772295963
 20
470.2373607637451
 30
0.0
 11
334.6204296523067
 21
467.639284552392
 31
0.0
  0
LINE
  5
133D
330
1F
100
AcDbEntity
  8
10
100
AcDbLine
 10
335.4242772295959
 20
465.0412083410381
 30
0.0
 11
335.4242772295963
 21
470.2373607637451
 31
0.0
  0
LINE
  5
133E
330
1F
100
AcDbEntity
  8
10
100
AcDbLine
 10
335.4242772295963
 20
454.6489034956251
 30
0.0
 11
335.4242772295963
 21
449.4527510729191
 31
0.0
  0
LINE
  5
133F
330
1F
100
AcDbEntity
  8
10
100
AcDbLine
 10
335.4242772295963
 20
449.4527510729191
 30
0.0
 11
334.6204296523067
 21
452.0508272842721
 31
0.0
  0
LINE
  5
1340
330
1F
100
AcDbEntity
  8
10
100
AcDbLine
 10
370.1165820750063
 20
470.2373607637451
 30
0.0
 11
370.9113956037928
 21
467.8675366022793
 31
0.0
  0
LINE
  5
1342
330
1F
100
AcDbEntity
  8
10
100
AcDbLine
 10
370.1165820750063
 20
470.2373607637451
 30
0.0
 11
370.1165820750063
 21
465.041208341039
 31
0.0
  0
LINE
  5
1343
330
1F
100
AcDbEntity
  8
10
100
AcDbLine
 10
370.1165820750063
 20
454.6489034956251
 30
0.0
 11
370.1165820750063
 21
449.4527510729191
 31
0.0
  0
LINE
  5
1344
330
1F
100
AcDbEntity
  8
10
100
AcDbLine
 10
370.1165820750063
 20
449.4527510729191
 30
0.0
 11
370.9113956045555
 21
451.8225752349084
 31
0.0
  0
LINE
  5
1345
330
1F
100
AcDbEntity
  8
10
100
AcDbLine
 10
199.4165820750065
 20
470.2373607637451
 30
0.0
 11
200.2204296523066
 21
467.639284552392
 31
0.0
  0
LINE
  5
1346
330
1F
100
AcDbEntity
  8
10
100
AcDbLine
 10
199.4165820750068
 20
465.041208341038
 30
0.0
 11
199.4165820750068
 21
470.2373607637452
 31
0.0
  0
LINE
  5
1347
330
1F
100
AcDbEntity
  8
10
100
AcDbLine
 10
199.4165820750065
 20
454.6489034956251
 30
0.0
 11
199.4165820750065
 21
449.4527510729191
 31
0.0
  0
LINE
  5
1349
330
1F
100
AcDbEntity
  8
10
100
AcDbLine
 10
200.2204296523066
 20
452.0508272842721
 30
0.0
 11
199.4165820750065
 21
449.4527510729191
 31
0.0
  0
LINE
  5
134A
330
1F
100
AcDbEntity
  8
10
100
AcDbLine
 10
164.7242772295962
 20
470.2373607637451
 30
0.0
 11
163.9294637008165
 21
467.867536602287
 31
0.0
  0
LINE
  5
134B
330
1F
100
AcDbEntity
  8
10
100
AcDbLine
 10
163.9294637000452
 20
451.8225752349096
 30
0.0
 11
164.7242772295962
 21
449.4527510729191
 31
0.0
  0
LINE
  5
134C
330
1F
100
AcDbEntity
  8
10
100
AcDbLine
 10
164.7242772295962
 20
449.4527510729191
 30
0.0
 11
164.7242772295961
 21
454.6489034956261
 31
0.0
  0
LINE
  5
134D
330
1F
100
AcDbEntity
  8
10
100
AcDbLine
 10
164.7242772295962
 20
470.2373607637451
 30
0.0
 11
164.7242772295964
 21
465.041208341039
 31
0.0
  0
VIEWPORT
  5
409
330
23
100
AcDbEntity
 67
     1
  8
0
100
AcDbViewport
 10
142.6315765380859
 20
99.1129140853882
 30
0.0
 40
314.2372683715819
 41
259.7433703258352
 68
     1
 69
     1
1001
ACAD
1000
MVIEW
1002
{
1070
    16
1010
0.0
1020
0.0
1030
0.0
1010
0.0
1020
0.0
1030
1.0
1040
0.0
1040
259.7433703258352
1040
142.6315765380859
1040
99.1129140853882
1040
50.0
1040
0.0
1040
0.0
1070
     0
1070
   100
1070
     1
1070
     1
1070
     0
1070
     0
1070
     0
1070
     0
1040
0.0
1040
0.0
1040
0.0
1040
10.0
1040
10.0
1040
10.0
1040
10.0
1070
     0
1002
{
1002
}
1002
}
  0
VIEWPORT
  5
40B
330
23
100
AcDbEntity
 67
     1
  8
0
100
AcDbViewport
 10
142.6315770149231
 20
99.11291456222535
 30
0.0
 40
228.2105232238769
 41
158.5806632995605
 68
     2
 69
     2
1001
ACAD
1000
MVIEW
1002
{
1070
    16
1010
0.0
1020
0.0
1030
0.0
1010
0.0
1020
0.0
1030
1.0
1040
0.0
1040
437.7797658097811
1040
303.2144175903108
1040
233.3590858733038
1040
50.0
1040
0.0
1040
0.0
1070
     0
1070
   100
1070
     1
1070
     3
1070
     0
1070
     0
1070
     0
1070
     0
1040
0.0
1040
0.0
1040
0.0
1040
10.0
1040
10.0
1040
10.0
1040
10.0
1070
     0
1002
{
1002
}
1002
}
  0
ENDSEC
  0
SECTION
  2
OBJECTS
  0
DICTIONARY
  5
C
330
0
100
AcDbDictionary
  3
ACAD_GROUP
350
D
  3
ACAD_LAYOUT
350
1A
  3
ACAD_MLINESTYLE
350
17
  3
ACAD_PLOTSETTINGS
350
19
  3
ACAD_PLOTSTYLENAME
350
B10
  3
ACAMCATALOGSTATE
350
5BA
  3
ACASAPPOBJECT
350
53F
  3
ACASGREF_MASTER
350
587
  3
ACDBHEADERROUNDTRIPXREC
350
137E
  3
ACDBVARIABLEDICTIONARY
350
B19
  3
ACDMSYSVARMGR
350
519
  3
ACGREF_MASTER
350
513
  3
ACGREFACAD_MASTER
350
53B
  3
ACMDICTIONARY
350
5B6
  3
ACME_BOM_MANAGER_NAME
350
50C
  3
ACME_COMMAND_HISTORY
350
507
  3
ACME_SCOPE_NAME
350
506
  3
ACMESTATEMGR
350
511
  3
ACMESYSVARMANAGER
350
508
  3
ACMSYSTEMVARIABLEMANAGER
350
5C4
  3
AD_APPL
350
59E
  3
AD_GREF_MODULE
350
588
  3
AD_MAPI_MODULE
350
5A0
  3
ADSYSVARMGR
350
590
  3
AMDTNAMEDDWGMGR
350
536
  3
AMG
350
4FD
  3
AMGSNAPSETTINGS
350
5D0
  3
AMI_MASTER
350
53E
  3
ASURF_STATIC_VARS
350
540
  3
AUTOCAD_ASSEMBLIES_PROJECT
350
5AB
  3
AUTOSURF_SYSVARS
350
541
  3
DESIGNER_ASSEMBLIES_SYSVARS
350
5A2
  3
DWGPROPS
350
5B9
  3
GREFAM_MODULE
350
58A
  3
MAPISURF_MODULE
350
589
1001
ACAD
1000
TREAT_AS_HARD
1070
     0
1000
TREAT_AS_HARD
1070
     0
1000
TREAT_AS_HARD
1070
     0
  0
DICTIONARY
  5
41
330
2
100
AcDbDictionary
280
     1
  3
ACAD_LAYERFILTERS
360
3FF
  3
ACAD_LAYERSTATES
360
42
1001
ACAD
1000
TREAT_AS_HARD
1070
     1
1000
TREAT_AS_HARD
1070
     0
1000
TREAT_AS_HARD
1070
     0
  0
DICTIONARY
  5
438
330
1F
100
AcDbDictionary
280
     1
  3
ACAD_LAYOUTSELFREF
360
139E
1001
ACAD
1000
TREAT_AS_HARD
1070
     1
1000
TREAT_AS_HARD
1070
     1
1000
TREAT_AS_HARD
1070
     0
  0
DICTIONARY
  5
43A
330
23
100
AcDbDictionary
280
     1
  3
ACAD_LAYOUTSELFREF
360
139F
1001
ACAD
1000
TREAT_AS_HARD
1070
     1
1000
TREAT_AS_HARD
1070
     1
1000
TREAT_AS_HARD
1070
     0
  0
DICTIONARY
  5
D
102
{ACAD_REACTORS
330
C
102
}
330
C
100
AcDbDictionary
1001
ACAD
1000
TREAT_AS_HARD
1070
     0
1000
TREAT_AS_HARD
1070
     0
1000
TREAT_AS_HARD
1070
     0
  0
DICTIONARY
  5
1A
102
{ACAD_REACTORS
330
C
102
}
330
C
100
AcDbDictionary
1001
ACAD
1000
TREAT_AS_HARD
1070
     0
1000
TREAT_AS_HARD
1070
     0
1000
TREAT_AS_HARD
1070
     0
  0
DICTIONARY
  5
17
102
{ACAD_REACTORS
330
C
102
}
330
C
100
AcDbDictionary
  3
STANDARD
350
18
1001
ACAD
1000
TREAT_AS_HARD
1070
     0
1000
TREAT_AS_HARD
1070
     0
1000
TREAT_AS_HARD
1070
     0
  0
DICTIONARY
  5
19
102
{ACAD_REACTORS
330
C
102
}
330
C
100
AcDbDictionary
1001
ACAD
1000
TREAT_AS_HARD
1070
     0
1000
TREAT_AS_HARD
1070
     0
1000
TREAT_AS_HARD
1070
     0
  0
ACDBDICTIONARYWDFLT
  5
B10
102
{ACAD_REACTORS
330
C
102
}
330
C
100
AcDbDictionary
281
     1
  3
Normal
350
B11
100
AcDbDictionaryWithDefault
340
B11
  0
ACAD_PROXY_OBJECT
  5
5BA
102
{ACAD_REACTORS
330
C
102
}
330
C
100
AcDbProxyObject
 90
      499
 91
      574
 93
      880
310
3FFFFFFFE00A0284402B0AE2E189C9917189B1C17189719182E32B733B4B732B2B934B733AE32B733B4B732B2B934B733AE26A2A2C5E34B58AE181C1898189A2FA6A2A2AF99222FC6F6483EAE39B4B5BCBAAE232916A420A62FA422A62FA1A0A22E4728C6B641B340ADC1AF400AA00
 94
        0
1001
ACAD
1000
AcadProxyRoundTripData
1071
      565
1071
   851991
1070
     0
  0
ACAD_PROXY_OBJECT
  5
53F
102
{ACAD_REACTORS
330
C
102
}
330
C
100
AcDbProxyObject
 90
      499
 91
      574
 93
       10
310
4042
 94
        0
1001
ACAD
1000
AcadProxyRoundTripData
1071
      537
1071
   851991
1070
     0
  0
ACAD_PROXY_OBJECT
  5
587
102
{ACAD_REACTORS
330
C
102
}
330
C
100
AcDbProxyObject
 90
      499
 91
      574
 93
       34
310
0100004071
 94
        0
1001
ACAD
1000
AcadProxyRoundTripData
1071
      543
1071
   851991
1070
     0
  0
DICTIONARY
  5
137E
102
{ACAD_REACTORS
330
C
102
}
330
C
100
AcDbDictionary
  3
CEPSNTYPE
350
1388
  3
FINGERPRINTGUID
350
1389
  3
HYPERLINKBASE
350
1381
  3
INSUNITS
350
1387
  3
LAYOUTDICT
350
1383
  3
LWETCUNION
350
1386
  3
PLOTSETDICT
350
1384
  3
PLOTSTYLNAMDICT
350
1385
  3
PSVPSCALE
350
138B
  3
PUCSBASE
350
138E
  3
PUCSORGBACK
350
1394
  3
PUCSORGBOTTOM
350
1390
  3
PUCSORGFRONT
350
1393
  3
PUCSORGLEFT
350
1391
  3
PUCSORGRIGHT
350
1392
  3
PUCSORGTOP
350
138F
  3
PUCSORTHOREF
350
138C
  3
PUCSORTHOVIEW
350
138D
  3
STYLESHEET
350
1382
  3
TSTACKALIGN
350
137F
  3
TSTACKSIZE
350
1380
  3
UCSBASE
350
1397
  3
UCSORGBACK
350
139D
  3
UCSORGBOTTOM
350
1399
  3
UCSORGFRONT
350
139C
  3
UCSORGLEFT
350
139A
  3
UCSORGRIGHT
350
139B
  3
UCSORGTOP
350
1398
  3
UCSORTHOREF
350
1395
  3
UCSORTHOVIEW
350
1396
  3
VERSIONGUID
350
138A
  0
DICTIONARY
  5
B19
102
{ACAD_REACTORS
330
C
102
}
330
C
100
AcDbDictionary
  3
DIMASSOC
350
B1A
  0
ACAD_PROXY_OBJECT
  5
519
102
{ACAD_REACTORS
330
C
102
}
330
C
100
AcDbProxyObject
 90
      499
 91
      574
 93
      240
310
4C51A482000000000000000000000000000000000000000000000000000042
330
51A
330
51B
330
51C
330
51D
330
51E
330
51F
330
520
330
523
330
524
330
525
330
526
330
527
330
528
330
529
330
52A
330
52B
330
52C
330
52D
330
52E
330
52F
330
530
330
531
330
532
330
533
330
534
330
535
 94
        0
1001
ACAD
1000
AcadProxyRoundTripData
1071
      516
1071
   851991
1070
     0
  0
ACAD_PROXY_OBJECT
  5
513
102
{ACAD_REACTORS
330
C
102
}
330
C
100
AcDbProxyObject
 90
      499
 91
      574
 93
       34
310
04000042B1
 94
        0
1001
ACAD
1000
AcadProxyRoundTripData
1071
      525
1071
   851991
1070
     0
  0
ACAD_PROXY_OBJECT
  5
53B
102
{ACAD_REACTORS
330
C
102
}
330
C
100
AcDbProxyObject
 90
      499
 91
      574
 93
      114
310
04000041C000000000000000000000
 94
        0
1001
ACAD
1000
AcadProxyRoundTripData
1071
      533
1071
   851991
1070
     0
  0
DICTIONARY
  5
5B6
102
{ACAD_REACTORS
330
C
102
}
330
C
100
AcDbDictionary
  3
ACMBOMDATA
350
5B7
1001
ACAD
1000
TREAT_AS_HARD
1070
     0
1000
TREAT_AS_HARD
1070
     0
1000
TREAT_AS_HARD
1070
     0
  0
ACAD_PROXY_OBJECT
  5
50C
102
{ACAD_REACTORS
330
C
102
}
330
C
100
AcDbProxyObject
 90
      499
 91
      574
 93
       50
310
00000040400025
330
0
330
0
330
50D
 94
        0
1001
ACAD
1000
AcadProxyRoundTripData
1071
      519
1071
   851991
1070
     0
  0
ACAD_PROXY_OBJECT
  5
507
102
{ACAD_REACTORS
330
C
102
}
330
C
100
AcDbProxyObject
 90
      499
 91
      574
 93
      778
310
424050E414D4454524553455444424D4F4440805084E202D20554E444F014213880B4815539113C0507544F4F4C42415280504554E444F80504554E444F80504554E444F80504554E444F80504554E444F80505455241534580506534156454153A4
 94
        0
1001
ACAD
1000
AcadProxyRoundTripData
1071
      515
1071
   851991
1070
     0
  0
ACAD_PROXY_OBJECT
  5
506
102
{ACAD_REACTORS
330
C
102
}
330
C
100
AcDbProxyObject
 90
      499
 91
      574
 93
     1242
310
06000044400000000000000000001840000400020000000000000000000000000000000000000000000000000000000000000000000000000000000000000000000000000000000000000000000000000000000000000000000000000000000000000000000000000000000000000000000000000000000000000000000000
310
00000000000000000000000000000000000000000000000000AAAAAAB2
360
509
360
50A
360
50B
360
50D
360
514
360
515
360
516
360
517
360
51A
360
51B
360
51C
360
51D
360
51E
360
51F
360
520
360
523
360
524
360
525
360
526
360
527
360
528
360
529
360
52A
360
52B
360
52C
360
52D
360
52E
360
52F
360
530
360
531
360
532
360
533
360
534
360
535
360
542
360
543
360
544
360
545
360
546
360
547
360
548
360
549
360
54A
360
54B
360
54C
360
54D
360
54E
360
54F
360
550
360
551
360
552
360
553
360
554
360
555
360
556
360
557
360
558
360
559
360
55A
360
55B
360
55C
360
55D
360
55E
360
55F
360
560
360
561
360
562
360
563
360
564
360
565
360
566
360
567
360
568
360
569
360
56A
360
56B
360
56C
360
56D
360
56E
360
56F
360
570
360
571
360
572
360
573
360
574
360
575
360
576
360
577
360
578
360
579
360
57A
360
57B
360
57C
360
57D
360
57E
360
57F
360
580
360
581
360
582
360
583
360
58C
360
58D
360
58E
360
58F
360
591
360
592
360
593
360
594
360
595
360
596
360
597
360
598
360
599
360
59A
360
59B
360
59C
360
59D
360
5A3
360
5A4
360
5A5
360
5A6
360
5A7
360
5A8
360
5A9
360
5AA
360
5AF
360
5B0
360
5B1
360
5B2
360
5B3
360
5B4
360
5C5
 94
        0
1001
ACAD
1000
AcadProxyRoundTripData
1071
      514
1071
   851991
1070
     0
  0
ACAD_PROXY_OBJECT
  5
511
102
{ACAD_REACTORS
330
C
102
}
330
C
100
AcDbProxyObject
 90
      499
 91
      574
 93
       50
310
060000416412A5
 94
        0
1001
ACAD
1000
AcadProxyRoundTripData
1071
      524
1071
   851991
1070
     0
  0
ACAD_PROXY_OBJECT
  5
508
102
{ACAD_REACTORS
330
C
102
}
330
C
100
AcDbProxyObject
 90
      499
 91
      574
 93
       48
310
90342200000011
330
509
330
50A
330
50B
 94
        0
1001
ACAD
1000
AcadProxyRoundTripData
1071
      516
1071
   851991
1070
     0
  0
ACAD_PROXY_OBJECT
  5
5C4
102
{ACAD_REACTORS
330
C
102
}
330
C
100
AcDbProxyObject
 90
      499
 91
      574
 93
       32
310
901422002F
330
5C5
 94
        0
1001
ACAD
1000
AcadProxyRoundTripData
1071
      516
1071
   851991
1070
     0
  0
ACAD_PROXY_OBJECT
  5
59E
102
{ACAD_REACTORS
330
C
102
}
330
C
100
AcDbProxyObject
 90
      499
 91
      574
 93
       42
310
0006000043C2
330
58C
 94
        0
1001
ACAD
1000
AcadProxyRoundTripData
1071
      552
1071
   851991
1070
     0
  0
ACAD_PROXY_OBJECT
  5
588
102
{ACAD_REACTORS
330
C
102
}
330
C
100
AcDbProxyObject
 90
      499
 91
      574
 93
      114
310
000000438000000000000000000036
 94
        0
1001
ACAD
1000
AcadProxyRoundTripData
1071
      544
1071
   851991
1070
     0
  0
ACAD_PROXY_OBJECT
  5
5A0
102
{ACAD_REACTORS
330
C
102
}
330
C
100
AcDbProxyObject
 90
      499
 91
      574
 93
       34
310
05000044F1
 94
        0
1001
ACAD
1000
AcadProxyRoundTripData
1071
      554
1071
   851991
1070
     0
  0
ACAD_PROXY_OBJECT
  5
590
102
{ACAD_REACTORS
330
C
102
}
330
C
100
AcDbProxyObject
 90
      499
 91
      574
 93
      128
310
90D4420000000000000000000000000000
330
591
330
592
330
593
330
594
330
595
330
596
330
597
330
598
330
599
330
59A
330
59B
330
59C
330
59D
 94
        0
1001
ACAD
1000
AcadProxyRoundTripData
1071
      516
1071
   851991
1070
     0
  0
ACAD_PROXY_OBJECT
  5
536
102
{ACAD_REACTORS
330
C
102
}
330
C
100
AcDbProxyObject
 90
      499
 91
      574
 93
       42
310
000100005AC2
330
514
 94
        0
1001
ACAD
1000
AcadProxyRoundTripData
1071
      530
1071
   851991
1070
     0
  0
DICTIONARY
  5
4FD
102
{ACAD_REACTORS
330
C
102
}
330
C
100
AcDbDictionary
  3
ACMGSETTINGS
350
4FE
  3
AMGLAYCFG
350
5C3
1001
ACAD
1000
TREAT_AS_HARD
1070
     0
1000
TREAT_AS_HARD
1070
     0
1000
TREAT_AS_HARD
1070
     0
  0
DICTIONARY
  5
5D0
102
{ACAD_REACTORS
330
C
102
}
330
C
100
AcDbDictionary
  3
DIMENSION
350
5D5
  3
FEA
350
5D4
  3
HATCH__1_
350
5D1
  3
HATCH__2_
350
5D2
  3
SIMPLE_WELD
350
5D6
  3
SYMBOLS
350
5D3
1001
ACAD
1000
TREAT_AS_HARD
1070
     0
1000
TREAT_AS_HARD
1070
     0
1000
TREAT_AS_HARD
1070
     0
  0
ACAD_PROXY_OBJECT
  5
53E
102
{ACAD_REACTORS
330
C
102
}
330
C
100
AcDbProxyObject
 90
      499
 91
      574
 93
       34
310
05000042B1
 94
        0
1001
ACAD
1000
AcadProxyRoundTripData
1071
      536
1071
   851991
1070
     0
  0
ACAD_PROXY_OBJECT
  5
540
102
{ACAD_REACTORS
330
C
102
}
330
C
100
AcDbProxyObject
 90
      499
 91
      574
 93
      424
310
585315020000000000000000000000000000000000000000000000000000000000000000000000000000000000000000000000000000
330
553
330
554
330
555
330
556
330
557
330
558
330
559
330
55A
330
55B
330
55C
330
55D
330
55E
330
55F
330
560
330
561
330
562
330
563
330
564
330
565
330
566
330
567
330
568
330
569
330
56A
330
56B
330
56C
330
56D
330
56E
330
56F
330
570
330
571
330
572
330
573
330
574
330
575
330
576
330
577
330
578
330
579
330
57A
330
57B
330
57C
330
57D
330
57E
330
57F
330
580
330
581
330
582
330
583
 94
        0
1001
ACAD
1000
AcadProxyRoundTripData
1071
      538
1071
   851991
1070
     0
  0
ACAD_PROXY_OBJECT
  5
5AB
102
{ACAD_REACTORS
330
C
102
}
330
C
100
AcDbProxyObject
 90
      499
 91
      574
 93
       74
310
0600004A400000000010
330
5B2
330
0
330
5B3
330
0
330
0
 94
        0
1001
ACAD
1000
AcadProxyRoundTripData
1071
      556
1071
   851991
1070
     0
  0
ACAD_PROXY_OBJECT
  5
541
102
{ACAD_REACTORS
330
C
102
}
330
C
100
AcDbProxyObject
 90
      499
 91
      574
 93
      168
310
4C511482000000000000000000000000000000000002
330
542
330
543
330
544
330
545
330
546
330
547
330
548
330
549
330
54A
330
54B
330
54C
330
54D
330
54E
330
54F
330
550
330
551
330
552
 94
        0
1001
ACAD
1000
AcadProxyRoundTripData
1071
      516
1071
   851991
1070
     0
  0
ACAD_PROXY_OBJECT
  5
5A2
102
{ACAD_REACTORS
330
C
102
}
330
C
100
AcDbProxyObject
 90
      499
 91
      574
 93
       88
310
908422000000000000000000
330
5A3
330
5A4
330
5A5
330
5A6
330
5A7
330
5A8
330
5A9
330
5AA
 94
        0
1001
ACAD
1000
AcadProxyRoundTripData
1071
      516
1071
   851991
1070
     0
  0
XRECORD
  5
5B9
102
{ACAD_REACTORS
330
C
102
}
330
C
100
AcDbXrecord
  1
DWGPROPS COOKIE
  2

  3

  4

  6

  7

  8

  9

300
AmdtFileType=84
301
=
302
=
303
=
304
=
305
=
306
=
307
=
308
=
309
=
 40
0.005163125
 41
2454596.550355717
 42
2454596.675773645
  1

 90
        1
  0
ACAD_PROXY_OBJECT
  5
58A
102
{ACAD_REACTORS
330
C
102
}
330
C
100
AcDbProxyObject
 90
      499
 91
      574
 93
        8
310
0502
 94
        0
1001
ACAD
1000
AcadProxyRoundTripData
1071
      546
1071
   851991
1070
     0
  0
ACAD_PROXY_OBJECT
  5
589
102
{ACAD_REACTORS
330
C
102
}
330
C
100
AcDbProxyObject
 90
      499
 91
      574
 93
        8
310
0402
 94
        0
1001
ACAD
1000
AcadProxyRoundTripData
1071
      545
1071
   851991
1070
     0
  0
DICTIONARY
  5
3FF
102
{ACAD_REACTORS
330
41
102
}
330
41
100
AcDbDictionary
1001
ACAD
1000
TREAT_AS_HARD
1070
     1
1000
TREAT_AS_HARD
1070
     0
1000
TREAT_AS_HARD
1070
     0
  0
DICTIONARY
  5
42
102
{ACAD_REACTORS
330
41
102
}
330
41
100
AcDbDictionary
1001
ACAD
1000
TREAT_AS_HARD
1070
     0
1000
TREAT_AS_HARD
1070
     0
1000
TREAT_AS_HARD
1070
     0
  0
XRECORD
  5
139E
102
{ACAD_REACTORS
330
438
102
}
330
438
100
AcDbXrecord
340
1F
  0
XRECORD
  5
139F
102
{ACAD_REACTORS
330
43A
102
}
330
43A
100
AcDbXrecord
340
23
  0
MLINESTYLE
  5
18
102
{ACAD_REACTORS
330
17
102
}
330
17
100
AcDbMlineStyle
  2
STANDARD
 70
     0
  3

 62
   256
 51
90.0
 52
90.0
 71
     2
 49
0.5
 62
   256
  6
BYLAYER
 49
-0.5
 62
   256
  6
BYLAYER
  0
ACDBPLACEHOLDER
  5
B11
102
{ACAD_REACTORS
330
B10
102
}
330
B10
100
AcDbPlaceHolder
280
     0
  0
XRECORD
  5
1388
102
{ACAD_REACTORS
330
137E
102
}
330
137E
100
AcDbXrecord
 90
        0
  0
XRECORD
  5
1389
102
{ACAD_REACTORS
330
137E
102
}
330
137E
100
AcDbXrecord
  1
{F9BB573E-A203-4408-8939-56EECC49D4C2}
  0
XRECORD
  5
1381
102
{ACAD_REACTORS
330
137E
102
}
330
137E
100
AcDbXrecord
  1

  0
XRECORD
  5
1387
102
{ACAD_REACTORS
330
137E
102
}
330
137E
100
AcDbXrecord
 90
        0
  0
XRECORD
  5
1383
102
{ACAD_REACTORS
330
137E
102
}
330
137E
100
AcDbXrecord
340
1A
  0
XRECORD
  5
1386
102
{ACAD_REACTORS
330
137E
102
}
330
137E
100
AcDbXrecord
 90
    10781
  0
XRECORD
  5
1384
102
{ACAD_REACTORS
330
137E
102
}
330
137E
100
AcDbXrecord
340
19
  0
XRECORD
  5
1385
102
{ACAD_REACTORS
330
137E
102
}
330
137E
100
AcDbXrecord
340
B10
  0
XRECORD
  5
138B
102
{ACAD_REACTORS
330
137E
102
}
330
137E
100
AcDbXrecord
 40
0.0
  0
XRECORD
  5
138E
102
{ACAD_REACTORS
330
137E
102
}
330
137E
100
AcDbXrecord
340
0
  0
XRECORD
  5
1394
102
{ACAD_REACTORS
330
137E
102
}
330
137E
100
AcDbXrecord
 10
0.0
 20
0.0
 30
0.0
  0
XRECORD
  5
1390
102
{ACAD_REACTORS
330
137E
102
}
330
137E
100
AcDbXrecord
 10
0.0
 20
0.0
 30
0.0
  0
XRECORD
  5
1393
102
{ACAD_REACTORS
330
137E
102
}
330
137E
100
AcDbXrecord
 10
0.0
 20
0.0
 30
0.0
  0
XRECORD
  5
1391
102
{ACAD_REACTORS
330
137E
102
}
330
137E
100
AcDbXrecord
 10
0.0
 20
0.0
 30
0.0
  0
XRECORD
  5
1392
102
{ACAD_REACTORS
330
137E
102
}
330
137E
100
AcDbXrecord
 10
0.0
 20
0.0
 30
0.0
  0
XRECORD
  5
138F
102
{ACAD_REACTORS
330
137E
102
}
330
137E
100
AcDbXrecord
 10
0.0
 20
0.0
 30
0.0
  0
XRECORD
  5
138C
102
{ACAD_REACTORS
330
137E
102
}
330
137E
100
AcDbXrecord
340
0
  0
XRECORD
  5
138D
102
{ACAD_REACTORS
330
137E
102
}
330
137E
100
AcDbXrecord
 70
     0
  0
XRECORD
  5
1382
102
{ACAD_REACTORS
330
137E
102
}
330
137E
100
AcDbXrecord
  1
monochrome.stb
  0
XRECORD
  5
137F
102
{ACAD_REACTORS
330
137E
102
}
330
137E
100
AcDbXrecord
 90
        1
  0
XRECORD
  5
1380
102
{ACAD_REACTORS
330
137E
102
}
330
137E
100
AcDbXrecord
 90
       70
  0
XRECORD
  5
1397
102
{ACAD_REACTORS
330
137E
102
}
330
137E
100
AcDbXrecord
340
0
  0
XRECORD
  5
139D
102
{ACAD_REACTORS
330
137E
102
}
330
137E
100
AcDbXrecord
 10
0.0
 20
0.0
 30
0.0
  0
XRECORD
  5
1399
102
{ACAD_REACTORS
330
137E
102
}
330
137E
100
AcDbXrecord
 10
0.0
 20
0.0
 30
0.0
  0
XRECORD
  5
139C
102
{ACAD_REACTORS
330
137E
102
}
330
137E
100
AcDbXrecord
 10
0.0
 20
0.0
 30
0.0
  0
XRECORD
  5
139A
102
{ACAD_REACTORS
330
137E
102
}
330
137E
100
AcDbXrecord
 10
0.0
 20
0.0
 30
0.0
  0
XRECORD
  5
139B
102
{ACAD_REACTORS
330
137E
102
}
330
137E
100
AcDbXrecord
 10
0.0
 20
0.0
 30
0.0
  0
XRECORD
  5
1398
102
{ACAD_REACTORS
330
137E
102
}
330
137E
100
AcDbXrecord
 10
0.0
 20
0.0
 30
0.0
  0
XRECORD
  5
1395
102
{ACAD_REACTORS
330
137E
102
}
330
137E
100
AcDbXrecord
340
0
  0
XRECORD
  5
1396
102
{ACAD_REACTORS
330
137E
102
}
330
137E
100
AcDbXrecord
 70
     0
  0
XRECORD
  5
138A
102
{ACAD_REACTORS
330
137E
102
}
330
137E
100
AcDbXrecord
  1
{0AF7F3E2-0765-4F97-BDA3-F8573244F22C}
  0
DICTIONARYVAR
  5
B1A
102
{ACAD_REACTORS
330
B19
102
}
330
B19
100
DictionaryVariables
280
     0
  1
1
  0
ACAD_PROXY_OBJECT
  5
5B7
102
{ACAD_REACTORS
330
5B6
102
}
330
5B6
100
AcDbProxyObject
 90
      499
 91
      574
 93
      118
310
405010040CA904C415CD5B0757102A
350
5B8
 94
        0
1001
ACAD
1000
AcadProxyRoundTripData
1071
      563
1071
   851991
1070
     0
  0
ACAD_PROXY_OBJECT
  5
509
330
0
100
AcDbProxyObject
 90
      499
 91
      574
 93
      156
310
00010143D050D351505391D5531054925390D492
330
506
 94
        0
1001
ACAD
1000
AcadProxyRoundTripData
1071
      517
1071
   851991
1070
     0
  0
ACAD_PROXY_OBJECT
  5
50A
330
0
100
AcDbProxyObject
 90
      499
 91
      574
 93
      148
310
000101439050D351531253915054925390D490
330
506
 94
        0
1001
ACAD
1000
AcadProxyRoundTripData
1071
      517
1071
   851991
1070
     0
  0
ACAD_PROXY_OBJECT
  5
50B
330
0
100
AcDbProxyObject
 90
      499
 91
      574
 93
      156
310
000101439050D35154D6535093D314D256915082
330
506
 94
        0
1001
ACAD
1000
AcadProxyRoundTripData
1071
      518
1071
   851991
1070
     0
  0
ACAD_PROXY_OBJECT
  5
50D
330
0
100
AcDbProxyObject
 90
      499
 91
      574
 93
      120
310
000101422565255A6557080C402B0084
330
506
330
0
330
0
 94
        0
1001
ACAD
1000
AcadProxyRoundTripData
1071
      520
1071
   851991
1070
     0
  0
ACAD_PROXY_OBJECT
  5
514
330
0
100
AcDbProxyObject
 90
      499
 91
      574
 93
      358
310
0001014124FEA55D00507362E332E302E31014124FEA55D00507362E332E302E3140501000041505391D311658
330
506
330
515
330
519
 94
        0
1001
ACAD
1000
AcadProxyRoundTripData
1071
      526
1071
   851991
1070
     0
  0
ACAD_PROXY_OBJECT
  5
515
330
0
100
AcDbProxyObject
 90
      499
 91
      574
 93
       48
310
00019014220011
330
506
330
516
 94
        0
1001
ACAD
1000
AcadProxyRoundTripData
1071
      527
1071
   851991
1070
     0
  0
ACAD_PROXY_OBJECT
  5
516
330
0
100
AcDbProxyObject
 90
      499
 91
      574
 93
       48
310
0001AA00000011
330
506
330
0
330
517
330
0
 94
        0
1001
ACAD
1000
AcadProxyRoundTripData
1071
      528
1071
   851991
1070
     0
  0
ACAD_PROXY_OBJECT
  5
517
330
0
100
AcDbProxyObject
 90
      499
 91
      574
 93
       28
310
0001AAA0
330
506
 94
        0
1001
ACAD
1000
AcadProxyRoundTripData
1071
      529
1071
   851991
1070
     0
  0
ACAD_PROXY_OBJECT
  5
51A
330
0
100
AcDbProxyObject
 90
      499
 91
      574
 93
      108
310
000101421053521310D05310D013
330
506
 94
        0
1001
ACAD
1000
AcadProxyRoundTripData
1071
      518
1071
   851991
1070
     0
  0
ACAD_PROXY_OBJECT
  5
51B
330
0
100
AcDbProxyObject
 90
      499
 91
      574
 93
      124
310
00010142905354915554D15112535013
330
506
 94
        0
1001
ACAD
1000
AcadProxyRoundTripData
1071
      518
1071
   851991
1070
     0
  0
ACAD_PROXY_OBJECT
  5
51C
330
0
100
AcDbProxyObject
 90
      499
 91
      574
 93
      132
310
00010143105354D150D51253D391125362
330
506
 94
        0
1001
ACAD
1000
AcadProxyRoundTripData
1071
      518
1071
   851991
1070
     0
  0
ACAD_PROXY_OBJECT
  5
51D
330
0
100
AcDbProxyObject
 90
      499
 91
      574
 93
      124
310
00010142905355941093D49111549014
330
506
 94
        0
1001
ACAD
1000
AcadProxyRoundTripData
1071
      518
1071
   851991
1070
     0
  0
ACAD_PROXY_OBJECT
  5
51E
330
0
100
AcDbProxyObject
 90
      499
 91
      574
 93
      116
310
0001014290535115D1D0D3D313D4A1
330
506
 94
        0
1001
ACAD
1000
AcadProxyRoundTripData
1071
      518
1071
   851991
1070
     0
  0
ACAD_PROXY_OBJECT
  5
51F
330
0
100
AcDbProxyObject
 90
      499
 91
      574
 93
      148
310
00010143505355925155D49151949154D21015
330
506
 94
        0
1001
ACAD
1000
AcadProxyRoundTripData
1071
      518
1071
   851991
1070
     0
  0
ACAD_PROXY_OBJECT
  5
520
330
0
100
AcDbProxyObject
 90
      499
 91
      574
 93
      172
310
00010144105350539393D51154149154D15495915010
330
506
 94
        0
1001
ACAD
1000
AcadProxyRoundTripData
1071
      518
1071
   851991
1070
     0
  0
ACAD_PROXY_OBJECT
  5
523
330
0
100
AcDbProxyObject
 90
      499
 91
      574
 93
      172
310
00010144105350555513D11253505494905391D15010
330
506
 94
        0
1001
ACAD
1000
AcadProxyRoundTripData
1071
      518
1071
   851991
1070
     0
  0
ACAD_PROXY_OBJECT
  5
524
330
0
100
AcDbProxyObject
 90
      499
 91
      574
 93
      124
310
00010142D05351561514915191125360
330
506
 94
        0
1001
ACAD
1000
AcadProxyRoundTripData
1071
      518
1071
   851991
1070
     0
  0
ACAD_PROXY_OBJECT
  5
525
330
0
100
AcDbProxyObject
 90
      499
 91
      574
 93
      132
310
00010142D05355105410539393D5115013
330
506
 94
        0
1001
ACAD
1000
AcadProxyRoundTripData
1071
      518
1071
   851991
1070
     0
  0
ACAD_PROXY_OBJECT
  5
526
330
0
100
AcDbProxyObject
 90
      499
 91
      574
 93
      108
310
00010142105350555513D0D31013
330
506
 94
        0
1001
ACAD
1000
AcadProxyRoundTripData
1071
      518
1071
   851991
1070
     0
  0
ACAD_PROXY_OBJECT
  5
527
330
0
100
AcDbProxyObject
 90
      499
 91
      574
 93
      108
310
00010142105350D3119150551053
330
506
 94
        0
1001
ACAD
1000
AcadProxyRoundTripData
1071
      518
1071
   851991
1070
     0
  0
ACAD_PROXY_OBJECT
  5
528
330
0
100
AcDbProxyObject
 90
      499
 91
      574
 93
      108
310
00010142105350D315925155D3F3
330
506
 94
        0
1001
ACAD
1000
AcadProxyRoundTripData
1071
      518
1071
   851991
1070
     0
  0
ACAD_PROXY_OBJECT
  5
529
330
0
100
AcDbProxyObject
 90
      499
 91
      574
 93
      148
310
0001014350535212511156915493D112535010
330
506
 94
        0
1001
ACAD
1000
AcadProxyRoundTripData
1071
      518
1071
   851991
1070
     0
  0
ACAD_PROXY_OBJECT
  5
52A
330
0
100
AcDbProxyObject
 90
      499
 91
      574
 93
      124
310
00010142905352105510D21254D3D013
330
506
 94
        0
1001
ACAD
1000
AcadProxyRoundTripData
1071
      518
1071
   851991
1070
     0
  0
ACAD_PROXY_OBJECT
  5
52B
330
0
100
AcDbProxyObject
 90
      499
 91
      574
 93
      148
310
00010143905354D25391D31152105513105660
330
506
 94
        0
1001
ACAD
1000
AcadProxyRoundTripData
1071
      518
1071
   851991
1070
     0
  0
ACAD_PROXY_OBJECT
  5
52C
330
0
100
AcDbProxyObject
 90
      499
 91
      574
 93
      124
310
00010142D0535115D1D193111254D424
330
506
 94
        0
1001
ACAD
1000
AcadProxyRoundTripData
1071
      518
1071
   851991
1070
     0
  0
ACAD_PROXY_OBJECT
  5
52D
330
0
100
AcDbProxyObject
 90
      499
 91
      574
 93
      100
310
00010142105350555513D213A5
330
506
 94
        0
1001
ACAD
1000
AcadProxyRoundTripData
1071
      518
1071
   851991
1070
     0
  0
ACAD_PROXY_OBJECT
  5
52E
330
0
100
AcDbProxyObject
 90
      499
 91
      574
 93
      116
310
000101425053521390D3D553951013
330
506
 94
        0
1001
ACAD
1000
AcadProxyRoundTripData
1071
      518
1071
   851991
1070
     0
  0
ACAD_PROXY_OBJECT
  5
52F
330
0
100
AcDbProxyObject
 90
      499
 91
      574
 93
      108
310
0001014210535213941493D29010
330
506
 94
        0
1001
ACAD
1000
AcadProxyRoundTripData
1071
      518
1071
   851991
1070
     0
  0
ACAD_PROXY_OBJECT
  5
530
330
0
100
AcDbProxyObject
 90
      499
 91
      574
 93
      108
310
0001014210535213951654115070
330
506
 94
        0
1001
ACAD
1000
AcadProxyRoundTripData
1071
      518
1071
   851991
1070
     0
  0
ACAD_PROXY_OBJECT
  5
531
330
0
100
AcDbProxyObject
 90
      499
 91
      574
 93
      108
310
000101421053521395925155D0F0
330
506
 94
        0
1001
ACAD
1000
AcadProxyRoundTripData
1071
      518
1071
   851991
1070
     0
  0
ACAD_PROXY_OBJECT
  5
532
330
0
100
AcDbProxyObject
 90
      499
 91
      574
 93
      140
310
00010143505354D150D51253D390D3D41665
330
506
 94
        0
1001
ACAD
1000
AcadProxyRoundTripData
1071
      518
1071
   851991
1070
     0
  0
ACAD_PROXY_OBJECT
  5
533
330
0
100
AcDbProxyObject
 90
      499
 91
      574
 93
      108
310
00010142105350D3141493D29030
330
506
 94
        0
1001
ACAD
1000
AcadProxyRoundTripData
1071
      518
1071
   851991
1070
     0
  0
ACAD_PROXY_OBJECT
  5
534
330
0
100
AcDbProxyObject
 90
      499
 91
      574
 93
      212
310
00010143905350555513D2105510D21493D500000000000002E400
330
506
 94
        0
1001
ACAD
1000
AcadProxyRoundTripData
1071
      517
1071
   851991
1070
     0
  0
ACAD_PROXY_OBJECT
  5
535
330
0
100
AcDbProxyObject
 90
      499
 91
      574
 93
      156
310
00010143905350555513D2105510D21111551010
330
506
 94
        0
1001
ACAD
1000
AcadProxyRoundTripData
1071
      518
1071
   851991
1070
     0
  0
ACAD_PROXY_OBJECT
  5
542
330
0
100
AcDbProxyObject
 90
      499
 91
      574
 93
      116
310
000101425053541051D15311539191
330
506
 94
        0
1001
ACAD
1000
AcadProxyRoundTripData
1071
      518
1071
   851991
1070
     0
  0
ACAD_PROXY_OBJECT
  5
543
330
0
100
AcDbProxyObject
 90
      499
 91
      574
 93
      108
310
000101421053555312539154D053
330
506
 94
        0
1001
ACAD
1000
AcadProxyRoundTripData
1071
      518
1071
   851991
1070
     0
  0
ACAD_PROXY_OBJECT
  5
544
330
0
100
AcDbProxyObject
 90
      499
 91
      574
 93
      108
310
000101421053559312539154D033
330
506
 94
        0
1001
ACAD
1000
AcadProxyRoundTripData
1071
      518
1071
   851991
1070
     0
  0
ACAD_PROXY_OBJECT
  5
545
330
0
100
AcDbProxyObject
 90
      499
 91
      574
 93
      140
310
00010143105354D1911254D41353D111501A
330
506
 94
        0
1001
ACAD
1000
AcadProxyRoundTripData
1071
      518
1071
   851991
1070
     0
  0
ACAD_PROXY_OBJECT
  5
546
330
0
100
AcDbProxyObject
 90
      499
 91
      574
 93
      172
310
00010142505354119255105391C1C052DC9A6F104403
330
506
 94
        0
1001
ACAD
1000
AcadProxyRoundTripData
1071
      517
1071
   851991
1070
     0
  0
ACAD_PROXY_OBJECT
  5
547
330
0
100
AcDbProxyObject
 90
      499
 91
      574
 93
      164
310
000101421053559150D05551C000000000000E03F8
330
506
 94
        0
1001
ACAD
1000
AcadProxyRoundTripData
1071
      517
1071
   851991
1070
     0
  0
ACAD_PROXY_OBJECT
  5
548
330
0
100
AcDbProxyObject
 90
      499
 91
      574
 93
      180
310
00010142905350931153911513D307B14AE47E17A843F3
330
506
 94
        0
1001
ACAD
1000
AcadProxyRoundTripData
1071
      517
1071
   851991
1070
     0
  0
ACAD_PROXY_OBJECT
  5
549
330
0
100
AcDbProxyObject
 90
      499
 91
      574
 93
      172
310
0001014250535293D25391D05407B14AE47E17A843F8
330
506
 94
        0
1001
ACAD
1000
AcadProxyRoundTripData
1071
      517
1071
   851991
1070
     0
  0
ACAD_PROXY_OBJECT
  5
54A
330
0
100
AcDbProxyObject
 90
      499
 91
      574
 93
      172
310
000101425053541192551311538000000FC83D797418
330
506
 94
        0
1001
ACAD
1000
AcadProxyRoundTripData
1071
      517
1071
   851991
1070
     0
  0
ACAD_PROXY_OBJECT
  5
54B
330
0
100
AcDbProxyObject
 90
      499
 91
      574
 93
      156
310
00010141D053559150D4D18000000000000E03F8
330
506
 94
        0
1001
ACAD
1000
AcadProxyRoundTripData
1071
      517
1071
   851991
1070
     0
  0
ACAD_PROXY_OBJECT
  5
54C
330
0
100
AcDbProxyObject
 90
      499
 91
      574
 93
      156
310
00010141D05354D19513D309A9999999999993F8
330
506
 94
        0
1001
ACAD
1000
AcadProxyRoundTripData
1071
      517
1071
   851991
1070
     0
  0
ACAD_PROXY_OBJECT
  5
54D
330
0
100
AcDbProxyObject
 90
      499
 91
      574
 93
      172
310
000101425053541192551513D307B14AE47E17A843F8
330
506
 94
        0
1001
ACAD
1000
AcadProxyRoundTripData
1071
      517
1071
   851991
1070
     0
  0
ACAD_PROXY_OBJECT
  5
54E
330
0
100
AcDbProxyObject
 90
      499
 91
      574
 93
      188
310
00010142D05354D151D192551513D307B14AE47E17A843F0
330
506
 94
        0
1001
ACAD
1000
AcadProxyRoundTripData
1071
      517
1071
   851991
1070
     0
  0
ACAD_PROXY_OBJECT
  5
54F
330
0
100
AcDbProxyObject
 90
      499
 91
      574
 93
      148
310
000101419053541311538000000FC83D79741F
330
506
 94
        0
1001
ACAD
1000
AcadProxyRoundTripData
1071
      517
1071
   851991
1070
     0
  0
ACAD_PROXY_OBJECT
  5
550
330
0
100
AcDbProxyObject
 90
      499
 91
      574
 93
      172
310
00010142505354105391D513D301C052DC9A6F104402
330
506
 94
        0
1001
ACAD
1000
AcadProxyRoundTripData
1071
      517
1071
   851991
1070
     0
  0
ACAD_PROXY_OBJECT
  5
551
330
0
100
AcDbProxyObject
 90
      499
 91
      574
 93
      132
310
0001014114D25691400000000000024404
330
506
 94
        0
1001
ACAD
1000
AcadProxyRoundTripData
1071
      517
1071
   851991
1070
     0
  0
ACAD_PROXY_OBJECT
  5
552
330
0
100
AcDbProxyObject
 90
      499
 91
      574
 93
      156
310
00010142905351D4941491519256005034153470
330
506
 94
        0
1001
ACAD
1000
AcadProxyRoundTripData
1071
      539
1071
   851991
1070
     0
  0
ACAD_PROXY_OBJECT
  5
553
330
0
100
AcDbProxyObject
 90
      499
 91
      574
 93
      314
310
00014080509646973745363616C650000000000003C2FC000000000000F0BF0000003F20F5E5D050
330
506
 94
        0
1001
ACAD
1000
AcadProxyRoundTripData
1071
      540
1071
   851991
1070
     0
  0
ACAD_PROXY_OBJECT
  5
554
330
0
100
AcDbProxyObject
 90
      499
 91
      574
 93
      322
310
0001408050A65646175526F74617465060B51153EC87E4FC182D4454FB2119C0060B51153EC8465004
330
506
 94
        0
1001
ACAD
1000
AcadProxyRoundTripData
1071
      540
1071
   851991
1070
     0
  0
ACAD_PROXY_OBJECT
  5
555
330
0
100
AcDbProxyObject
 90
      499
 91
      574
 93
      314
310
00014080509656461755477697374060B51153EC846500000000FC83D797C10000003F20F5E5D050
330
506
 94
        0
1001
ACAD
1000
AcadProxyRoundTripData
1071
      540
1071
   851991
1070
     0
  0
ACAD_PROXY_OBJECT
  5
556
330
0
100
AcDbProxyObject
 90
      499
 91
      574
 93
      294
310
000140C050A656467654F75747075740144F3B7F635ECB74A140A4817D41BDB1E5B1A5B994
330
506
 94
        0
1001
ACAD
1000
AcadProxyRoundTripData
1071
      541
1071
   851991
1070
     0
  0
ACAD_PROXY_OBJECT
  5
557
330
0
100
AcDbProxyObject
 90
      499
 91
      574
 93
      154
310
0001404050B65646974507265766965774064040
330
506
 94
        0
1001
ACAD
1000
AcadProxyRoundTripData
1071
      542
1071
   851991
1070
     0
  0
ACAD_PROXY_OBJECT
  5
558
330
0
100
AcDbProxyObject
 90
      499
 91
      574
 93
      170
310
0001404050A666C6F77556C696E657342A3A00C00003
330
506
 94
        0
1001
ACAD
1000
AcadProxyRoundTripData
1071
      542
1071
   851991
1070
     0
  0
ACAD_PROXY_OBJECT
  5
559
330
0
100
AcDbProxyObject
 90
      499
 91
      574
 93
      170
310
0001404050A666C6F77566C696E657342A3A00C00003
330
506
 94
        0
1001
ACAD
1000
AcadProxyRoundTripData
1071
      542
1071
   851991
1070
     0
  0
ACAD_PROXY_OBJECT
  5
55A
330
0
100
AcDbProxyObject
 90
      499
 91
      574
 93
      322
310
0001408050A666C7366456E645261640000000000003C2FC000000000000F0BF0000003F20F5E5D044
330
506
 94
        0
1001
ACAD
1000
AcadProxyRoundTripData
1071
      540
1071
   851991
1070
     0
  0
ACAD_PROXY_OBJECT
  5
55B
330
0
100
AcDbProxyObject
 90
      499
 91
      574
 93
      246
310
000140C05086A6E33644D6F64650143E3BA24EB8A134A4817D3585B9D585B1
330
506
 94
        0
1001
ACAD
1000
AcadProxyRoundTripData
1071
      541
1071
   851991
1070
     0
  0
ACAD_PROXY_OBJECT
  5
55C
330
0
100
AcDbProxyObject
 90
      499
 91
      574
 93
      294
310
000140C050A6A6E33644F75747075740144F3B7F635ECB74A140A4817D41BDB1E5B1A5B995
330
506
 94
        0
1001
ACAD
1000
AcadProxyRoundTripData
1071
      541
1071
   851991
1070
     0
  0
ACAD_PROXY_OBJECT
  5
55D
330
0
100
AcDbProxyObject
 90
      499
 91
      574
 93
      306
310
000140805086C656E675065726300000000002016D002D431CEBE2361A3F0000003F20F5E5D046
330
506
 94
        0
1001
ACAD
1000
AcadProxyRoundTripData
1071
      540
1071
   851991
1070
     0
  0
ACAD_PROXY_OBJECT
  5
55E
330
0
100
AcDbProxyObject
 90
      499
 91
      574
 93
      266
310
0001408050B6D61737344656E7369747942D431CEBE2361A3F0000003F20F5E5D04B
330
506
 94
        0
1001
ACAD
1000
AcadProxyRoundTripData
1071
      540
1071
   851991
1070
     0
  0
ACAD_PROXY_OBJECT
  5
55F
330
0
100
AcDbProxyObject
 90
      499
 91
      574
 93
      186
310
000140805096D617373546869636BA0000003F20F5E5D07D
330
506
 94
        0
1001
ACAD
1000
AcadProxyRoundTripData
1071
      540
1071
   851991
1070
     0
  0
ACAD_PROXY_OBJECT
  5
560
330
0
100
AcDbProxyObject
 90
      499
 91
      574
 93
      230
310
000140C05086D6173735479706501436F2AB64A14CA4817D4DA195B1B1
330
506
 94
        0
1001
ACAD
1000
AcadProxyRoundTripData
1071
      541
1071
   851991
1070
     0
  0
ACAD_PROXY_OBJECT
  5
561
330
0
100
AcDbProxyObject
 90
      499
 91
      574
 93
      242
310
000140805086F667366446973744000000FC83D797C10000003F20F5E5D065
330
506
 94
        0
1001
ACAD
1000
AcadProxyRoundTripData
1071
      540
1071
   851991
1070
     0
  0
ACAD_PROXY_OBJECT
  5
562
330
0
100
AcDbProxyObject
 90
      499
 91
      574
 93
      258
310
0001408050A7072696D52616469757342D431CEBE2361A3F0000003F20F5E5D050
330
506
 94
        0
1001
ACAD
1000
AcadProxyRoundTripData
1071
      540
1071
   851991
1070
     0
  0
ACAD_PROXY_OBJECT
  5
563
330
0
100
AcDbProxyObject
 90
      499
 91
      574
 93
      194
310
0001408050A7072696D546F70526164A0000003F20F5E5D07F
330
506
 94
        0
1001
ACAD
1000
AcadProxyRoundTripData
1071
      540
1071
   851991
1070
     0
  0
ACAD_PROXY_OBJECT
  5
564
330
0
100
AcDbProxyObject
 90
      499
 91
      574
 93
      266
310
0001408050B7072696D5475626552616442D431CEBE2361A3F0000003F20F5E5D04B
330
506
 94
        0
1001
ACAD
1000
AcadProxyRoundTripData
1071
      540
1071
   851991
1070
     0
  0
ACAD_PROXY_OBJECT
  5
565
330
0
100
AcDbProxyObject
 90
      499
 91
      574
 93
      258
310
0001408050A7072696D4865696768744000000FC83D797C10000003F20F5E5D046
330
506
 94
        0
1001
ACAD
1000
AcadProxyRoundTripData
1071
      540
1071
   851991
1070
     0
  0
ACAD_PROXY_OBJECT
  5
566
330
0
100
AcDbProxyObject
 90
      499
 91
      574
 93
      250
310
000140805097072696D5374416E678182D4454FB2119C0060B51153EC8465000
330
506
 94
        0
1001
ACAD
1000
AcadProxyRoundTripData
1071
      540
1071
   851991
1070
     0
  0
ACAD_PROXY_OBJECT
  5
567
330
0
100
AcDbProxyObject
 90
      499
 91
      574
 93
      322
310
0001408050A7072696D456E64416E67060B51153EC846500182D4454FB2119C0060B51153EC8465004
330
506
 94
        0
1001
ACAD
1000
AcadProxyRoundTripData
1071
      540
1071
   851991
1070
     0
  0
ACAD_PROXY_OBJECT
  5
568
330
0
100
AcDbProxyObject
 90
      499
 91
      574
 93
      242
310
000140805087265765374416E678182D4454FB2119C0060B51153EC8465000
330
506
 94
        0
1001
ACAD
1000
AcadProxyRoundTripData
1071
      540
1071
   851991
1070
     0
  0
ACAD_PROXY_OBJECT
  5
569
330
0
100
AcDbProxyObject
 90
      499
 91
      574
 93
      314
310
00014080509726576456E64416E67060B51153EC846500182D4454FB2119C0060B51153EC8465021
330
506
 94
        0
1001
ACAD
1000
AcadProxyRoundTripData
1071
      540
1071
   851991
1070
     0
  0
ACAD_PROXY_OBJECT
  5
56A
330
0
100
AcDbProxyObject
 90
      499
 91
      574
 93
      194
310
0001404050C7266736655706174636865734290139C0C0003D
330
506
 94
        0
1001
ACAD
1000
AcadProxyRoundTripData
1071
      542
1071
   851991
1070
     0
  0
ACAD_PROXY_OBJECT
  5
56B
330
0
100
AcDbProxyObject
 90
      499
 91
      574
 93
      194
310
0001404050C7266736656706174636865734290139C0C0003D
330
506
 94
        0
1001
ACAD
1000
AcadProxyRoundTripData
1071
      542
1071
   851991
1070
     0
  0
ACAD_PROXY_OBJECT
  5
56C
330
0
100
AcDbProxyObject
 90
      499
 91
      574
 93
      246
310
000140C0508747562654D6F64650143E3BA24EB8A134A4817D3585B9D585B0
330
506
 94
        0
1001
ACAD
1000
AcadProxyRoundTripData
1071
      541
1071
   851991
1070
     0
  0
ACAD_PROXY_OBJECT
  5
56D
330
0
100
AcDbProxyObject
 90
      499
 91
      574
 93
      274
310
0001408050C747562654469616D6574657242D431CEBE2361A3F0000003F20F5E5D071
330
506
 94
        0
1001
ACAD
1000
AcadProxyRoundTripData
1071
      540
1071
   851991
1070
     0
  0
ACAD_PROXY_OBJECT
  5
56E
330
0
100
AcDbProxyObject
 90
      499
 91
      574
 93
      130
310
00014040509696E746572506F6C79A4056
330
506
 94
        0
1001
ACAD
1000
AcadProxyRoundTripData
1071
      542
1071
   851991
1070
     0
  0
ACAD_PROXY_OBJECT
  5
56F
330
0
100
AcDbProxyObject
 90
      499
 91
      574
 93
      162
310
0001404050D696E746572417567506F696E74A406C
330
506
 94
        0
1001
ACAD
1000
AcadProxyRoundTripData
1071
      542
1071
   851991
1070
     0
  0
ACAD_PROXY_OBJECT
  5
570
330
0
100
AcDbProxyObject
 90
      499
 91
      574
 93
      238
310
000140C0509696E7465727472696D014365EF257ECA108A4817D09BDD1A1
330
506
 94
        0
1001
ACAD
1000
AcadProxyRoundTripData
1071
      541
1071
   851991
1070
     0
  0
ACAD_PROXY_OBJECT
  5
571
330
0
100
AcDbProxyObject
 90
      499
 91
      574
 93
      230
310
000140C0509696E7465727479706501433136344A150A4817D51C9A5B5
330
506
 94
        0
1001
ACAD
1000
AcadProxyRoundTripData
1071
      541
1071
   851991
1070
     0
  0
ACAD_PROXY_OBJECT
  5
572
330
0
100
AcDbProxyObject
 90
      499
 91
      574
 93
      146
310
0001404050A636F726E65727472696D4064060
330
506
 94
        0
1001
ACAD
1000
AcadProxyRoundTripData
1071
      542
1071
   851991
1070
     0
  0
ACAD_PROXY_OBJECT
  5
573
330
0
100
AcDbProxyObject
 90
      499
 91
      574
 93
      130
310
000140405086F6673666B656570406404A
330
506
 94
        0
1001
ACAD
1000
AcadProxyRoundTripData
1071
      542
1071
   851991
1070
     0
  0
ACAD_PROXY_OBJECT
  5
574
330
0
100
AcDbProxyObject
 90
      499
 91
      574
 93
      146
310
0001404050A70726F6A4F757470757440A40E0
330
506
 94
        0
1001
ACAD
1000
AcadProxyRoundTripData
1071
      542
1071
   851991
1070
     0
  0
ACAD_PROXY_OBJECT
  5
575
330
0
100
AcDbProxyObject
 90
      499
 91
      574
 93
      270
310
000140C050D70726F6A446972656374696F6E014372F7AB6C0A124A4817DD92595DD
330
506
 94
        0
1001
ACAD
1000
AcadProxyRoundTripData
1071
      541
1071
   851991
1070
     0
  0
ACAD_PROXY_OBJECT
  5
576
330
0
100
AcDbProxyObject
 90
      499
 91
      574
 93
      130
310
0001404050870726F6A4B6565704064070
330
506
 94
        0
1001
ACAD
1000
AcadProxyRoundTripData
1071
      542
1071
   851991
1070
     0
  0
ACAD_PROXY_OBJECT
  5
577
330
0
100
AcDbProxyObject
 90
      499
 91
      574
 93
      278
310
000140C050B70726F6A53706163696E670144237164D2CA13CA4817D3DC1D1A5B585B1
330
506
 94
        0
1001
ACAD
1000
AcadProxyRoundTripData
1071
      541
1071
   851991
1070
     0
  0
ACAD_PROXY_OBJECT
  5
578
330
0
100
AcDbProxyObject
 90
      499
 91
      574
 93
      250
310
0001408050970726F6A54617065728182D4454FB21F9BF060B51153EC87E4FFD
330
506
 94
        0
1001
ACAD
1000
AcadProxyRoundTripData
1071
      540
1071
   851991
1070
     0
  0
ACAD_PROXY_OBJECT
  5
579
330
0
100
AcDbProxyObject
 90
      499
 91
      574
 93
      130
310
00014040508647261674B6565704064057
330
506
 94
        0
1001
ACAD
1000
AcadProxyRoundTripData
1071
      542
1071
   851991
1070
     0
  0
ACAD_PROXY_OBJECT
  5
57A
330
0
100
AcDbProxyObject
 90
      499
 91
      574
 93
      302
310
000140C050F647261674F7269656E746174696F6E0143E590243F0A138A4817D39BDC9B585B1
330
506
 94
        0
1001
ACAD
1000
AcadProxyRoundTripData
1071
      541
1071
   851991
1070
     0
  0
ACAD_PROXY_OBJECT
  5
57B
330
0
100
AcDbProxyObject
 90
      499
 91
      574
 93
      286
310
000140C050E647261675472616E736974696F6E0143A3B6A4DE0A10CA4817DCD0D85B195
330
506
 94
        0
1001
ACAD
1000
AcadProxyRoundTripData
1071
      541
1071
   851991
1070
     0
  0
ACAD_PROXY_OBJECT
  5
57C
330
0
100
AcDbProxyObject
 90
      499
 91
      574
 93
      318
310
000140C051061646A757374436F6E74696E7569747901442F746C2F778A14CA4817D4DB5BDBDD1A1
330
506
 94
        0
1001
ACAD
1000
AcadProxyRoundTripData
1071
      541
1071
   851991
1070
     0
  0
ACAD_PROXY_OBJECT
  5
57D
330
0
100
AcDbProxyObject
 90
      499
 91
      574
 93
      138
310
0001404050A61646A7573744B656570A405C
330
506
 94
        0
1001
ACAD
1000
AcadProxyRoundTripData
1071
      542
1071
   851991
1070
     0
  0
ACAD_PROXY_OBJECT
  5
57E
330
0
100
AcDbProxyObject
 90
      499
 91
      574
 93
      250
310
0001408050972756C65576964746842D431CEBE2361A3F0000003F20F5E5D048
330
506
 94
        0
1001
ACAD
1000
AcadProxyRoundTripData
1071
      540
1071
   851991
1070
     0
  0
ACAD_PROXY_OBJECT
  5
57F
330
0
100
AcDbProxyObject
 90
      499
 91
      574
 93
      274
310
0001408050C616E616C797A65447261667421D139D28615ED8FE060B51153EC8425003
330
506
 94
        0
1001
ACAD
1000
AcadProxyRoundTripData
1071
      540
1071
   851991
1070
     0
  0
ACAD_PROXY_OBJECT
  5
580
330
0
100
AcDbProxyObject
 90
      499
 91
      574
 93
      210
310
0001404050F616E616C797A654E756D4C696E65734163FDFC00026
330
506
 94
        0
1001
ACAD
1000
AcadProxyRoundTripData
1071
      542
1071
   851991
1070
     0
  0
ACAD_PROXY_OBJECT
  5
581
330
0
100
AcDbProxyObject
 90
      499
 91
      574
 93
      202
310
00014040512616E616C797A65526F746174654C696E6573A4040
330
506
 94
        0
1001
ACAD
1000
AcadProxyRoundTripData
1071
      542
1071
   851991
1070
     0
  0
ACAD_PROXY_OBJECT
  5
582
330
0
100
AcDbProxyObject
 90
      499
 91
      574
 93
      210
310
00014040513616E616C797A65446973706C61794C696E6573A4066
330
506
 94
        0
1001
ACAD
1000
AcadProxyRoundTripData
1071
      542
1071
   851991
1070
     0
  0
ACAD_PROXY_OBJECT
  5
583
330
0
100
AcDbProxyObject
 90
      499
 91
      574
 93
      258
310
00014040519616E616C797A655472616E736C7563656E7453757266616365A4043
330
506
 94
        0
1001
ACAD
1000
AcadProxyRoundTripData
1071
      542
1071
   851991
1070
     0
  0
ACAD_PROXY_OBJECT
  5
58C
330
0
100
AcDbProxyObject
 90
      499
 91
      574
 93
      698
310
0001000000009AA6A9AA4051E4D6F6E204F63742031332030303A33373A353920323030382028555443290141CD8B8D0B8C0B8C405184D6F6E204F63742031332030393A34313A333120323030380141CD8B8D0B8C0B8C4A
330
506
330
58D
330
58E
330
590
330
0
 94
        0
1001
ACAD
1000
AcadProxyRoundTripData
1071
      548
1071
   851991
1070
     0
  0
ACAD_PROXY_OBJECT
  5
58D
330
0
100
AcDbProxyObject
 90
      499
 91
      574
 93
       70
310
0001AAA80820000000
330
506
330
58D
330
58D
 94
        0
1001
ACAD
1000
AcadProxyRoundTripData
1071
      549
1071
   851991
1070
     0
  0
ACAD_PROXY_OBJECT
  5
58E
330
0
100
AcDbProxyObject
 90
      499
 91
      574
 93
       48
310
00010000000011
330
506
330
0
330
58F
330
0
330
0
 94
        0
1001
ACAD
1000
AcadProxyRoundTripData
1071
      550
1071
   851991
1070
     0
  0
ACAD_PROXY_OBJECT
  5
58F
330
0
100
AcDbProxyObject
 90
      499
 91
      574
 93
       40
310
000100AAAA02
330
506
330
0
 94
        0
1001
ACAD
1000
AcadProxyRoundTripData
1071
      551
1071
   851991
1070
     0
  0
ACAD_PROXY_OBJECT
  5
591
330
0
100
AcDbProxyObject
 90
      499
 91
      574
 93
      124
310
00010142905350D3D39114D414D69051
330
506
 94
        0
1001
ACAD
1000
AcadProxyRoundTripData
1071
      518
1071
   851991
1070
     0
  0
ACAD_PROXY_OBJECT
  5
592
330
0
100
AcDbProxyObject
 90
      499
 91
      574
 93
      124
310
000101429053549553115353D1115011
330
506
 94
        0
1001
ACAD
1000
AcadProxyRoundTripData
1071
      518
1071
   851991
1070
     0
  0
ACAD_PROXY_OBJECT
  5
593
330
0
100
AcDbProxyObject
 90
      499
 91
      574
 93
      108
310
00010142105354D2D353D1115013
330
506
 94
        0
1001
ACAD
1000
AcadProxyRoundTripData
1071
      518
1071
   851991
1070
     0
  0
ACAD_PROXY_OBJECT
  5
594
330
0
100
AcDbProxyObject
 90
      499
 91
      574
 93
      140
310
000101435053511253511254D41353D11160
330
506
 94
        0
1001
ACAD
1000
AcadProxyRoundTripData
1071
      518
1071
   851991
1070
     0
  0
ACAD_PROXY_OBJECT
  5
595
330
0
100
AcDbProxyObject
 90
      499
 91
      574
 93
      180
310
00010142905354D2D05391D513D300000000000001040C
330
506
 94
        0
1001
ACAD
1000
AcadProxyRoundTripData
1071
      517
1071
   851991
1070
     0
  0
ACAD_PROXY_OBJECT
  5
596
330
0
100
AcDbProxyObject
 90
      499
 91
      574
 93
      164
310
00010142505354D2D4D516531140505434F4E542AB
330
506
 94
        0
1001
ACAD
1000
AcadProxyRoundTripData
1071
      539
1071
   851991
1070
     0
  0
ACAD_PROXY_OBJECT
  5
597
330
0
100
AcDbProxyObject
 90
      499
 91
      574
 93
      108
310
00010142105350D3511112535016
330
506
 94
        0
1001
ACAD
1000
AcadProxyRoundTripData
1071
      518
1071
   851991
1070
     0
  0
ACAD_PROXY_OBJECT
  5
598
330
0
100
AcDbProxyObject
 90
      499
 91
      574
 93
      108
310
00010142105350D3D35414D59016
330
506
 94
        0
1001
ACAD
1000
AcadProxyRoundTripData
1071
      518
1071
   851991
1070
     0
  0
ACAD_PROXY_OBJECT
  5
599
330
0
100
AcDbProxyObject
 90
      499
 91
      574
 93
      164
310
0001014290535410549514D4119600504CADFB0C2B
330
506
 94
        0
1001
ACAD
1000
AcadProxyRoundTripData
1071
      539
1071
   851991
1070
     0
  0
ACAD_PROXY_OBJECT
  5
59A
330
0
100
AcDbProxyObject
 90
      499
 91
      574
 93
      220
310
0001014350535513D3D31093D11654119600508C2B0D9CEDEC3DEA83
330
506
 94
        0
1001
ACAD
1000
AcadProxyRoundTripData
1071
      539
1071
   851991
1070
     0
  0
ACAD_PROXY_OBJECT
  5
59B
330
0
100
AcDbProxyObject
 90
      499
 91
      574
 93
      116
310
000101425053511254D410D3D39011
330
506
 94
        0
1001
ACAD
1000
AcadProxyRoundTripData
1071
      518
1071
   851991
1070
     0
  0
ACAD_PROXY_OBJECT
  5
59C
330
0
100
AcDbProxyObject
 90
      499
 91
      574
 93
      108
310
00010142105350D3D39114D41016
330
506
 94
        0
1001
ACAD
1000
AcadProxyRoundTripData
1071
      518
1071
   851991
1070
     0
  0
ACAD_PROXY_OBJECT
  5
59D
330
0
100
AcDbProxyObject
 90
      499
 91
      574
 93
      124
310
0001014290535490511114D414D69190
330
506
 94
        0
1001
ACAD
1000
AcadProxyRoundTripData
1071
      518
1071
   851991
1070
     0
  0
ACAD_PROXY_OBJECT
  5
5A3
330
0
100
AcDbProxyObject
 90
      499
 91
      574
 93
      132
310
00010142D05050555513D4D3D315915013
330
506
 94
        0
1001
ACAD
1000
AcadProxyRoundTripData
1071
      518
1071
   851991
1070
     0
  0
ACAD_PROXY_OBJECT
  5
5A4
330
0
100
AcDbProxyObject
 90
      499
 91
      574
 93
      156
310
00010143905050555513D054D4D1535093115015
330
506
 94
        0
1001
ACAD
1000
AcadProxyRoundTripData
1071
      518
1071
   851991
1070
     0
  0
ACAD_PROXY_OBJECT
  5
5A5
330
0
100
AcDbProxyObject
 90
      499
 91
      574
 93
      148
310
00010143505055925155D49154D513D4915015
330
506
 94
        0
1001
ACAD
1000
AcadProxyRoundTripData
1071
      518
1071
   851991
1070
     0
  0
ACAD_PROXY_OBJECT
  5
5A6
330
0
100
AcDbProxyObject
 90
      499
 91
      574
 93
      124
310
00010142D050525394D15495105094E5
330
506
 94
        0
1001
ACAD
1000
AcadProxyRoundTripData
1071
      518
1071
   851991
1070
     0
  0
ACAD_PROXY_OBJECT
  5
5A7
330
0
100
AcDbProxyObject
 90
      499
 91
      574
 93
      148
310
00010143505054D0D153915554111055115015
330
506
 94
        0
1001
ACAD
1000
AcadProxyRoundTripData
1071
      518
1071
   851991
1070
     0
  0
ACAD_PROXY_OBJECT
  5
5A8
330
0
100
AcDbProxyObject
 90
      499
 91
      574
 93
      172
310
00010143105054D5509054D4D3541196005035355425
330
506
 94
        0
1001
ACAD
1000
AcadProxyRoundTripData
1071
      539
1071
   851991
1070
     0
  0
ACAD_PROXY_OBJECT
  5
5A9
330
0
100
AcDbProxyObject
 90
      499
 91
      574
 93
      172
310
00010142905054D0D15391541196005055343454E455
330
506
 94
        0
1001
ACAD
1000
AcadProxyRoundTripData
1071
      539
1071
   851991
1070
     0
  0
ACAD_PROXY_OBJECT
  5
5AA
330
0
100
AcDbProxyObject
 90
      499
 91
      574
 93
      148
310
00010143505350555513D313D0D2D4D0D39016
330
506
 94
        0
1001
ACAD
1000
AcadProxyRoundTripData
1071
      518
1071
   851991
1070
     0
  0
ACAD_PROXY_OBJECT
  5
5AF
330
0
100
AcDbProxyObject
 90
      499
 91
      574
 93
       32
310
000100002F
330
506
340
5AC
330
5B1
330
5AC
 94
        0
1001
ACAD
1000
AcadProxyRoundTripData
1071
      557
1071
   851991
1070
     0
  0
ACAD_PROXY_OBJECT
  5
5B0
330
0
100
AcDbProxyObject
 90
      499
 91
      574
 93
       18
310
000190
330
506
 94
        0
1001
ACAD
1000
AcadProxyRoundTripData
1071
      558
1071
   851991
1070
     0
  0
ACAD_PROXY_OBJECT
  5
5B1
330
0
100
AcDbProxyObject
 90
      499
 91
      574
 93
      111
310
0001014150D5930C0D5050055400
330
506
330
5AF
330
5B0
 94
        0
1001
ACAD
1000
AcadProxyRoundTripData
1071
      559
1071
   851991
1070
     0
  0
ACAD_PROXY_OBJECT
  5
5B2
330
0
100
AcDbProxyObject
 90
      499
 91
      574
 93
       40
310
000100AAAA02
330
506
330
5B1
 94
        0
1001
ACAD
1000
AcadProxyRoundTripData
1071
      560
1071
   851991
1070
     0
  0
ACAD_PROXY_OBJECT
  5
5B3
330
0
100
AcDbProxyObject
 90
      499
 91
      574
 93
      108
310
0001901422000000000000AAAAA0
330
506
330
5B4
330
5B4
330
5B4
330
5B4
330
5B4
330
0
 94
        0
1001
ACAD
1000
AcadProxyRoundTripData
1071
      561
1071
   851991
1070
     0
  0
ACAD_PROXY_OBJECT
  5
5B4
330
0
100
AcDbProxyObject
 90
      499
 91
      574
 93
       51
310
00010000AAAA84
330
506
330
5B3
330
5B1
 94
        0
1001
ACAD
1000
AcadProxyRoundTripData
1071
      562
1071
   851991
1070
     0
  0
ACAD_PROXY_OBJECT
  5
5C5
330
0
100
AcDbProxyObject
 90
      499
 91
      574
 93
      140
310
00010142105350D55494D5110050349534F8
330
506
 94
        0
1001
ACAD
1000
AcadProxyRoundTripData
1071
      539
1071
   851991
1070
     0
  0
DICTIONARY
  5
4FE
102
{ACAD_REACTORS
330
4FD
102
}
330
4FD
100
AcDbDictionary
  3
DWGSETTINGS
350
4FF
1001
ACAD
1000
TREAT_AS_HARD
1070
     0
1000
TREAT_AS_HARD
1070
     0
1000
TREAT_AS_HARD
1070
     0
  0
ACAD_PROXY_OBJECT
  5
5C3
102
{ACAD_REACTORS
330
4FD
102
}
330
4FD
100
AcDbProxyObject
 90
      499
 91
      574
 93
    12938
310
41102491013041105357CC1074CA404C504414D5F31439329013241105357CC9054CA404CD04414D5F33419199013441105357CD103466404D504414D5F3540D199013641105357CD90248E404DD04414D5F37411199013841105357CE101466404E504414D5F397F641102324141505357CC4C1074CA408D10505414D5F31
310
3140D19902495041505357CC4C9074C902408C13905414D5F304E41D32902314E41505357CC5390E4CA408C93905414D5F324E41532902334E41505357CCD3906466408D13905414D5F344E40D19902354E41505357CD53903466408D93905414D5F364E40923902374E41505357CDD3904466408E13905414D5F384E40519
310
902394E41505357CE539FD90440CC9053906414D5F31304E41D3290334414E41905357CC4C5390346640D25413906414D5F31324E41D32409044B4C494E41505357D0D3101465094112539193D08414D5F50415245464111942D055241484D3541905357D093D49074C9094115925155D08414D5F56494557534051942D064
310
24548494E4441905357D253959FD90D415514905253105414D5F545240D194250348494441905357D212511074650940D59254D06414D5F56495341D324250650415244494D42505357D410549112535034650941949151911253509414D5F52454644494D4111942553411092139590139CFFFFFFFF415092139594D06424
310
548494E44CFFFFFFFF411093D48C9055241484D3540519411093D48CD055241484D3540923411093D48D5055241484D35CFFFFFFFF4110D0530C90134CFFFFFFFF4110D0530CD0134409234110D0530D5013441D324110D0530DD0134479464110D1539390137CFFFFFFFF4110D15395D0137CFFFFFFFF4110D312539044B4
310
C494ECFFFFFFFF4110D3D38C50130CFFFFFFFF4110D3D38C90131CFFFFFFFF4110D3D38CD0132CFFFFFFFF4110D3D38D10132CFFFFFFFF411111551050134CFFFFFFFF4111125051D0135CFFFFFFFF411112531250135CFFFFFFFF411112535410650415244494DCFFFFFFFF411112535490652454644494DCFFFFFFFF4111
310
91535390138CFFFFFFFF4151915354139013840CFFFFFFFF4151915354D41023441CFFFFFFFF4151915354D5102344140D1941519153559390132CFFFFFFFF4151915355951013240D194112105510D0138CFFFFFFFF411212511390133CFFFFFFFF4112125115D0133CFFFFFFFF411213125390134CFFFFFFFF411213D0D3
310
90137CFFFFFFFF411213D0D5D0137CFFFFFFFF4112539193D04494E464FCFFFFFFFF411311505110135CFFFFFFFF419397D0921395902394ECFFFFFFFF419397D0D3D38C502304ECFFFFFFFF419397D0D3D38C902314ECFFFFFFFF419397D0D3D38CD02324ECFFFFFFFF419397D0D3D38D102324ECFFFFFFFF419397D0D153
310
93902374ECFFFFFFFF419397D0D15395D02374ECFFFFFFFF419397D1125312502354ECFFFFFFFF419397D2105510D02384ECFFFFFFFF419397D2125113902334ECFFFFFFFF419397D2125115D02334ECFFFFFFFF419397D3115051102354ECFFFFFFFF419397D391D25410349504ECFFFFFFFF419397D412105390334414EC
310
FFFFFFFF419397D510D3D3902304ECFFFFFFFF419397D5121312502344ECFFFFFFFF419397D5131153902304ECFFFFFFFF419397D594131250332414ECFFFFFFFF411391D2541024950CFFFFFFFF411410530C9055241484D3540519411410530CD055241484D3540923411410530D5055241484D35CFFFFFFFF4114121053
310
9023441CFFFFFFFF411413D4D390135CFFFFFFFF411490D1D390137CFFFFFFFF411490D1D5D0137CFFFFFFFF4114D09492D0134CFFFFFFFF4114D150D510134CFFFFFFFF4114D6508CD013540923411354D6535013540923411510D3D390130CFFFFFFFF411512131250134CFFFFFFFF411512550C9055241484D354051941
310
1512550CD055241484D3540923411512550D5055241484D35CFFFFFFFF411513115390130CFFFFFFFF415514905253105545241494CCFFFFFFFF411514931250134CFFFFFFFF411516150C5013640D19411516150C9013640D19411516150CD0136CFFFFFFFF411516150D5013641D32411516150DD0136479464115925155
310
D0456494557CFFFFFFFF4115915112103484944CFFFFFFFF4115915115903564953CFFFFFFFF41159413125023241CFFFFFFFF411692569050134CFFFFFFFFAA9FD404FE4290E4C9074C906465054C904465034650248D014651E519FD86
340
16
340
16
340
16
340
5C6
340
16
340
16
340
16
340
5C7
340
16
340
16
340
5C7
340
5C8
340
16
340
16
340
16
340
16
340
5C6
340
16
340
16
340
16
340
5C7
340
16
340
16
340
5C7
340
5C8
340
16
340
5C9
340
16
340
16
340
16
340
16
340
16
340
5C6
340
16
340
16
340
16
340
15
340
15
340
15
340
15
340
15
340
15
340
15
340
15
340
15
340
5CA
340
15
340
15
340
15
340
15
340
15
340
15
340
15
340
15
340
15
340
15
340
15
340
15
340
15
340
16
340
15
340
15
340
15
340
15
340
5CB
340
15
340
15
340
5CA
340
15
340
15
340
15
340
15
340
15
340
15
340
15
340
15
340
5CA
340
15
340
15
340
15
340
5CB
340
15
340
15
340
15
340
15
340
15
340
15
340
15
340
15
340
15
340
15
340
15
340
15
340
15
340
15
340
5CA
340
15
340
15
340
15
340
15
340
15
340
15
340
15
340
15
340
15
340
15
340
15
340
15
340
15
340
15
340
15
340
15
340
15
340
15
340
15
340
15
340
15
340
15
340
5CE
 94
        0
1001
ACAD
1000
AcadProxyRoundTripData
1071
      570
1071
   851991
1070
     0
  0
ACAD_PROXY_OBJECT
  5
5D5
102
{ACAD_REACTORS
330
5D0
102
}
330
5D0
100
AcDbProxyObject
 90
      499
 91
      574
 93
      253
310
43D1444494D454E53494F4E2C414D44545F2A5F44494D404A9012A404A9012A8
 94
        0
1001
ACAD
1000
AcadProxyRoundTripData
1071
      571
1071
   851991
1070
     0
  0
ACAD_PROXY_OBJECT
  5
5D4
102
{ACAD_REACTORS
330
5D0
102
}
330
5D0
100
AcDbProxyObject
 90
      499
 91
      574
 93
      181
310
43D012A42D05357D191504B505357CA9012A404A9012AC
 94
        0
1001
ACAD
1000
AcadProxyRoundTripData
1071
      571
1071
   851991
1070
     0
  0
ACAD_PROXY_OBJECT
  5
5D1
102
{ACAD_REACTORS
330
5D0
102
}
330
5D0
100
AcDbProxyObject
 90
      499
 91
      574
 93
      133
310
43D054841544348404A9012A404A9012A8
 94
        0
1001
ACAD
1000
AcadProxyRoundTripData
1071
      571
1071
   851991
1070
     0
  0
ACAD_PROXY_OBJECT
  5
5D2
102
{ACAD_REACTORS
330
5D0
102
}
330
5D0
100
AcDbProxyObject
 90
      499
 91
      574
 93
      549
310
43D044C494E4549CE0B0E138B0A8B4E0B0A8B4E138B105357CE0B105357CE138B0A8B505357CE0B0A8B505357CE139012A404A910494E534552542C535444504152543244C
 94
        0
1001
ACAD
1000
AcadProxyRoundTripData
1071
      571
1071
   851991
1070
     0
  0
ACAD_PROXY_OBJECT
  5
5D6
102
{ACAD_REACTORS
330
5D0
102
}
330
5D0
100
AcDbProxyObject
 90
      499
 91
      574
 93
      181
310
43D0341524341105357CD5012A404C906494E534552540
 94
        0
1001
ACAD
1000
AcadProxyRoundTripData
1071
      571
1071
   851991
1070
     0
  0
ACAD_PROXY_OBJECT
  5
5D3
102
{ACAD_REACTORS
330
5D0
102
}
330
5D0
100
AcDbProxyObject
 90
      499
 91
      574
 93
     1053
310
43D7841434D46434652414D452C41434D444154554D5441524745542C41434D444154554D49442C41434D57454C4453594D2C41434D5355524653594D2C41434D4645415449442C41434D504152545245462C41434D42414C4C4F4F4E2C414D44544544474553594D2C414D47534352455743414C435441424C45404A9012A
310
404A9012A8
 94
        0
1001
ACAD
1000
AcadProxyRoundTripData
1071
      571
1071
   851991
1070
     0
  0
ACAD_PROXY_OBJECT
  5
5B8
102
{ACAD_REACTORS
330
5B7
102
}
330
5B7
100
AcDbProxyObject
 90
      499
 91
      574
 93
      187
310
057356C1D5C406406AA8FFFFFFFF0AE50543564C30354051
330
1F
330
0
330
5B1
 94
        0
1001
ACAD
1000
AcadProxyRoundTripData
1071
      564
1071
   851991
1070
     0
  0
ACAD_PROXY_OBJECT
  5
4FF
102
{ACAD_REACTORS
330
4FE
102
}
330
4FE
100
AcDbProxyObject
 90
      499
 91
      574
 93
     2270
310
4050B44574753455454494E4753A1286829C8E82A4A482B282A106660F8686AF86C608321A2A720A723A0A849A1ABE1C983E18999AA0C868A9C889282940000000000000488083A1A2A72224A0A9A0A8418983E19183E199820E868A9C8892A6A894000000000000010808321A2A72622A7250000000000000122020C868A9
310
C9E8C8C940000000000000488084A1A624A720A92920ACA0A8418983E19183E19982108698929C8AA8B2A082A0AB098929C8A84A22BA3AAA9A1A0A622A50A0E9882A6A89E849482A02608426A0A5A2AB24A2ABA7E8120CA0A68682988A0C00800010652455649534941501304154D0D0531150540CC4E8C50954494D455354
310
414D504A03D0A805197267341441ED115D1D4D15515125391D4D153911F5
 94
        0
1001
ACAD
1000
AcadProxyRoundTripData
1071
      512
1071
   851991
1070
     0
  0
ENDSEC
  0
EOF
