  0
SECTION
  2
HEADER
  9
$ACADVER
  1
AC1014
  9
$ACADMAINTVER
 70
     9
  9
$DWGCODEPAGE
  3
ANSI_932
  9
$INSBASE
 10
0.0
 20
0.0
 30
0.0
  9
$EXTMIN
 10
-11.56609121270162
 20
-4.36541279340372
 30
-0.0000000000000058
  9
$EXTMAX
 10
813.445549826282
 20
467.0085753016826
 30
0.0000000000000104
  9
$LIMMIN
 10
0.1121249236632593
 20
-0.1522721135009988
  9
$LIMMAX
 10
830.2029041900844
 20
505.043417892796
  9
$ORTHOMODE
 70
     0
  9
$REGENMODE
 70
     1
  9
$FILLMODE
 70
     1
  9
$QTEXTMODE
 70
     0
  9
$MIRRTEXT
 70
     1
  9
$DRAGMODE
 70
     2
  9
$LTSCALE
 40
1.0
  9
$OSMODE
 70
  2471
  9
$ATTMODE
 70
     1
  9
$TEXTSIZE
 40
2.5
  9
$TRACEWID
 40
1.0
  9
$TEXTSTYLE
  7
STANDARD
  9
$CLAYER
  8
0
  9
$CELTYPE
  6
BYLAYER
  9
$CECOLOR
 62
   256
  9
$CELTSCALE
 40
1.0
  9
$DELOBJ
 70
     1
  9
$DISPSILH
 70
     0
  9
$DIMSCALE
 40
1.0
  9
$DIMASZ
 40
2.5
  9
$DIMEXO
 40
0.625
  9
$DIMDLI
 40
3.75
  9
$DIMRND
 40
0.0
  9
$DIMDLE
 40
0.0
  9
$DIMEXE
 40
1.25
  9
$DIMTP
 40
0.0
  9
$DIMTM
 40
0.0
  9
$DIMTXT
 40
2.5
  9
$DIMCEN
 40
2.5
  9
$DIMTSZ
 40
0.0
  9
$DIMTOL
 70
     0
  9
$DIMLIM
 70
     0
  9
$DIMTIH
 70
     0
  9
$DIMTOH
 70
     0
  9
$DIMSE1
 70
     0
  9
$DIMSE2
 70
     0
  9
$DIMTAD
 70
     1
  9
$DIMZIN
 70
     8
  9
$DIMBLK
  1

  9
$DIMASO
 70
     1
  9
$DIMSHO
 70
     1
  9
$DIMPOST
  1

  9
$DIMAPOST
  1

  9
$DIMALT
 70
     0
  9
$DIMALTD
 70
     3
  9
$DIMALTF
 40
0.03937007874016
  9
$DIMLFAC
 40
1.0
  9
$DIMTOFL
 70
     1
  9
$DIMTVP
 40
0.0
  9
$DIMTIX
 70
     0
  9
$DIMSOXD
 70
     0
  9
$DIMSAH
 70
     0
  9
$DIMBLK1
  1

  9
$DIMBLK2
  1

  9
$DIMSTYLE
  2
ISO-25
  9
$DIMCLRD
 70
     0
  9
$DIMCLRE
 70
     0
  9
$DIMCLRT
 70
     0
  9
$DIMTFAC
 40
1.0
  9
$DIMGAP
 40
0.625
  9
$DIMJUST
 70
     0
  9
$DIMSD1
 70
     0
  9
$DIMSD2
 70
     0
  9
$DIMTOLJ
 70
     0
  9
$DIMTZIN
 70
     8
  9
$DIMALTZ
 70
     0
  9
$DIMALTTZ
 70
     0
  9
$DIMFIT
 70
     3
  9
$DIMUPT
 70
     0
  9
$DIMUNIT
 70
     2
  9
$DIMDEC
 70
     2
  9
$DIMTDEC
 70
     2
  9
$DIMALTU
 70
     2
  9
$DIMALTTD
 70
     3
  9
$DIMTXSTY
  7
STANDARD
  9
$DIMAUNIT
 70
     0
  9
$LUNITS
 70
     2
  9
$LUPREC
 70
     2
  9
$SKETCHINC
 40
1.0
  9
$FILLETRAD
 40
10.0
  9
$AUNITS
 70
     0
  9
$AUPREC
 70
     0
  9
$MENU
  1
.
  9
$ELEVATION
 40
0.0
  9
$PELEVATION
 40
0.0
  9
$THICKNESS
 40
0.0
  9
$LIMCHECK
 70
     0
  9
$BLIPMODE
 70
     0
  9
$CHAMFERA
 40
10.0
  9
$CHAMFERB
 40
10.0
  9
$CHAMFERC
 40
20.0
  9
$CHAMFERD
 40
0.0
  9
$SKPOLY
 70
     0
  9
$TDCREATE
 40
2454596.550355717
  9
$TDUPDATE
 40
2454765.693159120
  9
$TDINDWG
 40
0.1067471412
  9
$TDUSRTIMER
 40
0.1067464005
  9
$USRTIMER
 70
     1
  9
$ANGBASE
 50
0.0
  9
$ANGDIR
 70
     0
  9
$PDMODE
 70
     0
  9
$PDSIZE
 40
0.0
  9
$PLINEWID
 40
0.0
  9
$COORDS
 70
     0
  9
$SPLFRAME
 70
     0
  9
$SPLINETYPE
 70
     6
  9
$SPLINESEGS
 70
     8
  9
$ATTDIA
 70
     0
  9
$ATTREQ
 70
     1
  9
$HANDLING
 70
 22529
  9
$HANDSEED
  5
E26
  9
$SURFTAB1
 70
     6
  9
$SURFTAB2
 70
     6
  9
$SURFTYPE
 70
     6
  9
$SURFU
 70
     6
  9
$SURFV
 70
     6
  9
$UCSNAME
  2

  9
$UCSORG
 10
0.0
 20
0.0
 30
0.0
  9
$UCSXDIR
 10
1.0
 20
0.0
 30
0.0
  9
$UCSYDIR
 10
0.0
 20
1.0
 30
0.0
  9
$PUCSNAME
  2

  9
$PUCSORG
 10
0.0
 20
0.0
 30
0.0
  9
$PUCSXDIR
 10
1.0
 20
0.0
 30
0.0
  9
$PUCSYDIR
 10
0.0
 20
1.0
 30
0.0
  9
$USERI1
 70
     0
  9
$USERI2
 70
     0
  9
$USERI3
 70
     0
  9
$USERI4
 70
     0
  9
$USERI5
 70
     0
  9
$USERR1
 40
0.0
  9
$USERR2
 40
0.0
  9
$USERR3
 40
0.0
  9
$USERR4
 40
0.0
  9
$USERR5
 40
0.0
  9
$WORLDVIEW
 70
     1
  9
$SHADEDGE
 70
     3
  9
$SHADEDIF
 70
    70
  9
$TILEMODE
 70
     1
  9
$MAXACTVP
 70
    48
  9
$PINSBASE
 10
0.0
 20
0.0
 30
0.0
  9
$PLIMCHECK
 70
     0
  9
$PEXTMIN
 10
28.5263154029846
 20
19.82258291244505
 30
0.0
  9
$PEXTMAX
 10
256.7368386268614
 20
178.4032462120055
 30
0.0
  9
$PLIMMIN
 10
-5.873748779296875
 20
-5.873749732971191
  9
$PLIMMAX
 10
291.1369018554686
 20
204.0995779037474
  9
$UNITMODE
 70
     0
  9
$VISRETAIN
 70
     1
  9
$PLINEGEN
 70
     0
  9
$PSLTSCALE
 70
     1
  9
$TREEDEPTH
 70
  3020
  9
$PICKSTYLE
 70
     1
  9
$CMLSTYLE
  2
STANDARD
  9
$CMLJUST
 70
     0
  9
$CMLSCALE
 40
20.0
  9
$PROXYGRAPHICS
 70
     1
  9
$MEASUREMENT
 70
     1
  0
ENDSEC
  0
SECTION
  2
CLASSES
  0
CLASS
  1
ACDBDICTIONARYWDFLT
  2
AcDbDictionaryWithDefault
  3
AutoCAD 2000
 90
        0
280
     0
281
     0
  0
CLASS
  1
ACDBPLACEHOLDER
  2
AcDbPlaceHolder
  3
AutoCAD 2000
 90
        0
280
     0
281
     0
  0
CLASS
  1
LAYOUT
  2
AcDbLayout
  3
AutoCAD 2000
 90
        0
280
     0
281
     0
  0
CLASS
  1
DICTIONARYVAR
  2
AcDbDictionaryVar
  3
AutoCAD 2000
 90
        0
280
     0
281
     0
  0
CLASS
  1
LONG_TRANSACTION
  2
AcDbLongTransaction
  3
AutoCAD 2000
 90
        0
280
     0
281
     0
  0
CLASS
  1
LWPOLYLINE
  2
AcDbPolyline
  3
AutoCAD 2000
 90
        0
280
     0
281
     1
  0
CLASS
  1
HATCH
  2
AcDbHatch
  3
AutoCAD 2000
 90
        0
280
     0
281
     1
  0
CLASS
  1
XRECORD
  2
AcDbXrecord
  3
AutoCAD 2000
 90
        0
280
     0
281
     0
  0
CLASS
  1
LONG_TRANSACTION
  2
AcDbLongTransaction
  3
AutoCAD 2000
 90
        0
280
     0
281
     0
  0
CLASS
  1
LWPOLYLINE
  2
AcDbPolyline
  3
AutoCAD 2000
 90
        0
280
     0
281
     1
  0
CLASS
  1
HATCH
  2
AcDbHatch
  3
AutoCAD 2000
 90
        0
280
     0
281
     1
  0
CLASS
  1
XRECORD
  2
AcDbXrecord
  3
AutoCAD 2000
 90
        0
280
     0
281
     0
  0
CLASS
  1
AMGSETTINGSOBJ
  2
AmgSettingsObj
  3
"AcadM|Product Description: AutoCAD Mechanical 2000|Company: Autodesk"
 90
        0
280
     0
281
     0
  0
CLASS
  1
ACME_DOCUMENT
  2
AcMeDbDoc
  3
AcMeServices
 90
        0
280
     0
281
     0
  0
CLASS
  1
ACMESCOPE
  2
AcMeScope
  3
AcMeServices
 90
        0
280
     0
281
     0
  0
CLASS
  1
ACMECOMMANDHISTORY
  2
AcMeCommandHistory
  3
AcMeServices
 90
        0
280
     0
281
     0
  0
CLASS
  1
ACIMSYSVARMAN
  2
AcImSysVarManager
  3
AcMeServices
 90
        0
280
     0
281
     0
  0
CLASS
  1
ACIMREALSYSVAR
  2
AcImRealSysVar
  3
AcMeServices
 90
        0
280
     0
281
     0
  0
CLASS
  1
ACIMINTSYSVAR
  2
AcImIntSysVar
  3
AcMeServices
 90
        0
280
     0
281
     0
  0
CLASS
  1
ACMEDRAWINGMAN
  2
AcMeDrawingMan
  3
AcMeServices
 90
        0
280
     0
281
     0
  0
CLASS
  1
ACMEVIEW
  2
AcMeView
  3
AcMeServices
 90
        0
280
     0
281
     0
  0
CLASS
  1
ACDBENTITYCACHE
  2
AcMeEntityCache
  3
AcMeServices
 90
        0
280
     0
281
     0
  0
CLASS
  1
GSMANAGER
  2
AcMeGSManager
  3
AcMeServices
 90
        0
280
     0
281
     0
  0
CLASS
  1
AMDTINTERNALREACTOR
  2
AmdtInternalReactor
  3
AcMeServices
 90
        0
280
     0
281
     0
  0
CLASS
  1
ACMESTATEMGR
  2
AcMeStateMgr
  3
AcMeServices
 90
        0
280
     0
281
     0
  0
CLASS
  1
ACGREFMASTER
  2
AcGrefMaster
  3
AcAttribServices
 90
        0
280
     0
281
     0
  0
CLASS
  1
AM_DRAWING_MGR
  2
AcDmDwgMgr
  3
AcMechDwgViewMgmt
 90
        0
280
     0
281
     0
  0
CLASS
  1
AM_DWG_DOCUMENT
  2
AcDmDwgDocument
  3
AcMechDwgViewMgmt
 90
        0
280
     0
281
     0
  0
CLASS
  1
AM_DWG_SHEET
  2
AcDmSheet
  3
AcMechDwgViewMgmt
 90
        0
280
     0
281
     0
  0
CLASS
  1
AM_VIEWDIMPARMAP
  2
AcDmViewDimParMap
  3
AcMechDwgViewMgmt
 90
        0
280
     0
281
     0
  0
CLASS
  1
AM_DWGMGR_NAME
  2
AcDmDwgMgrName
  3
AcMechDwgViewMgmt
 90
        0
280
     0
281
     0
  0
CLASS
  1
ACME_DATABASE
  2
AcMeDbDatabase
  3
AcMeServices
 90
        0
280
     0
281
     0
  0
CLASS
  1
ACRFINSADJUSTERMGR
  2
AcRfInsAdjusterMgr
  3
AcMeServices
 90
        0
280
     0
281
     0
  0
CLASS
  1
ACGREFACADMASTER
  2
AcGrefacadMaster
  3
AcGrefServices
 90
        0
280
     0
281
     0
  0
CLASS
  1
AMDTMENUSTATEMGR
  2
AmdtMenuStateMgr
  3
McadcomServices
 90
        0
280
     0
281
     0
  0
CLASS
  1
AMDTMCOMMENUSTATE
  2
AmdtMcomMenuState
  3
McadcomServices
 90
        0
280
     0
281
     0
  0
CLASS
  1
AMIMASTER
  2
AmiMaster
  3
AmiServices
 90
        0
280
     0
281
     0
  0
CLASS
  1
ASAPP
  2
AcAsAppObject
  3
AutoSurfServices
 90
        0
280
     0
281
     0
  0
CLASS
  1
IM_STATIC_MAN
  2
AcImStaticVarManager
  3
AcMeServices
 90
        0
280
     0
281
     0
  0
CLASS
  1
ACIMSTRSYSVAR
  2
AcImStrSysVar
  3
AcMeServices
 90
        0
280
     0
281
     0
  0
CLASS
  1
ACIMDBLSTATICVAR
  2
AcImDblStaticVar
  3
AcMeServices
 90
        0
280
     0
281
     0
  0
CLASS
  1
ACIMSTRSTATICVAR
  2
AcImStrStaticVar
  3
AcMeServices
 90
        0
280
     0
281
     0
  0
CLASS
  1
ACIMINTSTATICVAR
  2
AcImIntStaticVar
  3
AcMeServices
 90
        0
280
     0
281
     0
  0
CLASS
  1
ACASGREFMASTER
  2
AcAsGrefMaster
  3
AutoSurfResolverServices
 90
        0
280
     0
281
     0
  0
CLASS
  1
ACADGREFMODULE
  2
AcAdGrefModule
  3
AdGrefServices
 90
        0
280
     0
281
     0
  0
CLASS
  1
AMDTMAPISURFMOUDULE
  2
AmdtMApiSurfModule
  3
MApiSurfServices
 90
        0
280
     0
281
     0
  0
CLASS
  1
MAPIAMMOUDLE
  2
MApiAmModule
  3
MApiAmServices
 90
        0
280
     0
281
     0
  0
CLASS
  1
AMDTADMENUSTATE
  2
AmdtAdMenuState
  3
DesignerServices
 90
        0
280
     0
281
     0
  0
CLASS
  1
ADAPPL
  2
AcAdAppl
  3
DesignerServices
 90
        0
280
     0
281
     0
  0
CLASS
  1
DEPMGR
  2
AcAdDepMgr
  3
DesignerServices
 90
        0
280
     0
281
     0
  0
CLASS
  1
PARAMMGR
  2
AcAdParamMgr
  3
DesignerServices
 90
        0
280
     0
281
     0
  0
CLASS
  1
PARAMSCOPE
  2
AcAdParamScope
  3
DesignerServices
 90
        0
280
     0
281
     0
  0
CLASS
  1
NAMEDAPPL
  2
AcAdNamedAppl
  3
DesignerServices
 90
        0
280
     0
281
     0
  0
CLASS
  1
AMDTDMMENUSTATE
  2
AmdtDmMenuState
  3
AcMechDwgViewMgmt
 90
        0
280
     0
281
     0
  0
CLASS
  1
MAPIADMODULE
  2
MApiAdModule
  3
MApiAdServices
 90
        0
280
     0
281
     0
  0
CLASS
  1
AMDTAMMENUSTATE
  2
AmdtAmMenuState
  3
DesignerAssemblies
 90
        0
280
     0
281
     0
  0
CLASS
  1
ACAMPROJECT
  2
AcAmProject
  3
DesignerAssemblies
 90
        0
280
     0
281
     0
  0
CLASS
  1
ACAMGRCOMPDEF
  2
AcAmGrCompDef
  3
DesignerAssemblies
 90
        0
280
     0
281
     0
  0
CLASS
  1
ACCMCONTEXT
  2
AcCmContext
  3
DesignerAssemblies
 90
        0
280
     0
281
     0
  0
CLASS
  1
ACAMCOMPDEF
  2
AcAmCompDef
  3
DesignerAssemblies
 90
        0
280
     0
281
     0
  0
CLASS
  1
ACAMCOMPDEFMGR
  2
AcAmCompDefMgr
  3
DesignerAssemblies
 90
        0
280
     0
281
     0
  0
CLASS
  1
AMCONTEXTMGR
  2
AcAmContextMgr
  3
DesignerAssemblies
 90
        0
280
     0
281
     0
  0
CLASS
  1
ACAMCONTEXTMODELER
  2
AcAmContextModeler
  3
DesignerAssemblies
 90
        0
280
     0
281
     0
  0
CLASS
  1
ACMDATADICTIONARY
  2
AcmDataDictionary
  3
"AcmSymBB|Product Description: AutoCAD Mechanical 2000|Company: Autodesk"
 90
        0
280
     0
281
     0
  0
CLASS
  1
ACMDATAENTRYBLOCK
  2
AcmDataEntryBlock
  3
"AcmSymBB|Product Description: AutoCAD Mechanical 2000|Company: Autodesk"
 90
        0
280
     0
281
     0
  0
CLASS
  1
CATALOGSTATE
  2
AcAmCatalogState
  3
DesignerAssemblies
 90
        0
280
     0
281
     0
  0
CLASS
  1
ACAMGRCOMPDEFSET
  2
AcAmGrCompDefSet
  3
DesignerAssemblies
 90
        0
280
     0
281
     0
  0
CLASS
  1
AMDTBROWSERDBTAB
  2
AmdtBrowserDbTab
  3
McadcomServices
 90
        0
280
     0
281
     0
  0
CLASS
  1
CBROWSERAPPOBJECT
  2
CBrowserAppObject
  3
McadcomServices
 90
        0
280
     0
281
     0
  0
CLASS
  1
DM_PLACEHOLDER
  2
AcDmSelsetPlaceholder
  3
AcMechDwgViewMgmt
 90
        0
280
     0
281
     0
  0
CLASS
  1
AMGOBJPROPCFG
  2
AmgObjPropCfg
  3
"AmgLay|Product Description: AutoCAD Mechanical 2000|Company: Autodesk"
 90
        1
280
     0
281
     0
  0
CLASS
  1
ACAMGFILTERDAT
  2
AcAmgFilterDat
  3
"AcadM|Product Description: AutoCAD Mechanical 2000|Company: Autodesk"
 90
        0
280
     0
281
     0
  0
CLASS
  1
LAYER_INDEX
  2
AcDbLayerIndex
  3
AutoCAD 2000
 90
        0
280
     0
281
     0
  0
CLASS
  1
IDBUFFER
  2
AcDbIdBuffer
  3
AutoCAD 2000
 90
        0
280
     0
281
     0
  0
CLASS
  1
ACAD_PROXY_OBJECT_WRAPPER
  2
AcDbProxyObjectWrapper
  3
AutoCAD 2000
 90
        0
280
     0
281
     0
  0
CLASS
  1
LONG_TRANSACTION
  2
AcDbLongTransaction
  3
AutoCAD 2000
 90
        0
280
     0
281
     0
  0
CLASS
  1
LWPOLYLINE
  2
AcDbPolyline
  3
AutoCAD 2000
 90
        0
280
     0
281
     1
  0
CLASS
  1
HATCH
  2
AcDbHatch
  3
AutoCAD 2000
 90
        0
280
     0
281
     1
  0
CLASS
  1
XRECORD
  2
AcDbXrecord
  3
AutoCAD 2000
 90
        0
280
     0
281
     0
  0
CLASS
  1
LONG_TRANSACTION
  2
AcDbLongTransaction
  3
AutoCAD 2000
 90
        0
280
     0
281
     0
  0
CLASS
  1
LWPOLYLINE
  2
AcDbPolyline
  3
AutoCAD 2000
 90
        0
280
     0
281
     1
  0
CLASS
  1
HATCH
  2
AcDbHatch
  3
AutoCAD 2000
 90
        0
280
     0
281
     1
  0
CLASS
  1
XRECORD
  2
AcDbXrecord
  3
AutoCAD 2000
 90
        0
280
     0
281
     0
  0
CLASS
  1
LONG_TRANSACTION
  2
AcDbLongTransaction
  3
AutoCAD 2000
 90
        0
280
     0
281
     0
  0
CLASS
  1
LWPOLYLINE
  2
AcDbPolyline
  3
AutoCAD 2000
 90
        0
280
     0
281
     1
  0
CLASS
  1
HATCH
  2
AcDbHatch
  3
AutoCAD 2000
 90
        0
280
     0
281
     1
  0
CLASS
  1
XRECORD
  2
AcDbXrecord
  3
AutoCAD 2000
 90
        0
280
     0
281
     0
  0
CLASS
  1
DIMASSOC
  2
AcDbDimAssoc
  3
"AcDbDimAssoc|Product Desc:     AcDim ARX App For Dimension|Company:          Autodesk, Inc.|WEB Address:      www.autodesk.com"
 90
        0
280
     0
281
     0
  0
CLASS
  1
LONG_TRANSACTION
  2
AcDbLongTransaction
  3
AutoCAD 2000
 90
        0
280
     0
281
     0
  0
CLASS
  1
LWPOLYLINE
  2
AcDbPolyline
  3
AutoCAD 2000
 90
        0
280
     0
281
     1
  0
CLASS
  1
HATCH
  2
AcDbHatch
  3
AutoCAD 2000
 90
        0
280
     0
281
     1
  0
CLASS
  1
XRECORD
  2
AcDbXrecord
  3
AutoCAD 2000
 90
        0
280
     0
281
     0
  0
CLASS
  1
LONG_TRANSACTION
  2
AcDbLongTransaction
  3
AutoCAD 2000
 90
        0
280
     0
281
     0
  0
CLASS
  1
LWPOLYLINE
  2
AcDbPolyline
  3
AutoCAD 2000
 90
        0
280
     0
281
     1
  0
CLASS
  1
HATCH
  2
AcDbHatch
  3
AutoCAD 2000
 90
        0
280
     0
281
     1
  0
CLASS
  1
XRECORD
  2
AcDbXrecord
  3
AutoCAD 2000
 90
        0
280
     0
281
     0
  0
ENDSEC
  0
SECTION
  2
TABLES
  0
TABLE
  2
VPORT
  5
8
330
0
100
AcDbSymbolTable
 70
     3
  0
VPORT
  5
E03
330
8
100
AcDbSymbolTableRecord
100
AcDbViewportTableRecord
  2
*ACTIVE
 70
     0
 10
0.0
 20
0.0
 11
1.0
 21
1.0
 12
-740.0094372743987
 22
-321.2545931883068
 13
0.0
 23
0.0
 14
10.0
 24
10.0
 15
10.0
 25
10.0
 16
0.0
 26
0.0
 36
1.0
 17
1140.949166581189
 27
552.5761744424462
 37
0.0
 40
535.4298673168425
 41
1.548684210526315
 42
50.0
 43
0.0
 44
0.0
 50
0.0
 51
0.0
 71
     0
 72
   100
 73
     1
 74
     3
 75
     0
 76
     0
 77
     0
 78
     0
  0
ENDTAB
  0
TABLE
  2
LTYPE
  5
5
330
0
100
AcDbSymbolTable
 70
     8
  0
LTYPE
  5
14
330
5
100
AcDbSymbolTableRecord
100
AcDbLinetypeTableRecord
  2
BYBLOCK
 70
     0
  3

 72
    65
 73
     0
 40
0.0
  0
LTYPE
  5
15
330
5
100
AcDbSymbolTableRecord
100
AcDbLinetypeTableRecord
  2
BYLAYER
 70
     0
  3

 72
    65
 73
     0
 40
0.0
  0
LTYPE
  5
16
330
5
100
AcDbSymbolTableRecord
100
AcDbLinetypeTableRecord
  2
CONTINUOUS
 70
     0
  3
Solid line
 72
    65
 73
     0
 40
0.0
  0
LTYPE
  5
5C6
330
5
100
AcDbSymbolTableRecord
100
AcDbLinetypeTableRecord
  2
AM_ISO02W050
 70
     0
  3
__ __ __ __ __ __ __ __ __ __ __ __ __ __ __
 72
    65
 73
     2
 40
7.5
 49
6.0
 74
     0
 49
-1.5
 74
     0
  0
LTYPE
  5
5C7
330
5
100
AcDbSymbolTableRecord
100
AcDbLinetypeTableRecord
  2
AM_ISO08W050
 70
     0
  3
____ . ____ . ____ . ____ . ____ . ____ . ____
 72
    65
 73
     4
 40
18.0
 49
12.0
 74
     0
 49
-1.5
 74
     0
 49
3.0
 74
     0
 49
-1.5
 74
     0
  0
LTYPE
  5
5C8
330
5
100
AcDbSymbolTableRecord
100
AcDbLinetypeTableRecord
  2
AM_ISO09W050
 70
     0
  3
_____ . . _____ . . _____ . . ____ .. ____
 72
    65
 73
     6
 40
22.5
 49
12.0
 74
     0
 49
-1.5
 74
     0
 49
3.0
 74
     0
 49
-1.5
 74
     0
 49
3.0
 74
     0
 49
-1.5
 74
     0
  0
LTYPE
  5
5C9
330
5
100
AcDbSymbolTableRecord
100
AcDbLinetypeTableRecord
  2
AMCONSTR
 70
     0
  3
_______________________
 72
    65
 73
     2
 40
9999.0
 49
9999.0
 74
     0
 49
0.0
 74
     0
  0
LTYPE
  5
5CA
330
5
100
AcDbSymbolTableRecord
100
AcDbLinetypeTableRecord
  2
AM_ISO08W050X2
 70
     0
  3
__ . __ . __ . __ . __ . __
 72
    65
 73
     4
 40
9.0
 49
6.0
 74
     0
 49
-0.75
 74
     0
 49
1.5
 74
     0
 49
-0.75
 74
     0
  0
LTYPE
  5
5CB
330
5
100
AcDbSymbolTableRecord
100
AcDbLinetypeTableRecord
  2
AM_ISO02W050X2
 70
     0
  3
 _ _ _ _ _ _ _ _ _ _ _ _
 72
    65
 73
     2
 40
3.75
 49
3.0
 74
     0
 49
-0.75
 74
     0
  0
LTYPE
  5
5CE
330
5
100
AcDbSymbolTableRecord
100
AcDbLinetypeTableRecord
  2
AMZIGZAG
 70
     0
  3
/\/-/\/-/\/-/\/-/\/-/\/
 72
    65
 73
     2
 40
11.00009999999999
 49
0.0001
 74
     4
 75
   135
340
5CD
 46
0.04
 50
0.0
 44
0.0
 45
0.0
 49
-11.0
 74
     0
  0
ENDTAB
  0
TABLE
  2
LAYER
  5
2
102
{ACAD_XDICTIONARY
360
41
102
}
330
0
100
AcDbSymbolTable
 70
     7
  0
LAYER
  5
10
330
2
100
AcDbSymbolTableRecord
100
AcDbLayerTableRecord
  2
0
 70
     0
 62
     7
  6
CONTINUOUS
  0
LAYER
  5
35
330
2
100
AcDbSymbolTableRecord
100
AcDbLayerTableRecord
  2
10
 70
     0
 62
     4
  6
CONTINUOUS
  0
LAYER
  5
36
330
2
100
AcDbSymbolTableRecord
100
AcDbLayerTableRecord
  2
12
 70
     0
 62
     3
  6
CONTINUOUS
  0
LAYER
  5
37
330
2
100
AcDbSymbolTableRecord
100
AcDbLayerTableRecord
  2
16
 70
     0
 62
     4
  6
CONTINUOUS
  0
LAYER
  5
38
330
2
100
AcDbSymbolTableRecord
100
AcDbLayerTableRecord
  2
19
 70
     0
 62
     7
  6
CONTINUOUS
  0
LAYER
  5
660
330
2
100
AcDbSymbolTableRecord
100
AcDbLayerTableRecord
  2
DEFPOINTS
 70
     0
 62
     7
  6
CONTINUOUS
  0
LAYER
  5
AEC
330
2
100
AcDbSymbolTableRecord
100
AcDbLayerTableRecord
  2
17
 70
     0
 62
     2
  6
CONTINUOUS
  0
ENDTAB
  0
TABLE
  2
STYLE
  5
3
330
0
100
AcDbSymbolTable
 70
     3
  0
STYLE
  5
11
330
3
100
AcDbSymbolTableRecord
100
AcDbTextStyleTableRecord
  2
STANDARD
 70
     0
 40
0.0
 41
1.0
 50
0.0
 71
     0
 42
2.5
  3
txt
  4

  0
STYLE
  5
3A
330
3
100
AcDbSymbolTableRecord
100
AcDbTextStyleTableRecord
  2
STANDARD1X3
 70
     0
 40
9.599999999999999
 41
0.7
 50
0.0
 71
     0
 42
9.599999999999999
  3
romans.shx
  4
extfont.shx
  0
STYLE
  5
5CD
330
3
100
AcDbSymbolTableRecord
100
AcDbTextStyleTableRecord
  2

 70
     1
 40
0.0
 41
1.0
 50
0.0
 71
     0
 42
2.5
  3
ltypeshp.shx
  4

  0
ENDTAB
  0
TABLE
  2
VIEW
  5
6
330
0
100
AcDbSymbolTable
 70
     0
  0
ENDTAB
  0
TABLE
  2
UCS
  5
7
330
0
100
AcDbSymbolTable
 70
     0
  0
ENDTAB
  0
TABLE
  2
APPID
  5
9
330
0
100
AcDbSymbolTable
 70
    18
  0
APPID
  5
12
330
9
100
AcDbSymbolTableRecord
100
AcDbRegAppTableRecord
  2
ACAD
 70
     0
  0
APPID
  5
3C
330
9
100
AcDbSymbolTableRecord
100
AcDbRegAppTableRecord
  2
ACAD_PSEXT
 70
     0
  0
APPID
  5
3D
330
9
100
AcDbSymbolTableRecord
100
AcDbRegAppTableRecord
  2
ACAD_DSTYLE_DIMEXT_LENGTH
 70
     0
  0
APPID
  5
3E
330
9
100
AcDbSymbolTableRecord
100
AcDbRegAppTableRecord
  2
ACAD_DSTYLE_DIMEXT_ENABLED
 70
     0
  0
APPID
  5
3F
330
9
100
AcDbSymbolTableRecord
100
AcDbRegAppTableRecord
  2
ACAD_DSTYLE_DIMJOGGED_JOGA
 70
     0
  0
APPID
  5
40
330
9
100
AcDbSymbolTableRecord
100
AcDbRegAppTableRecord
  2
ACAD_DSTYLE_DIMARC_LENGTH_
 70
     0
  0
APPID
  5
500
330
9
100
AcDbSymbolTableRecord
100
AcDbRegAppTableRecord
  2
GENIUS_GENDIM_13
 70
     0
  0
APPID
  5
501
330
9
100
AcDbSymbolTableRecord
100
AcDbRegAppTableRecord
  2
GENIUS_GENDTOL_13
 70
     0
  0
APPID
  5
502
330
9
100
AcDbSymbolTableRecord
100
AcDbRegAppTableRecord
  2
GENIUS_GE3DTOL_13
 70
     0
  0
APPID
  5
504
330
9
100
AcDbSymbolTableRecord
100
AcDbRegAppTableRecord
  2
MCAD_NO_VIS
 70
     0
  0
APPID
  5
505
330
9
100
AcDbSymbolTableRecord
100
AcDbRegAppTableRecord
  2
ACAD_TEMP_GRAPHIC
 70
     0
  0
APPID
  5
537
330
9
100
AcDbSymbolTableRecord
100
AcDbRegAppTableRecord
  2
AD_DRAW
 70
     0
  0
APPID
  5
53A
330
9
100
AcDbSymbolTableRecord
100
AcDbRegAppTableRecord
  2
ACATTRIBSERVICES
 70
     0
  0
APPID
  5
586
330
9
100
AcDbSymbolTableRecord
100
AcDbRegAppTableRecord
  2
ASURF_PCURVE_APPNAME
 70
     0
  0
APPID
  5
5B5
330
9
100
AcDbSymbolTableRecord
100
AcDbRegAppTableRecord
  2
DESIGNERASSEMBLIES
 70
     0
  0
APPID
  5
5BD
330
9
100
AcDbSymbolTableRecord
100
AcDbRegAppTableRecord
  2
ACADM_DIM_EDIT
 70
     0
  0
APPID
  5
5BE
330
9
100
AcDbSymbolTableRecord
100
AcDbRegAppTableRecord
  2
AMDT_DM_ADJ
 70
     0
  0
APPID
  5
66B
330
9
100
AcDbSymbolTableRecord
100
AcDbRegAppTableRecord
  2
ACAECLAYERSTANDARD
 70
     0
  0
ENDTAB
  0
TABLE
  2
DIMSTYLE
  5
A
330
0
100
AcDbSymbolTable
 70
     1
  0
DIMSTYLE
105
27
330
A
100
AcDbSymbolTableRecord
100
AcDbDimStyleTableRecord
  2
ISO-25
 70
     0
  3

  4

  5

  6

  7

 40
1.0
 41
2.5
 42
0.625
 43
3.75
 44
1.25
 45
0.0
 46
0.0
 47
0.0
 48
0.0
140
2.5
141
2.5
142
0.0
143
0.03937007874016
144
1.0
145
0.0
146
1.0
147
0.625
 71
     0
 72
     0
 73
     0
 74
     0
 75
     0
 76
     0
 77
     1
 78
     8
170
     0
171
     3
172
     1
173
     0
174
     0
175
     0
176
     0
177
     0
178
     0
270
     2
271
     2
272
     2
273
     2
274
     3
340
11
275
     0
280
     0
281
     0
282
     0
283
     0
284
     8
285
     0
286
     0
287
     3
288
     0
  0
ENDTAB
  0
TABLE
  2
BLOCK_RECORD
  5
1
330
0
100
AcDbSymbolTable
 70
     3
  0
BLOCK_RECORD
  5
1F
102
{ACAD_XDICTIONARY
360
438
102
}
330
1
100
AcDbSymbolTableRecord
100
AcDbBlockTableRecord
  2
*MODEL_SPACE
  0
BLOCK_RECORD
  5
23
102
{ACAD_XDICTIONARY
360
43A
102
}
330
1
100
AcDbSymbolTableRecord
100
AcDbBlockTableRecord
  2
*PAPER_SPACE
  0
BLOCK_RECORD
  5
5AC
330
1
100
AcDbSymbolTableRecord
100
AcDbBlockTableRecord
  2
*U0
  0
ENDTAB
  0
ENDSEC
  0
SECTION
  2
BLOCKS
  0
BLOCK
  5
20
330
1F
100
AcDbEntity
  8
0
100
AcDbBlockBegin
  2
*MODEL_SPACE
 70
     0
 10
0.0
 20
0.0
 30
0.0
  3
*MODEL_SPACE
  1

  0
ENDBLK
  5
21
330
1F
100
AcDbEntity
  8
0
100
AcDbBlockEnd
  0
BLOCK
  5
24
330
23
100
AcDbEntity
 67
     1
  8
0
100
AcDbBlockBegin
  2
*PAPER_SPACE
 70
     0
 10
0.0
 20
0.0
 30
0.0
  3
*PAPER_SPACE
  1

  0
ENDBLK
  5
25
330
23
100
AcDbEntity
 67
     1
  8
0
100
AcDbBlockEnd
  0
BLOCK
  5
5AD
330
5AC
100
AcDbEntity
  8
0
100
AcDbBlockBegin
  2
*U0
 70
     1
 10
0.0
 20
0.0
 30
0.0
  3
*U0
  1

  0
ENDBLK
  5
5AE
330
5AC
100
AcDbEntity
  8
0
100
AcDbBlockEnd
  0
ENDSEC
  0
SECTION
  2
ENTITIES
  0
MTEXT
  5
5EB
330
1F
100
AcDbEntity
  8
19
100
AcDbMText
 10
739.9265649400576
 20
23.94298274455525
 30
0.0
 40
9.0
 41
70.16
 71
     1
 72
     5
  1
HELH31\PFR-HEL-H630K
  7
STANDARD1X3
1001
ACAD
1000
MTEXTBEGIN
1070
    73
1070
     1
1070
    44
1040
1.0
1070
    74
1070
     0
1000
MTEXTEND
1000
MTEXTBEGIN
1070
    73
1070
     1
1070
    44
1040
1.0
1070
    74
1070
     0
1000
MTEXTEND
1000
MTEXTBEGIN
1070
    73
1070
     1
1070
    44
1040
1.0
1070
    74
1070
     0
1000
MTEXTEND
1000
MTEXTBEGIN
1070
    73
1070
     1
1070
    44
1040
1.0
1070
    74
1070
     0
1000
MTEXTEND
  0
LINE
  5
886
330
1F
100
AcDbEntity
  8
10
100
AcDbLine
 10
352.5011214758308
 20
384.4150621867547
 30
0.0
 11
352.5011214758308
 21
352.1887745097988
 31
0.0
  0
LINE
  5
887
330
1F
100
AcDbEntity
  8
10
 48
10.0
100
AcDbLine
 10
407.5011214758298
 20
351.9399999999959
 30
0.0
 11
407.5011214758298
 21
370.9400000000008
 31
0.0
  0
LINE
  5
888
330
1F
100
AcDbEntity
  8
10
100
AcDbLine
 10
417.5011214758308
 20
370.9400000000008
 30
0.0
 11
417.5011214758308
 21
351.9399999999959
 31
0.0
  0
LINE
  5
889
330
1F
100
AcDbEntity
  8
10
100
AcDbLine
 10
490.5011214758308
 20
403.4399999999997
 30
0.0
 11
490.5011214758308
 21
56.56000000000084
 31
0.0
  0
LINE
  5
88A
330
1F
100
AcDbEntity
  8
10
100
AcDbLine
 10
689.5011214758299
 20
56.56000000000084
 30
0.0
 11
689.5011214758299
 21
403.4399999999997
 31
0.0
  0
ARC
  5
88B
330
1F
100
AcDbEntity
  8
10
100
AcDbCircle
 10
377.6324721406806
 20
389.9302073568441
 30
0.0
 40
25.7575
100
AcDbArc
 50
195.9777023949689
 51
255.0000000000055
  0
ARC
  5
88C
330
1F
100
AcDbEntity
  8
10
100
AcDbCircle
 10
377.5011214752928
 20
389.4399999999959
 30
0.0
 40
25.24999999999498
100
AcDbArc
 50
282.2975720045917
 51
301.4172756580433
  0
LINE
  5
88D
330
1F
100
AcDbEntity
  8
10
100
AcDbLine
 10
438.001121475291
 20
56.56000000000084
 30
0.0
 11
689.5011214758299
 21
56.56000000000084
 31
0.0
  0
LINE
  5
88E
330
1F
100
AcDbEntity
  8
10
100
AcDbLine
 10
532.5011214758299
 20
52.06000000000084
 30
0.0
 11
647.5011214758308
 21
52.06000000000084
 31
0.0
  0
LINE
  5
88F
330
1F
100
AcDbEntity
  8
10
100
AcDbLine
 10
647.5011214758308
 20
47.50000000000091
 30
0.0
 11
532.5011214758299
 21
47.50000000000272
 31
0.0
  0
LINE
  5
890
330
1F
100
AcDbEntity
  8
16
 48
8.0
100
AcDbLine
 10
462.0366725807278
 20
231.44
 30
0.0
 11
723.1206131719816
 21
231.44
 31
0.0
  0
LINE
  5
891
330
1F
100
AcDbEntity
  8
10
100
AcDbLine
 10
532.5011214758299
 20
-2.499999999999087
 30
0.0
 11
647.5011214758308
 21
-2.499999999999087
 31
0.0
  0
LINE
  5
892
330
1F
100
AcDbEntity
  8
10
100
AcDbLine
 10
661.5011214758299
 20
40.50000000000091
 30
0.0
 11
703.5011214758307
 21
40.50000000000091
 31
0.0
  0
LINE
  5
893
330
1F
100
AcDbEntity
  8
10
100
AcDbLine
 10
703.5011214758307
 20
45.00000000000091
 30
0.0
 11
661.5011214758299
 21
45.00000000000091
 31
0.0
  0
LINE
  5
894
330
1F
100
AcDbEntity
  8
10
100
AcDbLine
 10
708.0011214758298
 20
36.00000000000091
 30
0.0
 11
708.0011214758298
 21
0.0
 31
0.0
  0
LINE
  5
895
330
1F
100
AcDbEntity
  8
10
100
AcDbLine
 10
712.5011214758306
 20
0.0
 30
0.0
 11
712.5011214758306
 21
36.00000000000091
 31
0.0
  0
LINE
  5
896
330
1F
100
AcDbEntity
  8
10
100
AcDbLine
 10
708.0011214758298
 20
0.0
 30
0.0
 11
712.5011214758306
 21
0.0
 31
0.0
  0
LINE
  5
897
330
1F
100
AcDbEntity
  8
10
 48
4.0
100
AcDbLine
 10
712.5011214758306
 20
14.0000000000009
 30
0.0
 11
708.0011214758298
 21
14.0000000000009
 31
0.0
  0
LINE
  5
898
330
1F
100
AcDbEntity
  8
10
 48
4.0
100
AcDbLine
 10
712.5011214758306
 20
36.00000000000091
 30
0.0
 11
708.0011214758298
 21
36.00000000000091
 31
0.0
  0
LINE
  5
899
330
1F
100
AcDbEntity
  8
12
 48
2.0
100
AcDbLine
 10
714.5011214758307
 20
25.00000000000091
 30
0.0
 11
706.0011214758307
 21
25.00000000000091
 31
0.0
  0
ARC
  5
89A
330
1F
100
AcDbEntity
  8
10
100
AcDbCircle
 10
703.5011214758307
 20
36.00000000000091
 30
0.0
 40
9.0
100
AcDbArc
 50
0.0
 51
90.0
  0
ARC
  5
89B
330
1F
100
AcDbEntity
  8
10
100
AcDbCircle
 10
703.5011214758307
 20
36.00000000000091
 30
0.0
 40
4.5
100
AcDbArc
 50
0.0
 51
90.0
  0
LINE
  5
89C
330
1F
100
AcDbEntity
  8
10
100
AcDbLine
 10
647.5011214758308
 20
56.56000000000084
 30
0.0
 11
647.5011214758308
 21
-2.119999999997161
 31
0.0
  0
LINE
  5
89D
330
1F
100
AcDbEntity
  8
10
100
AcDbLine
 10
657.0011214758308
 20
0.0
 30
0.0
 11
657.0011214758308
 21
36.00000000000091
 31
0.0
  0
LINE
  5
89E
330
1F
100
AcDbEntity
  8
10
100
AcDbLine
 10
664.5011214758308
 20
14.70577136594192
 30
0.0
 11
664.5011214758308
 21
30.29422863405989
 31
0.0
  0
LINE
  5
89F
330
1F
100
AcDbEntity
  8
10
100
AcDbLine
 10
652.5011214758308
 20
0.3800000000028376
 30
0.0
 11
652.5011214758308
 21
56.56000000000084
 31
0.0
  0
ARC
  5
8A0
330
1F
100
AcDbEntity
  8
10
100
AcDbCircle
 10
647.3049690531237
 20
22.50000000000091
 30
0.0
 40
17.196152422707
100
AcDbArc
 50
342.4120462260126
 51
17.58795377398735
  0
LINE
  5
8A1
330
1F
100
AcDbEntity
  8
10
100
AcDbLine
 10
663.6972738985368
 20
12.10769515458696
 30
0.0
 11
657.0011214758308
 21
12.10769515458696
 31
0.0
  0
LINE
  5
8A2
330
1F
100
AcDbEntity
  8
10
100
AcDbLine
 10
663.6972738985368
 20
17.30384757729189
 30
0.0
 11
657.0011214758308
 21
17.30384757729189
 31
0.0
  0
LINE
  5
8A3
330
1F
100
AcDbEntity
  8
10
100
AcDbLine
 10
652.5011214758308
 20
1.060000000000854
 30
0.0
 11
647.5011214758308
 21
1.060000000000854
 31
0.0
  0
LINE
  5
8A4
330
1F
100
AcDbEntity
  8
10
100
AcDbLine
 10
652.5011214758308
 20
0.3800000000028376
 30
0.0
 11
652.5011214758308
 21
0.0
 31
0.0
  0
LINE
  5
8A5
330
1F
100
AcDbEntity
  8
10
100
AcDbLine
 10
647.5011214758308
 20
-2.119999999997161
 30
0.0
 11
647.5011214758308
 21
-2.499999999999087
 31
0.0
  0
LINE
  5
8A6
330
1F
100
AcDbEntity
  8
10
100
AcDbLine
 10
652.5011214758308
 20
0.0
 30
0.0
 11
657.0011214758308
 21
0.0
 31
0.0
  0
LINE
  5
8A7
330
1F
100
AcDbEntity
  8
10
100
AcDbLine
 10
642.5011214758308
 20
-2.499999999999087
 30
0.0
 11
642.5011214758308
 21
2.500000000000909
 31
0.0
  0
LINE
  5
8A8
330
1F
100
AcDbEntity
  8
10
100
AcDbLine
 10
637.5011214758308
 20
-2.499999999999087
 30
0.0
 11
637.5011214758308
 21
7.500000000000909
 31
0.0
  0
LINE
  5
8A9
330
1F
100
AcDbEntity
  8
10
100
AcDbLine
 10
632.5011214758307
 20
12.50000000000091
 30
0.0
 11
632.5011214758307
 21
-2.499999999999087
 31
0.0
  0
LINE
  5
8AA
330
1F
100
AcDbEntity
  8
10
100
AcDbLine
 10
627.5011214758308
 20
-2.499999999999087
 30
0.0
 11
627.5011214758308
 21
17.50000000000091
 31
0.0
  0
LINE
  5
8AB
330
1F
100
AcDbEntity
  8
10
100
AcDbLine
 10
657.0011214758308
 20
32.89230484541392
 30
0.0
 11
663.6972738985368
 21
32.89230484541392
 31
0.0
  0
LINE
  5
8AC
330
1F
100
AcDbEntity
  8
10
100
AcDbLine
 10
663.6972738985368
 20
27.69615242270674
 30
0.0
 11
657.0011214758308
 21
27.69615242270674
 31
0.0
  0
ARC
  5
8AD
330
1F
100
AcDbEntity
  8
10
100
AcDbCircle
 10
661.5011214758299
 20
36.00000000000091
 30
0.0
 40
9.0
100
AcDbArc
 50
90.0
 51
180.0
  0
ARC
  5
8AE
330
1F
100
AcDbEntity
  8
10
100
AcDbCircle
 10
661.5011214758299
 20
36.00000000000091
 30
0.0
 40
4.5
100
AcDbArc
 50
90.0
 51
180.0
  0
LINE
  5
8AF
330
1F
100
AcDbEntity
  8
10
100
AcDbLine
 10
438.001121475291
 20
84.56000000000086
 30
0.0
 11
490.5011214758308
 21
84.56000000000086
 31
0.0
  0
LINE
  5
8B0
330
1F
100
AcDbEntity
  8
10
100
AcDbLine
 10
480.0011214758308
 20
28.50000000000091
 30
0.0
 11
494.7011214758311
 21
28.50000000000091
 31
0.0
  0
LINE
  5
8B1
330
1F
100
AcDbEntity
  8
10
100
AcDbLine
 10
480.0011214758308
 20
16.5000000000009
 30
0.0
 11
494.7011214758311
 21
16.5000000000009
 31
0.0
  0
LINE
  5
8B2
330
1F
100
AcDbEntity
  8
10
100
AcDbLine
 10
477.0011214758308
 20
26.75000000000091
 30
0.0
 11
494.7011214758311
 21
26.75000000000091
 31
0.0
  0
LINE
  5
8B3
330
1F
100
AcDbEntity
  8
10
100
AcDbLine
 10
477.0011214758308
 20
18.25000000000089
 30
0.0
 11
494.7011214758311
 21
18.25000000000089
 31
0.0
  0
LINE
  5
8B4
330
1F
100
AcDbEntity
  8
10
100
AcDbLine
 10
622.5011214758299
 20
22.50000000000091
 30
0.0
 11
622.5011214758299
 21
-2.499999999999087
 31
0.0
  0
LINE
  5
8B5
330
1F
100
AcDbEntity
  8
10
100
AcDbLine
 10
617.5011214758308
 20
-2.499999999999087
 30
0.0
 11
617.5011214758308
 21
27.50000000000091
 31
0.0
  0
LINE
  5
8B6
330
1F
100
AcDbEntity
  8
10
100
AcDbLine
 10
612.5011214758298
 20
32.50000000000091
 30
0.0
 11
612.5011214758298
 21
-2.499999999999087
 31
0.0
  0
LINE
  5
8B7
330
1F
100
AcDbEntity
  8
10
100
AcDbLine
 10
607.5011214758307
 20
-2.499999999999087
 30
0.0
 11
607.5011214758307
 21
37.50000000000091
 31
0.0
  0
LINE
  5
8B8
330
1F
100
AcDbEntity
  8
10
100
AcDbLine
 10
602.5011214758308
 20
42.50000000000091
 30
0.0
 11
602.5011214758308
 21
-2.499999999999087
 31
0.0
  0
LINE
  5
8B9
330
1F
100
AcDbEntity
  8
10
100
AcDbLine
 10
597.5011214758299
 20
-2.499999999999087
 30
0.0
 11
597.5011214758299
 21
47.50000000000091
 31
0.0
  0
LINE
  5
8BA
330
1F
100
AcDbEntity
  8
10
100
AcDbLine
 10
592.5011214758308
 20
42.50000000000091
 30
0.0
 11
592.5011214758308
 21
-2.499999999999087
 31
0.0
  0
LINE
  5
8BB
330
1F
100
AcDbEntity
  8
10
100
AcDbLine
 10
587.5011214758308
 20
-2.499999999999087
 30
0.0
 11
587.5011214758308
 21
37.50000000000091
 31
0.0
  0
LINE
  5
8BC
330
1F
100
AcDbEntity
  8
10
100
AcDbLine
 10
582.5011214758307
 20
32.50000000000091
 30
0.0
 11
582.5011214758307
 21
-2.499999999999087
 31
0.0
  0
LINE
  5
8BD
330
1F
100
AcDbEntity
  8
10
100
AcDbLine
 10
577.5011214758299
 20
-2.499999999999087
 30
0.0
 11
577.5011214758299
 21
27.50000000000091
 31
0.0
  0
LINE
  5
8BE
330
1F
100
AcDbEntity
  8
10
100
AcDbLine
 10
572.5011214758299
 20
22.50000000000091
 30
0.0
 11
572.5011214758299
 21
-2.499999999999087
 31
0.0
  0
LINE
  5
8BF
330
1F
100
AcDbEntity
  8
10
100
AcDbLine
 10
567.5011214758308
 20
-2.499999999999087
 30
0.0
 11
567.5011214758308
 21
17.50000000000091
 31
0.0
  0
LINE
  5
8C0
330
1F
100
AcDbEntity
  8
10
100
AcDbLine
 10
562.5011214758308
 20
12.50000000000091
 30
0.0
 11
562.5011214758308
 21
-2.499999999999087
 31
0.0
  0
LINE
  5
8C1
330
1F
100
AcDbEntity
  8
10
100
AcDbLine
 10
557.5011214758307
 20
-2.499999999999087
 30
0.0
 11
557.5011214758307
 21
7.500000000000909
 31
0.0
  0
LINE
  5
8C2
330
1F
100
AcDbEntity
  8
10
100
AcDbLine
 10
527.5011214758308
 20
56.56000000000084
 30
0.0
 11
527.5011214758308
 21
1.060000000000854
 31
0.0
  0
LINE
  5
8C3
330
1F
100
AcDbEntity
  8
10
100
AcDbLine
 10
494.7011214758311
 20
14.70577136594192
 30
0.0
 11
494.7011214758311
 21
30.29422863405989
 31
0.0
  0
LINE
  5
8C4
330
1F
100
AcDbEntity
  8
10
100
AcDbLine
 10
507.7011214758311
 20
9.500000000000907
 30
0.0
 11
507.7011214758311
 21
35.50000000000091
 31
0.0
  0
LINE
  5
8C5
330
1F
100
AcDbEntity
  8
10
100
AcDbLine
 10
504.7011214758311
 20
11.75000000000091
 30
0.0
 11
504.7011214758311
 21
33.25000000000091
 31
0.0
  0
LINE
  5
8C6
330
1F
100
AcDbEntity
  8
10
100
AcDbLine
 10
510.0011214758298
 20
35.50000000000091
 30
0.0
 11
510.0011214758298
 21
9.500000000000907
 31
0.0
  0
LINE
  5
8C7
330
1F
100
AcDbEntity
  8
10
100
AcDbLine
 10
523.0011214758308
 20
6.500000000000909
 30
0.0
 11
523.0011214758308
 21
42.50000000000091
 31
0.0
  0
LINE
  5
8C8
330
1F
100
AcDbEntity
  8
10
100
AcDbLine
 10
532.5011214758299
 20
-2.119999999997161
 30
0.0
 11
532.5011214758299
 21
56.56000000000084
 31
0.0
  0
LINE
  5
8C9
330
1F
100
AcDbEntity
  8
10
100
AcDbLine
 10
520.0011214758307
 20
11.75000000000091
 30
0.0
 11
520.0011214758307
 21
33.25000000000091
 31
0.0
  0
ARC
  5
8CA
330
1F
100
AcDbEntity
  8
10
100
AcDbCircle
 10
508.7011214758311
 20
22.50000000000091
 30
0.0
 40
14.0
100
AcDbArc
 50
158.2132107017312
 51
201.7867892982687
  0
ARC
  5
8CB
330
1F
100
AcDbEntity
  8
10
100
AcDbCircle
 10
524.0011214758308
 20
22.50000000000091
 30
0.0
 40
14.0
100
AcDbArc
 50
158.2132107017312
 51
201.7867892982687
  0
LINE
  5
8CC
330
1F
100
AcDbEntity
  8
10
100
AcDbLine
 10
520.0011214758307
 20
12.10769515458696
 30
0.0
 11
511.0011214758308
 21
12.10769515458696
 31
0.0
  0
LINE
  5
8CD
330
1F
100
AcDbEntity
  8
10
100
AcDbLine
 10
511.0011214758308
 20
17.30384757729189
 30
0.0
 11
520.0011214758307
 21
17.30384757729189
 31
0.0
  0
ARC
  5
8CE
330
1F
100
AcDbEntity
  8
10
100
AcDbCircle
 10
518.5011214758308
 20
6.500000000000909
 30
0.0
 40
4.5
100
AcDbArc
 50
270.0
 51
0.0
  0
ARC
  5
8CF
330
1F
100
AcDbEntity
  8
10
100
AcDbCircle
 10
518.5011214758308
 20
6.500000000000909
 30
0.0
 40
9.0
100
AcDbArc
 50
270.0
 51
0.0
  0
LINE
  5
8D0
330
1F
100
AcDbEntity
  8
10
100
AcDbLine
 10
527.5011214758308
 20
1.060000000000854
 30
0.0
 11
532.5011214758299
 21
1.060000000000854
 31
0.0
  0
LINE
  5
8D1
330
1F
100
AcDbEntity
  8
10
100
AcDbLine
 10
532.5011214758299
 20
-2.119999999997161
 30
0.0
 11
532.5011214758299
 21
-2.499999999999087
 31
0.0
  0
LINE
  5
8D2
330
1F
100
AcDbEntity
  8
10
100
AcDbLine
 10
523.0011214758308
 20
11.75000000000091
 30
0.0
 11
520.0011214758307
 21
11.75000000000091
 31
0.0
  0
LINE
  5
8D3
330
1F
100
AcDbEntity
  8
10
100
AcDbLine
 10
552.5011214758299
 20
2.500000000000909
 30
0.0
 11
552.5011214758299
 21
-2.499999999999087
 31
0.0
  0
LINE
  5
8D4
330
1F
100
AcDbEntity
  8
10
100
AcDbLine
 10
547.5011214758308
 20
-2.499999999999087
 30
0.0
 11
547.5011214758308
 21
7.500000000000909
 31
0.0
  0
LINE
  5
8D5
330
1F
100
AcDbEntity
  8
10
100
AcDbLine
 10
542.5011214758308
 20
12.50000000000091
 30
0.0
 11
542.5011214758308
 21
-2.499999999999087
 31
0.0
  0
LINE
  5
8D6
330
1F
100
AcDbEntity
  8
10
100
AcDbLine
 10
537.5011214758308
 20
-2.499999999999087
 30
0.0
 11
537.5011214758308
 21
17.50000000000091
 31
0.0
  0
LINE
  5
8D7
330
1F
100
AcDbEntity
  8
10
100
AcDbLine
 10
489.712080308737
 20
16.5000000000009
 30
0.0
 11
490.6372031224561
 21
12.79221066282571
 31
0.0
  0
LINE
  5
8D8
330
1F
100
AcDbEntity
  8
10
100
AcDbLine
 10
510.0011214758298
 20
9.500000000000907
 30
0.0
 11
507.7011214758311
 21
9.500000000000907
 31
0.0
  0
LINE
  5
8D9
330
1F
100
AcDbEntity
  8
10
100
AcDbLine
 10
495.7011214758311
 20
17.30384757729189
 30
0.0
 11
504.7011214758311
 21
17.30384757729189
 31
0.0
  0
LINE
  5
8DA
330
1F
100
AcDbEntity
  8
10
100
AcDbLine
 10
504.7011214758311
 20
12.10769515458696
 30
0.0
 11
495.7011214758311
 21
12.10769515458696
 31
0.0
  0
LINE
  5
8DB
330
1F
100
AcDbEntity
  8
10
100
AcDbLine
 10
507.7011214758311
 20
11.75000000000091
 30
0.0
 11
504.7011214758311
 21
11.75000000000091
 31
0.0
  0
LINE
  5
8DC
330
1F
100
AcDbEntity
  8
10
100
AcDbLine
 10
496.6372031224562
 20
10.00000000000091
 30
0.0
 11
507.7011214758311
 21
10.00000000000091
 31
0.0
  0
LINE
  5
8DD
330
1F
100
AcDbEntity
  8
10
100
AcDbLine
 10
494.4056883800337
 20
10.50000000000091
 30
0.0
 11
496.6372031224562
 21
10.00000000000091
 31
0.0
  0
LINE
  5
8DE
330
1F
100
AcDbEntity
  8
10
100
AcDbLine
 10
493.5216883800337
 20
10.7500000000009
 30
0.0
 11
494.4056883800337
 21
10.50000000000091
 31
0.0
  0
LINE
  5
8DF
330
1F
100
AcDbEntity
  8
10
100
AcDbLine
 10
491.6372031224548
 20
11.5000000000009
 30
0.0
 11
493.5216883800337
 21
10.7500000000009
 31
0.0
  0
LINE
  5
8E0
330
1F
100
AcDbEntity
  8
10
100
AcDbLine
 10
491.1372031224561
 20
11.87500000000091
 30
0.0
 11
491.6372031224548
 21
11.5000000000009
 31
0.0
  0
LINE
  5
8E1
330
1F
100
AcDbEntity
  8
10
100
AcDbLine
 10
490.6372031224561
 20
12.79221066282571
 30
0.0
 11
491.1372031224561
 21
11.87500000000091
 31
0.0
  0
LINE
  5
8E2
330
1F
100
AcDbEntity
  8
10
100
AcDbLine
 10
507.5011214758307
 20
-2.499999999999087
 30
0.0
 11
507.5011214758307
 21
2.000000000000909
 31
0.0
  0
LINE
  5
8E3
330
1F
100
AcDbEntity
  8
10
100
AcDbLine
 10
507.5011214758307
 20
2.000000000000909
 30
0.0
 11
518.5011214758308
 21
2.000000000000909
 31
0.0
  0
LINE
  5
8E4
330
1F
100
AcDbEntity
  8
10
100
AcDbLine
 10
518.5011214758308
 20
-2.499999999999087
 30
0.0
 11
507.5011214758307
 21
-2.499999999999087
 31
0.0
  0
ARC
  5
8E5
330
1F
100
AcDbEntity
  8
10
100
AcDbCircle
 10
498.5761214758309
 20
14.70577136594192
 30
0.0
 40
3.874999999998998
100
AcDbArc
 50
137.896551129279
 51
222.1034488707601
  0
ARC
  5
8E6
330
1F
100
AcDbEntity
  8
10
100
AcDbCircle
 10
513.8761214758298
 20
14.70577136594192
 30
0.0
 40
3.874999999998998
100
AcDbArc
 50
137.896551129279
 51
222.1034488707601
  0
LINE
  5
8E7
330
1F
100
AcDbEntity
  8
10
100
AcDbLine
 10
511.0011214758308
 20
32.89230484541392
 30
0.0
 11
520.0011214758307
 21
32.89230484541392
 31
0.0
  0
LINE
  5
8E8
330
1F
100
AcDbEntity
  8
10
100
AcDbLine
 10
520.0011214758307
 20
27.69615242270674
 30
0.0
 11
511.0011214758308
 21
27.69615242270674
 31
0.0
  0
LINE
  5
8E9
330
1F
100
AcDbEntity
  8
10
100
AcDbLine
 10
523.0011214758308
 20
42.50000000000091
 30
0.0
 11
527.5011214758308
 21
42.50000000000091
 31
0.0
  0
LINE
  5
8EA
330
1F
100
AcDbEntity
  8
10
100
AcDbLine
 10
520.0011214758307
 20
33.25000000000091
 30
0.0
 11
523.0011214758308
 21
33.25000000000091
 31
0.0
  0
LINE
  5
8EB
330
1F
100
AcDbEntity
  8
10
100
AcDbLine
 10
489.7560303640148
 20
28.50000000000091
 30
0.0
 11
490.6372031224561
 21
32.20778933717474
 31
0.0
  0
LINE
  5
8EC
330
1F
100
AcDbEntity
  8
10
100
AcDbLine
 10
507.7011214758311
 20
35.50000000000091
 30
0.0
 11
510.0011214758298
 21
35.50000000000091
 31
0.0
  0
LINE
  5
8ED
330
1F
100
AcDbEntity
  8
10
100
AcDbLine
 10
504.7011214758311
 20
27.69615242270674
 30
0.0
 11
495.7011214758311
 21
27.69615242270674
 31
0.0
  0
LINE
  5
8EE
330
1F
100
AcDbEntity
  8
10
100
AcDbLine
 10
495.7011214758311
 20
32.89230484541392
 30
0.0
 11
504.7011214758311
 21
32.89230484541392
 31
0.0
  0
LINE
  5
8EF
330
1F
100
AcDbEntity
  8
10
100
AcDbLine
 10
504.7011214758311
 20
33.25000000000091
 30
0.0
 11
507.7011214758311
 21
33.25000000000091
 31
0.0
  0
LINE
  5
8F0
330
1F
100
AcDbEntity
  8
10
100
AcDbLine
 10
496.6372031224562
 20
35.00000000000091
 30
0.0
 11
507.7011214758311
 21
35.00000000000091
 31
0.0
  0
LINE
  5
8F1
330
1F
100
AcDbEntity
  8
10
100
AcDbLine
 10
496.0231229300827
 20
34.86240731896214
 30
0.0
 11
496.6372031224562
 21
35.00000000000091
 31
0.0
  0
LINE
  5
8F2
330
1F
100
AcDbEntity
  8
10
100
AcDbLine
 10
493.5216883800337
 20
34.25000000000091
 30
0.0
 11
496.0231229300827
 21
34.86240731896214
 31
0.0
  0
LINE
  5
8F3
330
1F
100
AcDbEntity
  8
10
100
AcDbLine
 10
491.6372031224548
 20
33.50000000000091
 30
0.0
 11
493.5216883800337
 21
34.25000000000091
 31
0.0
  0
LINE
  5
8F4
330
1F
100
AcDbEntity
  8
10
100
AcDbLine
 10
491.1372031224561
 20
33.12500000000091
 30
0.0
 11
491.6372031224548
 21
33.50000000000091
 31
0.0
  0
LINE
  5
8F5
330
1F
100
AcDbEntity
  8
10
100
AcDbLine
 10
490.6372031224561
 20
32.20778933717474
 30
0.0
 11
491.1372031224561
 21
33.12500000000091
 31
0.0
  0
ARC
  5
8F6
330
1F
100
AcDbEntity
  8
10
100
AcDbCircle
 10
498.5761214758309
 20
30.29422863405989
 30
0.0
 40
3.875
100
AcDbArc
 50
137.8965511292397
 51
222.1034488707601
  0
ARC
  5
8F7
330
1F
100
AcDbEntity
  8
10
100
AcDbCircle
 10
513.8761214758298
 20
30.29422863405989
 30
0.0
 40
3.875
100
AcDbArc
 50
137.8965511292397
 51
222.1034488707601
  0
LINE
  5
8F8
330
1F
100
AcDbEntity
  8
10
100
AcDbLine
 10
401.501121475291
 20
89.06000000000084
 30
0.0
 11
438.001121475291
 21
89.06000000000084
 31
0.0
  0
LINE
  5
8F9
330
1F
100
AcDbEntity
  8
10
100
AcDbLine
 10
438.001121475291
 20
52.06000000000084
 30
0.0
 11
401.501121475291
 21
52.06000000000084
 31
0.0
  0
LINE
  5
8FA
330
1F
100
AcDbEntity
  8
10
100
AcDbLine
 10
417.5011214758308
 20
108.0600000000057
 30
0.0
 11
352.5011214758308
 21
108.0600000000057
 31
0.0
  0
LINE
  5
8FB
330
1F
100
AcDbEntity
  8
10
100
AcDbLine
 10
417.5011214758308
 20
33.06000000000585
 30
0.0
 11
352.5011214758308
 21
33.06000000000585
 31
0.0
  0
LINE
  5
8FC
330
1F
100
AcDbEntity
  8
10
100
AcDbLine
 10
478.7511214758298
 20
16.5000000000009
 30
0.0
 11
478.7511214758298
 21
28.50000000000091
 31
0.0
  0
LINE
  5
8FD
330
1F
100
AcDbEntity
  8
10
100
AcDbLine
 10
477.0011214758308
 20
18.25000000000089
 30
0.0
 11
477.0011214758308
 21
26.75000000000091
 31
0.0
  0
ARC
  5
8FE
330
1F
100
AcDbEntity
  8
10
100
AcDbCircle
 10
454.0011214758298
 20
22.50000000000091
 30
0.0
 40
5.0
100
AcDbArc
 50
90.0
 51
270.0
  0
LINE
  5
8FF
330
1F
100
AcDbEntity
  8
10
100
AcDbLine
 10
477.7511214758308
 20
17.50000000000091
 30
0.0
 11
454.0011214758298
 21
17.50000000000091
 31
0.0
  0
LINE
  5
900
330
1F
100
AcDbEntity
  8
10
100
AcDbLine
 10
480.0011214758308
 20
16.5000000000009
 30
0.0
 11
478.7511214758298
 21
16.5000000000009
 31
0.0
  0
LINE
  5
901
330
1F
100
AcDbEntity
  8
10
100
AcDbLine
 10
478.7511214758298
 20
16.5000000000009
 30
0.0
 11
477.0011214758308
 21
18.25000000000089
 31
0.0
  0
LINE
  5
902
330
1F
100
AcDbEntity
  8
10
100
AcDbLine
 10
478.7511214758298
 20
28.50000000000091
 30
0.0
 11
477.0011214758308
 21
26.75000000000091
 31
0.0
  0
LINE
  5
903
330
1F
100
AcDbEntity
  8
10
100
AcDbLine
 10
478.7511214758298
 20
28.50000000000091
 30
0.0
 11
480.0011214758308
 21
28.50000000000091
 31
0.0
  0
LINE
  5
904
330
1F
100
AcDbEntity
  8
10
100
AcDbLine
 10
454.0011214758298
 20
27.50000000000091
 30
0.0
 11
477.7511214758308
 21
27.50000000000091
 31
0.0
  0
LINE
  5
905
330
1F
100
AcDbEntity
  8
10
100
AcDbLine
 10
438.001121475291
 20
89.06000000000084
 30
0.0
 11
438.001121475291
 21
52.06000000000084
 31
0.0
  0
LINE
  5
906
330
1F
100
AcDbEntity
  8
10
100
AcDbLine
 10
417.5011214758308
 20
52.06000000000084
 30
0.0
 11
417.5011214758308
 21
33.06000000000585
 31
0.0
  0
LINE
  5
907
330
1F
100
AcDbEntity
  8
10
100
AcDbLine
 10
417.5011214758308
 20
108.0600000000057
 30
0.0
 11
417.5011214758308
 21
89.06000000000084
 31
0.0
  0
LINE
  5
908
330
1F
100
AcDbEntity
  8
10
100
AcDbLine
 10
384.4293247055698
 20
82.56000000000586
 30
0.0
 11
370.5729182450188
 21
82.56000000000586
 31
0.0
  0
LINE
  5
909
330
1F
100
AcDbEntity
  8
10
100
AcDbLine
 10
370.5729182450188
 20
58.56000000000586
 30
0.0
 11
384.4293247055698
 21
58.56000000000586
 31
0.0
  0
ARC
  5
90A
330
1F
100
AcDbEntity
  8
10
100
AcDbCircle
 10
377.5011214752909
 20
70.56000000000086
 30
0.0
 40
25.24999999999899
100
AcDbArc
 50
75.00000000000555
 51
104.9999999999944
  0
ARC
  5
90B
330
1F
100
AcDbEntity
  8
10
100
AcDbCircle
 10
377.5011214752909
 20
70.56000000000086
 30
0.0
 40
25.25
100
AcDbArc
 50
255.0000000000055
 51
284.9999999999943
  0
CIRCLE
  5
90C
330
1F
100
AcDbEntity
  8
10
100
AcDbCircle
 10
377.5011214752928
 20
70.56000000000586
 30
0.0
 40
16.0
  0
CIRCLE
  5
90D
330
1F
100
AcDbEntity
  8
10
100
AcDbCircle
 10
377.5011214752928
 20
70.56000000000586
 30
0.0
 40
14.0
  0
CIRCLE
  5
90E
330
1F
100
AcDbEntity
  8
10
100
AcDbCircle
 10
377.5011214752928
 20
70.56000000000586
 30
0.0
 40
8.0
  0
CIRCLE
  5
90F
330
1F
100
AcDbEntity
  8
10
100
AcDbCircle
 10
377.5011214752928
 20
70.56000000000586
 30
0.0
 40
12.0
  0
LINE
  5
910
330
1F
100
AcDbEntity
  8
10
100
AcDbLine
 10
401.501121475291
 20
52.06000000000084
 30
0.0
 11
401.501121475291
 21
89.06000000000084
 31
0.0
  0
LINE
  5
911
330
1F
100
AcDbEntity
  8
10
100
AcDbLine
 10
391.3575279358448
 20
70.56000000000586
 30
0.0
 11
384.4293247055698
 21
82.56000000000586
 31
0.0
  0
LINE
  5
912
330
1F
100
AcDbEntity
  8
10
 48
10.0
100
AcDbLine
 10
407.5011214758298
 20
33.06000000000585
 30
0.0
 11
407.5011214758298
 21
52.06000000000084
 31
0.0
  0
LINE
  5
913
330
1F
100
AcDbEntity
  8
10
100
AcDbLine
 10
384.4293247055698
 20
58.56000000000586
 30
0.0
 11
391.3575279358448
 21
70.56000000000586
 31
0.0
  0
ARC
  5
914
330
1F
100
AcDbEntity
  8
10
100
AcDbCircle
 10
377.501121475296
 20
70.55999999999177
 30
0.0
 40
25.24999999999
100
AcDbArc
 50
284.9999999999943
 51
301.4172756580433
  0
ARC
  5
915
330
1F
100
AcDbEntity
  8
10
100
AcDbCircle
 10
401.501121475291
 20
31.26833333333387
 30
0.0
 40
20.79166666666699
100
AcDbArc
 50
90.0
 51
121.4172756580431
  0
ARC
  5
916
330
1F
100
AcDbEntity
  8
10
100
AcDbCircle
 10
377.5011214752928
 20
70.56000000000586
 30
0.0
 40
25.249999999994
100
AcDbArc
 50
58.58272434195664
 51
77.7024279954082
  0
ARC
  5
917
330
1F
100
AcDbEntity
  8
10
100
AcDbCircle
 10
401.501121475291
 20
109.8516666666669
 30
0.0
 40
20.79166666666599
100
AcDbArc
 50
238.5827243419566
 51
270.0
  0
LINE
  5
918
330
1F
100
AcDbEntity
  8
10
100
AcDbLine
 10
370.5729182450188
 20
82.56000000000586
 30
0.0
 11
363.644715014743
 21
70.56000000000586
 31
0.0
  0
ARC
  5
919
330
1F
100
AcDbEntity
  8
10
100
AcDbCircle
 10
377.5011214752909
 20
70.56000000000086
 30
0.0
 40
25.5
100
AcDbArc
 50
165.0000000000054
 51
194.9999999999944
  0
LINE
  5
91A
330
1F
100
AcDbEntity
  8
10
100
AcDbLine
 10
352.5011214758308
 20
65.53506218675602
 30
0.0
 11
352.5011214758308
 21
33.06000000000585
 31
0.0
  0
LINE
  5
91B
330
1F
100
AcDbEntity
  8
10
100
AcDbLine
 10
363.644715014743
 20
70.56000000000586
 30
0.0
 11
370.5729182450188
 21
58.56000000000586
 31
0.0
  0
ARC
  5
91C
330
1F
100
AcDbEntity
  8
10
100
AcDbCircle
 10
377.6324721406806
 20
71.05020735684274
 30
0.0
 40
25.7575
100
AcDbArc
 50
195.9777023949689
 51
255.0000000000055
  0
LINE
  5
91D
330
1F
100
AcDbEntity
  8
10
100
AcDbLine
 10
352.5011214758308
 20
107.8112254902015
 30
0.0
 11
352.5011214758308
 21
75.58493781324705
 31
0.0
  0
ARC
  5
91E
330
1F
100
AcDbEntity
  8
10
100
AcDbCircle
 10
377.6324721406806
 20
70.06979264315759
 30
0.0
 40
25.75750000000101
100
AcDbArc
 50
104.9999999999944
 51
164.0222976050309
  0
LINE
  5
91F
330
1F
100
AcDbEntity
  8
10
100
AcDbLine
 10
352.5011214758308
 20
351.9399999999959
 30
0.0
 11
417.5011214758308
 21
351.9399999999959
 31
0.0
  0
ARC
  5
920
330
1F
100
AcDbEntity
  8
10
100
AcDbCircle
 10
377.5011214752909
 20
389.44
 30
0.0
 40
25.24999999999899
100
AcDbArc
 50
255.0000000000055
 51
284.9999999999943
  0
LINE
  5
921
330
1F
100
AcDbEntity
  8
10
100
AcDbLine
 10
689.5011214758299
 20
403.4399999999997
 30
0.0
 11
438.001121475291
 21
403.4399999999997
 31
0.0
  0
LINE
  5
922
330
1F
100
AcDbEntity
  8
10
100
AcDbLine
 10
647.5011214758308
 20
407.9399999999997
 30
0.0
 11
532.5011214758299
 21
407.9399999999997
 31
0.0
  0
LINE
  5
923
330
1F
100
AcDbEntity
  8
10
100
AcDbLine
 10
532.5011214758299
 20
412.5000000000008
 30
0.0
 11
647.5011214758308
 21
412.5000000000008
 31
0.0
  0
LINE
  5
924
330
1F
100
AcDbEntity
  8
10
100
AcDbLine
 10
647.5011214758308
 20
462.5000000000008
 30
0.0
 11
532.5011214758299
 21
462.5000000000008
 31
0.0
  0
LINE
  5
925
330
1F
100
AcDbEntity
  8
10
100
AcDbLine
 10
661.5011214758299
 20
415.0000000000008
 30
0.0
 11
703.5011214758307
 21
415.0000000000008
 31
0.0
  0
LINE
  5
926
330
1F
100
AcDbEntity
  8
10
100
AcDbLine
 10
703.5011214758307
 20
419.5000000000008
 30
0.0
 11
661.5011214758299
 21
419.5000000000008
 31
0.0
  0
ARC
  5
927
330
1F
100
AcDbEntity
  8
10
100
AcDbCircle
 10
703.5011214758307
 20
424.0000000000008
 30
0.0
 40
4.5
100
AcDbArc
 50
270.0
 51
0.0
  0
ARC
  5
928
330
1F
100
AcDbEntity
  8
10
100
AcDbCircle
 10
703.5011214758307
 20
424.0000000000008
 30
0.0
 40
9.0
100
AcDbArc
 50
270.0
 51
0.0
  0
LINE
  5
929
330
1F
100
AcDbEntity
  8
10
100
AcDbLine
 10
708.0011214758298
 20
460.0000000000008
 30
0.0
 11
708.0011214758298
 21
424.0000000000008
 31
0.0
  0
LINE
  5
92A
330
1F
100
AcDbEntity
  8
10
100
AcDbLine
 10
712.5011214758306
 20
424.0000000000008
 30
0.0
 11
712.5011214758306
 21
460.0000000000008
 31
0.0
  0
LINE
  5
92B
330
1F
100
AcDbEntity
  8
10
 48
4.0
100
AcDbLine
 10
708.0011214758298
 20
446.0000000000008
 30
0.0
 11
712.5011214758306
 21
446.0000000000008
 31
0.0
  0
LINE
  5
92C
330
1F
100
AcDbEntity
  8
10
 48
4.0
100
AcDbLine
 10
708.0011214758298
 20
424.0000000000008
 30
0.0
 11
712.5011214758306
 21
424.0000000000008
 31
0.0
  0
LINE
  5
92D
330
1F
100
AcDbEntity
  8
10
100
AcDbLine
 10
712.5011214758306
 20
460.0000000000008
 30
0.0
 11
708.0011214758298
 21
460.0000000000008
 31
0.0
  0
LINE
  5
92E
330
1F
100
AcDbEntity
  8
12
 48
2.0
100
AcDbLine
 10
706.0011214758307
 20
435.0000000000008
 30
0.0
 11
714.5011214758307
 21
435.0000000000008
 31
0.0
  0
LINE
  5
92F
330
1F
100
AcDbEntity
  8
10
100
AcDbLine
 10
657.0011214758308
 20
432.3038475772928
 30
0.0
 11
663.6972738985368
 21
432.3038475772928
 31
0.0
  0
LINE
  5
930
330
1F
100
AcDbEntity
  8
10
100
AcDbLine
 10
657.0011214758308
 20
442.6961524227087
 30
0.0
 11
663.6972738985368
 21
442.6961524227087
 31
0.0
  0
LINE
  5
931
330
1F
100
AcDbEntity
  8
10
100
AcDbLine
 10
663.6972738985368
 20
427.1076951545867
 30
0.0
 11
657.0011214758308
 21
427.1076951545867
 31
0.0
  0
LINE
  5
932
330
1F
100
AcDbEntity
  8
10
100
AcDbLine
 10
657.0011214758308
 20
447.8923048454126
 30
0.0
 11
663.6972738985368
 21
447.8923048454126
 31
0.0
  0
ARC
  5
933
330
1F
100
AcDbEntity
  8
10
100
AcDbCircle
 10
661.5011214758299
 20
424.0000000000008
 30
0.0
 40
4.5
100
AcDbArc
 50
180.0
 51
270.0
  0
ARC
  5
934
330
1F
100
AcDbEntity
  8
10
100
AcDbCircle
 10
661.5011214758299
 20
424.0000000000008
 30
0.0
 40
9.0
100
AcDbArc
 50
180.0
 51
270.0
  0
LINE
  5
935
330
1F
100
AcDbEntity
  8
10
100
AcDbLine
 10
664.5011214758308
 20
429.7057713659405
 30
0.0
 11
664.5011214758308
 21
445.2942286340594
 31
0.0
  0
ARC
  5
936
330
1F
100
AcDbEntity
  8
10
100
AcDbCircle
 10
647.3049690531237
 20
437.5
 30
0.0
 40
17.196152422707
100
AcDbArc
 50
342.4120462260126
 51
17.58795377398735
  0
LINE
  5
937
330
1F
100
AcDbEntity
  8
10
100
AcDbLine
 10
647.5011214758308
 20
403.4399999999997
 30
0.0
 11
647.5011214758308
 21
462.119999999999
 31
0.0
  0
LINE
  5
938
330
1F
100
AcDbEntity
  8
10
100
AcDbLine
 10
652.5011214758308
 20
459.6199999999988
 30
0.0
 11
652.5011214758308
 21
403.4399999999997
 31
0.0
  0
LINE
  5
939
330
1F
100
AcDbEntity
  8
10
100
AcDbLine
 10
647.5011214758308
 20
458.940000000001
 30
0.0
 11
652.5011214758308
 21
458.940000000001
 31
0.0
  0
LINE
  5
93A
330
1F
100
AcDbEntity
  8
10
100
AcDbLine
 10
652.5011214758308
 20
459.6199999999988
 30
0.0
 11
652.5011214758308
 21
460.0000000000008
 31
0.0
  0
LINE
  5
93B
330
1F
100
AcDbEntity
  8
10
100
AcDbLine
 10
647.5011214758308
 20
462.119999999999
 30
0.0
 11
647.5011214758308
 21
462.5000000000008
 31
0.0
  0
LINE
  5
93C
330
1F
100
AcDbEntity
  8
10
100
AcDbLine
 10
627.5011214758308
 20
442.5000000000008
 30
0.0
 11
627.5011214758308
 21
462.5000000000008
 31
0.0
  0
LINE
  5
93D
330
1F
100
AcDbEntity
  8
10
100
AcDbLine
 10
632.5011214758307
 20
462.5000000000008
 30
0.0
 11
632.5011214758307
 21
447.5000000000008
 31
0.0
  0
LINE
  5
93E
330
1F
100
AcDbEntity
  8
10
100
AcDbLine
 10
637.5011214758308
 20
452.5000000000008
 30
0.0
 11
637.5011214758308
 21
462.5000000000008
 31
0.0
  0
LINE
  5
93F
330
1F
100
AcDbEntity
  8
10
100
AcDbLine
 10
642.5011214758308
 20
457.5000000000009
 30
0.0
 11
642.5011214758308
 21
462.5000000000008
 31
0.0
  0
LINE
  5
940
330
1F
100
AcDbEntity
  8
10
100
AcDbLine
 10
657.0011214758308
 20
424.0000000000008
 30
0.0
 11
657.0011214758308
 21
460.0000000000008
 31
0.0
  0
LINE
  5
941
330
1F
100
AcDbEntity
  8
10
100
AcDbLine
 10
657.0011214758308
 20
460.0000000000008
 30
0.0
 11
652.5011214758308
 21
460.0000000000008
 31
0.0
  0
LINE
  5
942
330
1F
100
AcDbEntity
  8
10
100
AcDbLine
 10
438.001121475291
 20
375.4399999999998
 30
0.0
 11
490.5011214758308
 21
375.4399999999998
 31
0.0
  0
LINE
  5
943
330
1F
100
AcDbEntity
  8
10
100
AcDbLine
 10
490.9448302410996
 20
432.5000000000009
 30
0.0
 11
454.0011214758298
 21
432.5000000000009
 31
0.0
  0
LINE
  5
944
330
1F
100
AcDbEntity
  8
10
100
AcDbLine
 10
490.9448302410996
 20
442.5000000000008
 30
0.0
 11
454.0011214758298
 21
442.5000000000008
 31
0.0
  0
LINE
  5
946
330
1F
100
AcDbEntity
  8
10
100
AcDbLine
 10
592.5011214758308
 20
462.5000000000008
 30
0.0
 11
592.5011214758308
 21
417.5000000000008
 31
0.0
  0
LINE
  5
947
330
1F
100
AcDbEntity
  8
10
100
AcDbLine
 10
597.5011214758299
 20
412.5000000000008
 30
0.0
 11
597.5011214758299
 21
462.5000000000008
 31
0.0
  0
LINE
  5
948
330
1F
100
AcDbEntity
  8
10
100
AcDbLine
 10
602.5011214758308
 20
462.5000000000008
 30
0.0
 11
602.5011214758308
 21
417.5000000000008
 31
0.0
  0
LINE
  5
949
330
1F
100
AcDbEntity
  8
10
100
AcDbLine
 10
607.5011214758307
 20
422.5000000000008
 30
0.0
 11
607.5011214758307
 21
462.5000000000008
 31
0.0
  0
LINE
  5
94A
330
1F
100
AcDbEntity
  8
10
100
AcDbLine
 10
612.5011214758298
 20
462.5000000000008
 30
0.0
 11
612.5011214758298
 21
427.5000000000008
 31
0.0
  0
LINE
  5
94B
330
1F
100
AcDbEntity
  8
10
100
AcDbLine
 10
617.5011214758308
 20
432.5000000000009
 30
0.0
 11
617.5011214758308
 21
462.5000000000008
 31
0.0
  0
LINE
  5
94C
330
1F
100
AcDbEntity
  8
10
100
AcDbLine
 10
622.5011214758299
 20
462.5000000000008
 30
0.0
 11
622.5011214758299
 21
437.5
 31
0.0
  0
LINE
  5
94E
330
1F
100
AcDbEntity
  8
10
100
AcDbLine
 10
557.5011214758307
 20
452.5000000000008
 30
0.0
 11
557.5011214758307
 21
462.5000000000008
 31
0.0
  0
LINE
  5
94F
330
1F
100
AcDbEntity
  8
10
100
AcDbLine
 10
562.5011214758308
 20
462.5000000000008
 30
0.0
 11
562.5011214758308
 21
447.5000000000008
 31
0.0
  0
LINE
  5
950
330
1F
100
AcDbEntity
  8
10
100
AcDbLine
 10
567.5011214758308
 20
442.5000000000008
 30
0.0
 11
567.5011214758308
 21
462.5000000000008
 31
0.0
  0
LINE
  5
951
330
1F
100
AcDbEntity
  8
10
100
AcDbLine
 10
572.5011214758299
 20
462.5000000000008
 30
0.0
 11
572.5011214758299
 21
437.5
 31
0.0
  0
LINE
  5
952
330
1F
100
AcDbEntity
  8
10
100
AcDbLine
 10
577.5011214758299
 20
432.5000000000009
 30
0.0
 11
577.5011214758299
 21
462.5000000000008
 31
0.0
  0
LINE
  5
953
330
1F
100
AcDbEntity
  8
10
100
AcDbLine
 10
582.5011214758307
 20
462.5000000000008
 30
0.0
 11
582.5011214758307
 21
427.5000000000008
 31
0.0
  0
LINE
  5
954
330
1F
100
AcDbEntity
  8
10
100
AcDbLine
 10
587.5011214758308
 20
422.5000000000008
 30
0.0
 11
587.5011214758308
 21
462.5000000000008
 31
0.0
  0
LINE
  5
956
330
1F
100
AcDbEntity
  8
10
100
AcDbLine
 10
511.0011214758308
 20
432.3038475772928
 30
0.0
 11
520.0011214758307
 21
432.3038475772928
 31
0.0
  0
LINE
  5
957
330
1F
100
AcDbEntity
  8
10
100
AcDbLine
 10
520.0011214758307
 20
442.6961524227087
 30
0.0
 11
511.0011214758308
 21
442.6961524227087
 31
0.0
  0
LINE
  5
958
330
1F
100
AcDbEntity
  8
10
100
AcDbLine
 10
511.0011214758308
 20
447.8923048454126
 30
0.0
 11
520.0011214758307
 21
447.8923048454126
 31
0.0
  0
LINE
  5
959
330
1F
100
AcDbEntity
  8
10
100
AcDbLine
 10
520.0011214758307
 20
427.1076951545867
 30
0.0
 11
511.0011214758308
 21
427.1076951545867
 31
0.0
  0
ARC
  5
95A
330
1F
100
AcDbEntity
  8
10
100
AcDbCircle
 10
518.5011214758308
 20
453.5
 30
0.0
 40
9.0
100
AcDbArc
 50
0.0
 51
90.0
  0
ARC
  5
95B
330
1F
100
AcDbEntity
  8
10
100
AcDbCircle
 10
518.5011214758308
 20
453.5
 30
0.0
 40
4.5
100
AcDbArc
 50
0.0
 51
90.0
  0
LINE
  5
95C
330
1F
100
AcDbEntity
  8
10
100
AcDbLine
 10
527.5011214758308
 20
403.4399999999997
 30
0.0
 11
527.5011214758308
 21
458.940000000001
 31
0.0
  0
LINE
  5
95D
330
1F
100
AcDbEntity
  8
10
100
AcDbLine
 10
532.5011214758299
 20
403.4399999999997
 30
0.0
 11
532.5011214758299
 21
462.119999999999
 31
0.0
  0
LINE
  5
95E
330
1F
100
AcDbEntity
  8
10
100
AcDbLine
 10
523.0011214758308
 20
417.5000000000008
 30
0.0
 11
523.0011214758308
 21
453.5
 31
0.0
  0
LINE
  5
95F
330
1F
100
AcDbEntity
  8
10
100
AcDbLine
 10
527.5011214758308
 20
417.5000000000008
 30
0.0
 11
523.0011214758308
 21
417.5000000000008
 31
0.0
  0
LINE
  5
960
330
1F
100
AcDbEntity
  8
10
100
AcDbLine
 10
532.5011214758299
 20
462.119999999999
 30
0.0
 11
532.5011214758299
 21
462.5000000000008
 31
0.0
  0
LINE
  5
961
330
1F
100
AcDbEntity
  8
10
100
AcDbLine
 10
527.5011214758308
 20
458.940000000001
 30
0.0
 11
532.5011214758299
 21
458.940000000001
 31
0.0
  0
LINE
  5
962
330
1F
100
AcDbEntity
  8
10
100
AcDbLine
 10
537.5011214758308
 20
442.5000000000008
 30
0.0
 11
537.5011214758308
 21
462.5000000000008
 31
0.0
  0
LINE
  5
963
330
1F
100
AcDbEntity
  8
10
100
AcDbLine
 10
542.5011214758308
 20
462.5000000000008
 30
0.0
 11
542.5011214758308
 21
447.5000000000008
 31
0.0
  0
LINE
  5
964
330
1F
100
AcDbEntity
  8
10
100
AcDbLine
 10
547.5011214758308
 20
452.5000000000008
 30
0.0
 11
547.5011214758308
 21
462.5000000000008
 31
0.0
  0
LINE
  5
965
330
1F
100
AcDbEntity
  8
10
100
AcDbLine
 10
552.5011214758299
 20
462.5000000000008
 30
0.0
 11
552.5011214758299
 21
457.5000000000009
 31
0.0
  0
LINE
  5
966
330
1F
100
AcDbEntity
  8
10
100
AcDbLine
 10
520.0011214758307
 20
426.7500000000008
 30
0.0
 11
520.0011214758307
 21
448.2500000000008
 31
0.0
  0
LINE
  5
967
330
1F
100
AcDbEntity
  8
10
100
AcDbLine
 10
523.0011214758308
 20
426.7500000000008
 30
0.0
 11
520.0011214758307
 21
426.7500000000008
 31
0.0
  0
LINE
  5
968
330
1F
100
AcDbEntity
  8
10
100
AcDbLine
 10
520.0011214758307
 20
448.2500000000008
 30
0.0
 11
523.0011214758308
 21
448.2500000000008
 31
0.0
  0
LINE
  5
969
330
1F
100
AcDbEntity
  8
10
100
AcDbLine
 10
507.5011214758307
 20
462.5000000000008
 30
0.0
 11
518.5011214758308
 21
462.5000000000008
 31
0.0
  0
LINE
  5
96A
330
1F
100
AcDbEntity
  8
10
100
AcDbLine
 10
518.5011214758308
 20
458.0000000000008
 30
0.0
 11
507.5011214758307
 21
458.0000000000008
 31
0.0
  0
LINE
  5
96B
330
1F
100
AcDbEntity
  8
10
100
AcDbLine
 10
507.5011214758307
 20
458.0000000000008
 30
0.0
 11
507.5011214758307
 21
462.5000000000008
 31
0.0
  0
LINE
  5
96C
330
1F
100
AcDbEntity
  8
10
100
AcDbLine
 10
489.6372031224561
 20
432.0000000000008
 30
0.0
 11
489.601488836741
 21
432.5000000000009
 31
0.0
  0
LINE
  5
96D
330
1F
100
AcDbEntity
  8
10
100
AcDbLine
 10
489.6372031224561
 20
443.199900565879
 30
0.0
 11
489.5899112727558
 21
442.5000000000008
 31
0.0
  0
LINE
  5
96E
330
1F
100
AcDbEntity
  8
10
100
AcDbLine
 10
490.6372031224561
 20
447.2077893371755
 30
0.0
 11
489.6372031224561
 21
443.199900565879
 31
0.0
  0
LINE
  5
96F
330
1F
100
AcDbEntity
  8
10
100
AcDbLine
 10
491.1372031224561
 20
448.1250000000009
 30
0.0
 11
490.6372031224561
 21
447.2077893371755
 31
0.0
  0
LINE
  5
970
330
1F
100
AcDbEntity
  8
10
100
AcDbLine
 10
491.6372031224548
 20
448.5000000000008
 30
0.0
 11
491.1372031224561
 21
448.1250000000009
 31
0.0
  0
LINE
  5
971
330
1F
100
AcDbEntity
  8
10
100
AcDbLine
 10
493.5216883800337
 20
449.2500000000008
 30
0.0
 11
491.6372031224548
 21
448.5000000000008
 31
0.0
  0
LINE
  5
972
330
1F
100
AcDbEntity
  8
10
100
AcDbLine
 10
494.4056883800337
 20
449.5000000000008
 30
0.0
 11
493.5216883800337
 21
449.2500000000008
 31
0.0
  0
LINE
  5
973
330
1F
100
AcDbEntity
  8
10
100
AcDbLine
 10
496.6372031224562
 20
450.0000000000008
 30
0.0
 11
494.4056883800337
 21
449.5000000000008
 31
0.0
  0
LINE
  5
974
330
1F
100
AcDbEntity
  8
10
100
AcDbLine
 10
510.0011214758298
 20
450.0000000000008
 30
0.0
 11
496.6372031224562
 21
450.0000000000008
 31
0.0
  0
LINE
  5
975
330
1F
100
AcDbEntity
  8
10
100
AcDbLine
 10
490.6372031224561
 20
427.7922106628251
 30
0.0
 11
489.6372031224561
 21
432.0000000000008
 31
0.0
  0
LINE
  5
976
330
1F
100
AcDbEntity
  8
10
100
AcDbLine
 10
491.1372031224561
 20
426.8750000000008
 30
0.0
 11
490.6372031224561
 21
427.7922106628251
 31
0.0
  0
LINE
  5
977
330
1F
100
AcDbEntity
  8
10
100
AcDbLine
 10
491.6372031224548
 20
426.5000000000008
 30
0.0
 11
491.1372031224561
 21
426.8750000000008
 31
0.0
  0
LINE
  5
978
330
1F
100
AcDbEntity
  8
10
100
AcDbLine
 10
493.5216883800337
 20
425.7500000000008
 30
0.0
 11
491.6372031224548
 21
426.5000000000008
 31
0.0
  0
LINE
  5
979
330
1F
100
AcDbEntity
  8
10
100
AcDbLine
 10
496.0231229300827
 20
425.1375926810379
 30
0.0
 11
493.5216883800337
 21
425.7500000000008
 31
0.0
  0
LINE
  5
97A
330
1F
100
AcDbEntity
  8
10
100
AcDbLine
 10
496.6372031224562
 20
425.0000000000008
 30
0.0
 11
496.0231229300827
 21
425.1375926810379
 31
0.0
  0
LINE
  5
97B
330
1F
100
AcDbEntity
  8
10
100
AcDbLine
 10
510.0011214758298
 20
425.0000000000008
 30
0.0
 11
496.6372031224562
 21
425.0000000000008
 31
0.0
  0
LINE
  5
97C
330
1F
100
AcDbEntity
  8
10
100
AcDbLine
 10
510.0011214758298
 20
450.0000000000008
 30
0.0
 11
510.0011214758298
 21
425.0000000000008
 31
0.0
  0
ARC
  5
97D
330
1F
100
AcDbEntity
  8
10
100
AcDbCircle
 10
513.8761214758298
 20
445.2942286340594
 30
0.0
 40
3.875
100
AcDbArc
 50
137.8965511292397
 51
222.1034488707209
  0
ARC
  5
97E
330
1F
100
AcDbEntity
  8
10
100
AcDbCircle
 10
513.8761214758298
 20
429.7057713659405
 30
0.0
 40
3.874999999998998
100
AcDbArc
 50
137.896551129279
 51
222.1034488707601
  0
ARC
  5
97F
330
1F
100
AcDbEntity
  8
10
100
AcDbCircle
 10
524.0011214758308
 20
437.5
 30
0.0
 40
14.0
100
AcDbArc
 50
158.2132107017312
 51
201.7867892982687
  0
ARC
  5
980
330
1F
100
AcDbEntity
  8
10
100
AcDbCircle
 10
490.9448302410996
 20
437.5
 30
0.0
 40
5.0
100
AcDbArc
 50
270.0
 51
90.0
  0
LINE
  5
981
330
1F
100
AcDbEntity
  8
10
100
AcDbLine
 10
352.5011214758308
 20
426.939999999996
 30
0.0
 11
417.5011214758308
 21
426.939999999996
 31
0.0
  0
LINE
  5
982
330
1F
100
AcDbEntity
  8
10
100
AcDbLine
 10
401.501121475291
 20
407.9399999999997
 30
0.0
 11
438.001121475291
 21
407.9399999999997
 31
0.0
  0
LINE
  5
983
330
1F
100
AcDbEntity
  8
10
100
AcDbLine
 10
438.001121475291
 20
370.9400000000008
 30
0.0
 11
401.501121475291
 21
370.9400000000008
 31
0.0
  0
ARC
  5
984
330
1F
100
AcDbEntity
  8
10
100
AcDbCircle
 10
454.0011214758298
 20
437.5
 30
0.0
 40
5.0
100
AcDbArc
 50
90.0
 51
270.0
  0
LINE
  5
985
330
1F
100
AcDbEntity
  8
10
100
AcDbLine
 10
417.5011214758308
 20
426.939999999996
 30
0.0
 11
417.5011214758308
 21
407.9399999999997
 31
0.0
  0
LINE
  5
986
330
1F
100
AcDbEntity
  8
10
100
AcDbLine
 10
438.001121475291
 20
407.9399999999997
 30
0.0
 11
438.001121475291
 21
370.9400000000008
 31
0.0
  0
LINE
  5
987
330
1F
100
AcDbEntity
  8
10
100
AcDbLine
 10
384.4293247055698
 20
401.4399999999959
 30
0.0
 11
370.5729182450188
 21
401.4399999999959
 31
0.0
  0
LINE
  5
988
330
1F
100
AcDbEntity
  8
10
100
AcDbLine
 10
370.5729182450188
 20
377.4399999999959
 30
0.0
 11
384.4293247055698
 21
377.4399999999959
 31
0.0
  0
ARC
  5
989
330
1F
100
AcDbEntity
  8
10
100
AcDbCircle
 10
377.5011214752909
 20
389.44
 30
0.0
 40
25.25
100
AcDbArc
 50
75.00000000000555
 51
104.9999999999944
  0
CIRCLE
  5
98A
330
1F
100
AcDbEntity
  8
10
100
AcDbCircle
 10
377.5011214752928
 20
389.4399999999959
 30
0.0
 40
12.0
  0
CIRCLE
  5
98B
330
1F
100
AcDbEntity
  8
10
100
AcDbCircle
 10
377.5011214752928
 20
389.4399999999959
 30
0.0
 40
8.0
  0
CIRCLE
  5
98C
330
1F
100
AcDbEntity
  8
10
100
AcDbCircle
 10
377.5011214752928
 20
389.4399999999959
 30
0.0
 40
14.0
  0
CIRCLE
  5
98D
330
1F
100
AcDbEntity
  8
10
100
AcDbCircle
 10
377.5011214752928
 20
389.4399999999959
 30
0.0
 40
16.0
  0
LINE
  5
98E
330
1F
100
AcDbEntity
  8
10
100
AcDbLine
 10
391.3575279358448
 20
389.4399999999959
 30
0.0
 11
384.4293247055698
 21
401.4399999999959
 31
0.0
  0
LINE
  5
98F
330
1F
100
AcDbEntity
  8
10
100
AcDbLine
 10
384.4293247055698
 20
377.4399999999959
 30
0.0
 11
391.3575279358448
 21
389.4399999999959
 31
0.0
  0
LINE
  5
990
330
1F
100
AcDbEntity
  8
10
100
AcDbLine
 10
401.501121475291
 20
370.9400000000008
 30
0.0
 11
401.501121475291
 21
407.9399999999997
 31
0.0
  0
ARC
  5
991
330
1F
100
AcDbEntity
  8
10
100
AcDbCircle
 10
401.501121475291
 20
428.7316666666668
 30
0.0
 40
20.79166666666599
100
AcDbArc
 50
238.5827243419566
 51
270.0
  0
ARC
  5
992
330
1F
100
AcDbEntity
  8
10
100
AcDbCircle
 10
377.501121475296
 20
389.44000000001
 30
0.0
 40
25.24999999999
100
AcDbArc
 50
58.58272434195664
 51
75.00000000000555
  0
ARC
  5
993
330
1F
100
AcDbEntity
  8
10
100
AcDbCircle
 10
401.501121475291
 20
350.1483333333339
 30
0.0
 40
20.79166666666599
100
AcDbArc
 50
90.0
 51
121.4172756580431
  0
LINE
  5
994
330
1F
100
AcDbEntity
  8
10
100
AcDbLine
 10
352.5011214758308
 20
426.939999999996
 30
0.0
 11
352.5011214758308
 21
394.4649378132447
 31
0.0
  0
LINE
  5
995
330
1F
100
AcDbEntity
  8
10
100
AcDbLine
 10
363.644715014743
 20
389.4399999999959
 30
0.0
 11
370.5729182450188
 21
377.4399999999959
 31
0.0
  0
LINE
  5
996
330
1F
100
AcDbEntity
  8
10
100
AcDbLine
 10
370.5729182450188
 20
401.4399999999959
 30
0.0
 11
363.644715014743
 21
389.4399999999959
 31
0.0
  0
ARC
  5
997
330
1F
100
AcDbEntity
  8
10
100
AcDbCircle
 10
377.5011214752909
 20
389.44
 30
0.0
 40
25.5
100
AcDbArc
 50
165.0000000000054
 51
194.9999999999944
  0
ARC
  5
998
330
1F
100
AcDbEntity
  8
10
100
AcDbCircle
 10
377.6324721406806
 20
388.9497926431581
 30
0.0
 40
25.7575
100
AcDbArc
 50
104.9999999999944
 51
164.0222976050309
  0
LINE
  5
999
330
1F
100
AcDbEntity
  8
10
100
AcDbLine
 10
14.75779159605576
 20
465.0
 30
0.0
 11
229.7577915960554
 21
465.0
 31
0.0
  0
LINE
  5
99A
330
1F
100
AcDbEntity
  8
10
100
AcDbLine
 10
14.75779159605576
 20
460.5
 30
0.0
 11
229.7577915960554
 21
460.5
 31
0.0
  0
LINE
  5
99B
330
1F
100
AcDbEntity
  8
10
100
AcDbLine
 10
37.50779159605575
 20
420.0000000000008
 30
0.0
 11
14.75779159605576
 21
420.0000000000008
 31
0.0
  0
LINE
  5
99C
330
1F
100
AcDbEntity
  8
10
100
AcDbLine
 10
26.15779159605494
 20
378.0835935394446
 30
0.0
 11
14.22958836577867
 21
378.0835935394446
 31
0.0
  0
LINE
  5
99D
330
1F
100
AcDbEntity
  8
10
100
AcDbLine
 10
26.22958836577867
 20
385.0117967697187
 30
0.0
 11
14.22958836577867
 21
385.0117967697187
 31
0.0
  0
LINE
  5
99E
330
1F
100
AcDbEntity
  8
10
100
AcDbLine
 10
26.15779159605494
 20
398.8682032302713
 30
0.0
 11
14.22958836577867
 21
398.8682032302713
 31
0.0
  0
LINE
  5
99F
330
1F
100
AcDbEntity
  8
10
100
AcDbLine
 10
26.15779159605494
 20
405.7964064605471
 30
0.0
 11
14.22958836577867
 21
405.7964064605471
 31
0.0
  0
LINE
  5
9A0
330
1F
100
AcDbEntity
  8
10
100
AcDbLine
 10
14.22958836577867
 20
59.20359353945467
 30
0.0
 11
26.15779159605494
 21
59.20359353945467
 31
0.0
  0
LINE
  5
9A1
330
1F
100
AcDbEntity
  8
10
100
AcDbLine
 10
14.22958836577867
 20
66.13179676972868
 30
0.0
 11
26.15779159605494
 21
66.13179676972868
 31
0.0
  0
LINE
  5
9A2
330
1F
100
AcDbEntity
  8
10
100
AcDbLine
 10
14.22958836577867
 20
79.98820323028076
 30
0.0
 11
26.22958836577867
 21
79.98820323028076
 31
0.0
  0
LINE
  5
9A3
330
1F
100
AcDbEntity
  8
10
100
AcDbLine
 10
14.22958836577867
 20
86.91640646055565
 30
0.0
 11
26.15779159605494
 21
86.91640646055565
 31
0.0
  0
LINE
  5
9A4
330
1F
100
AcDbEntity
  8
10
100
AcDbLine
 10
229.7577915960554
 20
0.0
 30
0.0
 11
14.75779159605576
 21
0.0
 31
0.0
  0
LINE
  5
9A5
330
1F
100
AcDbEntity
  8
10
100
AcDbLine
 10
14.75779159605576
 20
45.00000000000091
 30
0.0
 11
37.50779159605575
 21
45.00000000000091
 31
0.0
  0
LINE
  5
9A6
330
1F
100
AcDbEntity
  8
10
100
AcDbLine
 10
229.7577915960554
 20
4.500000000000908
 30
0.0
 11
14.75779159605576
 21
4.500000000000908
 31
0.0
  0
ARC
  5
9A7
330
1F
100
AcDbEntity
  8
10
100
AcDbCircle
 10
18.75779159605485
 20
391.9399999999959
 30
0.0
 40
18.49999999999599
100
AcDbArc
 50
51.95965402775708
 51
308.0403459722429
  0
ARC
  5
9A8
330
1F
100
AcDbEntity
  8
10
100
AcDbCircle
 10
18.75779159605485
 20
73.06000000000586
 30
0.0
 40
18.49999999999599
100
AcDbArc
 50
51.95965402775708
 51
308.0403459722429
  0
LINE
  5
9A9
330
1F
100
AcDbEntity
  8
10
100
AcDbLine
 10
10.75779159605576
 20
375.2591726823828
 30
0.0
 11
10.75779159605576
 21
89.74082731761791
 31
0.0
  0
LINE
  5
9AA
330
1F
100
AcDbEntity
  8
10
100
AcDbLine
 10
14.75779159605576
 20
0.0
 30
0.0
 11
14.75779159605576
 21
45.00000000000091
 31
0.0
  0
LINE
  5
9AB
330
1F
100
AcDbEntity
  8
10
100
AcDbLine
 10
6.857791596056127
 20
81.06000000000586
 30
0.0
 11
13.15779159605402
 21
81.06000000000586
 31
0.0
  0
LINE
  5
9AC
330
1F
100
AcDbEntity
  8
10
100
AcDbLine
 10
13.15779159605402
 20
79.06000000000585
 30
0.0
 11
4.857791596056126
 21
79.06000000000585
 31
0.0
  0
LINE
  5
9AD
330
1F
100
AcDbEntity
  8
10
100
AcDbLine
 10
13.15779159605402
 20
67.06000000000495
 30
0.0
 11
4.857791596056126
 21
67.06000000000495
 31
0.0
  0
LINE
  5
9AE
330
1F
100
AcDbEntity
  8
10
100
AcDbLine
 10
13.15779159605402
 20
65.06000000000586
 30
0.0
 11
6.857791596056127
 21
65.06000000000586
 31
0.0
  0
LINE
  5
9AF
330
1F
100
AcDbEntity
  8
10
100
AcDbLine
 10
4.857791596056126
 20
67.06000000000495
 30
0.0
 11
4.857791596056126
 21
79.06000000000585
 31
0.0
  0
LINE
  5
9B0
330
1F
100
AcDbEntity
  8
10
100
AcDbLine
 10
4.857791596056126
 20
79.06000000000585
 30
0.0
 11
6.857791596056127
 21
81.06000000000586
 31
0.0
  0
LINE
  5
9B1
330
1F
100
AcDbEntity
  8
10
100
AcDbLine
 10
4.857791596056126
 20
67.06000000000495
 30
0.0
 11
6.857791596056127
 21
65.06000000000586
 31
0.0
  0
LINE
  5
9B2
330
1F
100
AcDbEntity
  8
10
100
AcDbLine
 10
6.857791596056127
 20
65.06000000000586
 30
0.0
 11
6.857791596056127
 21
81.06000000000586
 31
0.0
  0
LINE
  5
9B3
330
1F
100
AcDbEntity
  8
10
100
AcDbLine
 10
13.15779159605402
 20
83.45230484541891
 30
0.0
 11
13.15779159605402
 21
62.66769515459282
 31
0.0
  0
ARC
  5
9B4
330
1F
100
AcDbEntity
  8
10
100
AcDbCircle
 10
36.08599482632985
 20
73.06000000000586
 30
0.0
 40
22.928203230275
100
AcDbArc
 50
162.4120462260125
 51
197.5879537739873
  0
LINE
  5
9B5
330
1F
100
AcDbEntity
  8
10
100
AcDbLine
 10
6.857791596056127
 20
399.9399999999959
 30
0.0
 11
13.15779159605402
 21
399.9399999999959
 31
0.0
  0
LINE
  5
9B6
330
1F
100
AcDbEntity
  8
10
100
AcDbLine
 10
4.857791596056126
 20
397.9399999999959
 30
0.0
 11
13.15779159605402
 21
397.9399999999959
 31
0.0
  0
LINE
  5
9B7
330
1F
100
AcDbEntity
  8
10
100
AcDbLine
 10
4.857791596056126
 20
385.9399999999959
 30
0.0
 11
13.15779159605402
 21
385.9399999999959
 31
0.0
  0
LINE
  5
9B8
330
1F
100
AcDbEntity
  8
10
100
AcDbLine
 10
13.15779159605402
 20
402.332304845409
 30
0.0
 11
13.15779159605402
 21
381.5476951545818
 31
0.0
  0
LINE
  5
9B9
330
1F
100
AcDbEntity
  8
10
100
AcDbLine
 10
6.857791596056127
 20
383.9399999999958
 30
0.0
 11
6.857791596056127
 21
399.9399999999959
 31
0.0
  0
LINE
  5
9BA
330
1F
100
AcDbEntity
  8
10
100
AcDbLine
 10
6.857791596056127
 20
399.9399999999959
 30
0.0
 11
4.857791596056126
 21
397.9399999999959
 31
0.0
  0
LINE
  5
9BB
330
1F
100
AcDbEntity
  8
10
100
AcDbLine
 10
6.857791596056127
 20
383.9399999999958
 30
0.0
 11
4.857791596056126
 21
385.9399999999959
 31
0.0
  0
LINE
  5
9BC
330
1F
100
AcDbEntity
  8
10
100
AcDbLine
 10
4.857791596056126
 20
385.9399999999959
 30
0.0
 11
4.857791596056126
 21
397.9399999999959
 31
0.0
  0
LINE
  5
9BD
330
1F
100
AcDbEntity
  8
10
100
AcDbLine
 10
13.15779159605402
 20
383.9399999999958
 30
0.0
 11
6.857791596056127
 21
383.9399999999958
 31
0.0
  0
ARC
  5
9BE
330
1F
100
AcDbEntity
  8
10
100
AcDbCircle
 10
36.08599482632985
 20
391.9399999999959
 30
0.0
 40
22.92820323027599
100
AcDbArc
 50
162.4120462260125
 51
197.5879537739873
  0
LINE
  5
9BF
330
1F
100
AcDbEntity
  8
10
100
AcDbLine
 10
14.75779159605576
 20
420.0000000000008
 30
0.0
 11
14.75779159605576
 21
465.0
 31
0.0
  0
LINE
  5
9C0
330
1F
100
AcDbEntity
  8
16
100
AcDbLine
 10
122.2577915960556
 20
467.0
 30
0.0
 11
122.2577915960556
 21
-1.99999999999909
 31
0.0
  0
LINE
  5
9C1
330
1F
100
AcDbEntity
  8
10
100
AcDbLine
 10
233.7577915960554
 20
89.74082731761791
 30
0.0
 11
233.7577915960554
 21
375.2591726823828
 31
0.0
  0
LINE
  5
9C2
330
1F
100
AcDbEntity
  8
10
100
AcDbLine
 10
125.7577915960556
 20
110.5600000000058
 30
0.0
 11
125.7577915960556
 21
354.4399999999959
 31
0.0
  0
LINE
  5
9C3
330
1F
100
AcDbEntity
  8
10
100
AcDbLine
 10
118.7577915960565
 20
110.5600000000058
 30
0.0
 11
118.7577915960565
 21
354.4399999999959
 31
0.0
  0
LINE
  5
9C4
330
1F
100
AcDbEntity
  8
10
100
AcDbLine
 10
211.757791596058
 20
47.81000000000084
 30
0.0
 11
211.757791596058
 21
98.31000000000086
 31
0.0
  0
LINE
  5
9C5
330
1F
100
AcDbEntity
  8
10
100
AcDbLine
 10
32.75779159605395
 20
98.31000000000086
 30
0.0
 11
32.75779159605395
 21
47.81000000000084
 31
0.0
  0
LINE
  5
9C6
330
1F
100
AcDbEntity
  8
10
100
AcDbLine
 10
37.25779159605485
 20
110.5600000000058
 30
0.0
 11
37.25779159605485
 21
35.56000000000585
 31
0.0
  0
LINE
  5
9C7
330
1F
100
AcDbEntity
  8
10
100
AcDbLine
 10
207.2577915960557
 20
35.56000000000585
 30
0.0
 11
207.2577915960557
 21
110.5600000000058
 31
0.0
  0
LINE
  5
9C8
330
1F
100
AcDbEntity
  8
10
100
AcDbLine
 10
197.2577915960565
 20
35.56000000000585
 30
0.0
 11
197.2577915960578
 21
110.5600000000058
 31
0.0
  0
LINE
  5
9C9
330
1F
100
AcDbEntity
  8
10
100
AcDbLine
 10
47.25779159605575
 20
35.56000000000585
 30
0.0
 11
47.25779159605575
 21
110.5600000000058
 31
0.0
  0
LINE
  5
9CA
330
1F
100
AcDbEntity
  8
17
 48
8.0
100
AcDbLine
 10
102.2577915960557
 20
62.81000000000585
 30
0.0
 11
102.2577915960557
 21
43.31000000000585
 31
0.0
  0
LINE
  5
9CB
330
1F
100
AcDbEntity
  8
17
 48
8.0
100
AcDbLine
 10
142.2577915960556
 20
62.81000000000585
 30
0.0
 11
142.2577915960556
 21
43.31000000000585
 31
0.0
  0
CIRCLE
  5
9CC
330
1F
100
AcDbEntity
  8
10
100
AcDbCircle
 10
102.2577915960557
 20
53.06000000000586
 30
0.0
 40
7.5
  0
CIRCLE
  5
9CD
330
1F
100
AcDbEntity
  8
10
100
AcDbCircle
 10
142.2577915960556
 20
53.06000000000586
 30
0.0
 40
7.5
  0
LINE
  5
9CE
330
1F
100
AcDbEntity
  8
10
100
AcDbLine
 10
37.25779159605485
 20
35.56000000000585
 30
0.0
 11
207.2577915960557
 21
35.56000000000585
 31
0.0
  0
ARC
  5
9CF
330
1F
100
AcDbEntity
  8
10
100
AcDbCircle
 10
64.75779159605576
 20
25.00000000000091
 30
0.0
 40
12.5
100
AcDbArc
 50
203.578178478207
 51
336.4218215217928
  0
LINE
  5
9D0
330
1F
100
AcDbEntity
  8
10
100
AcDbLine
 10
44.75779159605667
 20
30.00000000000091
 30
0.0
 11
84.75779159605577
 21
30.00000000000091
 31
0.0
  0
LINE
  5
9D1
330
1F
100
AcDbEntity
  8
10
100
AcDbLine
 10
84.75779159605577
 20
20.00000000000091
 30
0.0
 11
44.75779159605667
 21
20.00000000000091
 31
0.0
  0
LINE
  5
9D2
330
1F
100
AcDbEntity
  8
10
100
AcDbLine
 10
32.75779159605395
 20
47.81000000000084
 30
0.0
 11
37.25779159605485
 21
47.81000000000084
 31
0.0
  0
ARC
  5
9D3
330
1F
100
AcDbEntity
  8
10
100
AcDbCircle
 10
64.75779159605576
 20
25.00000000000091
 30
0.0
 40
12.5
100
AcDbArc
 50
23.57817847820715
 51
57.65051386208797
  0
ARC
  5
9D4
330
1F
100
AcDbEntity
  8
10
100
AcDbCircle
 10
64.75779159605576
 20
25.00000000000091
 30
0.0
 40
12.5
100
AcDbArc
 50
122.349486137912
 51
156.4218215217928
  0
ARC
  5
9D5
330
1F
100
AcDbEntity
  8
10
100
AcDbCircle
 10
44.75779159605667
 20
25.00000000000091
 30
0.0
 40
5.0
100
AcDbArc
 50
90.0
 51
270.0
  0
ARC
  5
9D6
330
1F
100
AcDbEntity
  8
10
100
AcDbCircle
 10
84.75779159605577
 20
25.00000000000091
 30
0.0
 40
5.0
100
AcDbArc
 50
270.0
 51
90.0
  0
LINE
  5
9D7
330
1F
100
AcDbEntity
  8
10
100
AcDbLine
 10
229.7577915960554
 20
45.00000000000091
 30
0.0
 11
229.7577915960554
 21
0.0
 31
0.0
  0
LINE
  5
9D8
330
1F
100
AcDbEntity
  8
10
100
AcDbLine
 10
170.7577915960555
 20
19.80384757729369
 30
0.0
 11
179.7577915960556
 21
14.60769515458786
 31
0.0
  0
LINE
  5
9D9
330
1F
100
AcDbEntity
  8
10
100
AcDbLine
 10
179.7577915960556
 20
14.60769515458786
 30
0.0
 11
188.7577915960554
 21
19.80384757729369
 31
0.0
  0
ARC
  5
9DA
330
1F
100
AcDbEntity
  8
10
100
AcDbCircle
 10
179.7577915960556
 20
25.00000000000091
 30
0.0
 40
10.74999999999999
100
AcDbArc
 50
100.7882733010732
 51
79.21172669892671
  0
LINE
  5
9DC
330
1F
100
AcDbEntity
  8
10
100
AcDbLine
 10
188.7577915960554
 20
30.19615242270811
 30
0.0
 11
179.7577915960556
 21
35.39230484541392
 31
0.0
  0
LINE
  5
9DD
330
1F
100
AcDbEntity
  8
10
100
AcDbLine
 10
179.7577915960556
 20
35.39230484541392
 30
0.0
 11
170.7577915960555
 21
30.19615242270811
 31
0.0
  0
LINE
  5
9DE
330
1F
100
AcDbEntity
  8
10
100
AcDbLine
 10
170.7577915960555
 20
30.19615242270811
 30
0.0
 11
170.7577915960555
 21
19.80384757729369
 31
0.0
  0
LINE
  5
9DF
330
1F
100
AcDbEntity
  8
10
100
AcDbLine
 10
188.7577915960554
 20
19.80384757729369
 30
0.0
 11
188.7577915960554
 21
30.19615242270811
 31
0.0
  0
CIRCLE
  5
9E0
330
1F
100
AcDbEntity
  8
10
100
AcDbCircle
 10
179.7577915960556
 20
25.00000000000091
 30
0.0
 40
6.0
  0
LINE
  5
9E1
330
1F
100
AcDbEntity
  8
10
100
AcDbLine
 10
207.2577915960557
 20
47.81000000000084
 30
0.0
 11
211.757791596058
 21
47.81000000000084
 31
0.0
  0
LINE
  5
9E2
330
1F
100
AcDbEntity
  8
10
100
AcDbLine
 10
207.0077915960554
 20
45.00000000000091
 30
0.0
 11
229.7577915960554
 21
45.00000000000091
 31
0.0
  0
LINE
  5
9E3
330
1F
100
AcDbEntity
  8
10
100
AcDbLine
 10
207.2577915960557
 20
110.5600000000058
 30
0.0
 11
37.25779159605485
 21
110.5600000000058
 31
0.0
  0
LINE
  5
9E4
330
1F
100
AcDbEntity
  8
17
 48
8.0
100
AcDbLine
 10
152.0077915960555
 20
53.06000000000586
 30
0.0
 11
132.5077915960557
 21
53.06000000000586
 31
0.0
  0
LINE
  5
9E5
330
1F
100
AcDbEntity
  8
17
 48
8.0
100
AcDbLine
 10
152.0077915960555
 20
93.06000000000585
 30
0.0
 11
132.5077915960557
 21
93.06000000000585
 31
0.0
  0
CIRCLE
  5
9E6
330
1F
100
AcDbEntity
  8
10
100
AcDbCircle
 10
142.2577915960556
 20
93.06000000000585
 30
0.0
 40
7.5
  0
LINE
  5
9E7
330
1F
100
AcDbEntity
  8
10
100
AcDbLine
 10
49.85779159605614
 20
57.06000000000585
 30
0.0
 11
49.85779159605614
 21
89.06000000000586
 31
0.0
  0
LINE
  5
9E8
330
1F
100
AcDbEntity
  8
10
100
AcDbLine
 10
30.15779159605495
 20
57.06000000000585
 30
0.0
 11
30.15779159605495
 21
89.06000000000586
 31
0.0
  0
LINE
  5
9E9
330
1F
100
AcDbEntity
  8
10
100
AcDbLine
 10
26.15779159605494
 20
59.06000000000585
 30
0.0
 11
26.15779159605494
 21
87.06000000000496
 31
0.0
  0
LINE
  5
9EA
330
1F
100
AcDbEntity
  8
17
 48
8.0
100
AcDbLine
 10
102.2577915960557
 20
102.8100000000057
 30
0.0
 11
102.2577915960557
 21
83.31000000000583
 31
0.0
  0
CIRCLE
  5
9EB
330
1F
100
AcDbEntity
  8
10
100
AcDbCircle
 10
102.2577915960557
 20
93.06000000000585
 30
0.0
 40
7.5
  0
LINE
  5
9ED
330
1F
100
AcDbEntity
  8
10
100
AcDbLine
 10
58.78599482633195
 20
59.20359353945467
 30
0.0
 11
49.85779159605614
 21
59.20359353945467
 31
0.0
  0
LINE
  5
9EE
330
1F
100
AcDbEntity
  8
10
100
AcDbLine
 10
49.85779159605614
 20
79.98820323028076
 30
0.0
 11
58.78599482633195
 21
79.98820323028076
 31
0.0
  0
LINE
  5
9EF
330
1F
100
AcDbEntity
  8
10
100
AcDbLine
 10
49.85779159605614
 20
66.13179676972868
 30
0.0
 11
58.78599482633195
 21
66.13179676972868
 31
0.0
  0
LINE
  5
9F0
330
1F
100
AcDbEntity
  8
10
100
AcDbLine
 10
59.85779159605614
 20
62.66769515459282
 30
0.0
 11
59.85779159605614
 21
83.45230484541891
 31
0.0
  0
LINE
  5
9F1
330
1F
100
AcDbEntity
  8
10
100
AcDbLine
 10
49.85779159605614
 20
57.06000000000585
 30
0.0
 11
47.25779159605575
 21
57.06000000000585
 31
0.0
  0
LINE
  5
9F2
330
1F
100
AcDbEntity
  8
10
100
AcDbLine
 10
32.75779159605395
 20
57.06000000000585
 30
0.0
 11
30.15779159605495
 21
57.06000000000585
 31
0.0
  0
LINE
  5
9F3
330
1F
100
AcDbEntity
  8
10
100
AcDbLine
 10
30.15779159605495
 20
59.06000000000585
 30
0.0
 11
26.15779159605494
 21
59.06000000000585
 31
0.0
  0
ARC
  5
9F4
330
1F
100
AcDbEntity
  8
10
100
AcDbCircle
 10
36.92958836578077
 20
73.06000000000586
 30
0.0
 40
22.928203230277
100
AcDbArc
 50
342.4120462260126
 51
17.58795377398735
  0
LINE
  5
9F5
330
1F
100
AcDbEntity
  8
17
 48
8.0
100
AcDbLine
 10
112.0077915960556
 20
53.06000000000586
 30
0.0
 11
92.50779159605578
 21
53.06000000000586
 31
0.0
  0
LINE
  5
9F6
330
1F
100
AcDbEntity
  8
10
100
AcDbLine
 10
37.25779159605485
 20
98.31000000000086
 30
0.0
 11
32.75779159605395
 21
98.31000000000086
 31
0.0
  0
LINE
  5
9F7
330
1F
100
AcDbEntity
  8
10
100
AcDbLine
 10
49.85779159605614
 20
86.91640646055565
 30
0.0
 11
58.78599482633195
 21
86.91640646055565
 31
0.0
  0
LINE
  5
9F8
330
1F
100
AcDbEntity
  8
10
100
AcDbLine
 10
47.25779159605575
 20
89.06000000000586
 30
0.0
 11
49.85779159605614
 21
89.06000000000586
 31
0.0
  0
LINE
  5
9F9
330
1F
100
AcDbEntity
  8
10
100
AcDbLine
 10
30.15779159605495
 20
89.06000000000586
 30
0.0
 11
32.75779159605395
 21
89.06000000000586
 31
0.0
  0
LINE
  5
9FA
330
1F
100
AcDbEntity
  8
10
100
AcDbLine
 10
26.15779159605494
 20
87.06000000000496
 30
0.0
 11
30.15779159605495
 21
87.06000000000496
 31
0.0
  0
LINE
  5
9FB
330
1F
100
AcDbEntity
  8
17
 48
8.0
100
AcDbLine
 10
112.0077915960556
 20
93.06000000000585
 30
0.0
 11
92.50779159605578
 21
93.06000000000585
 31
0.0
  0
LINE
  5
9FC
330
1F
100
AcDbEntity
  8
10
100
AcDbLine
 10
218.3577915960579
 20
87.06000000000496
 30
0.0
 11
218.3577915960579
 21
59.06000000000585
 31
0.0
  0
LINE
  5
9FD
330
1F
100
AcDbEntity
  8
10
100
AcDbLine
 10
214.3577915960579
 20
89.06000000000586
 30
0.0
 11
214.3577915960579
 21
57.06000000000585
 31
0.0
  0
LINE
  5
9FE
330
1F
100
AcDbEntity
  8
10
100
AcDbLine
 10
194.6577915960558
 20
89.06000000000586
 30
0.0
 11
194.6577915960558
 21
57.06000000000585
 31
0.0
  0
LINE
  5
9FF
330
1F
100
AcDbEntity
  8
17
 48
8.0
100
AcDbLine
 10
142.2577915960556
 20
102.8100000000057
 30
0.0
 11
142.2577915960556
 21
83.31000000000583
 31
0.0
  0
ARC
  5
A00
330
1F
100
AcDbEntity
  8
10
100
AcDbCircle
 10
225.757791596058
 20
73.06000000000586
 30
0.0
 40
18.49999999999599
100
AcDbArc
 50
231.959654027757
 51
128.0403459722425
  0
LINE
  5
A01
330
1F
100
AcDbEntity
  8
10
100
AcDbLine
 10
185.7295883657809
 20
66.13179676972868
 30
0.0
 11
194.6577915960558
 21
66.13179676972868
 31
0.0
  0
LINE
  5
A02
330
1F
100
AcDbEntity
  8
10
100
AcDbLine
 10
185.7295883657809
 20
79.98820323028076
 30
0.0
 11
194.6577915960558
 21
79.98820323028076
 31
0.0
  0
LINE
  5
A03
330
1F
100
AcDbEntity
  8
10
100
AcDbLine
 10
194.6577915960558
 20
59.20359353945467
 30
0.0
 11
185.7295883657809
 21
59.20359353945467
 31
0.0
  0
LINE
  5
A04
330
1F
100
AcDbEntity
  8
10
100
AcDbLine
 10
184.6577915960565
 20
83.45230484541891
 30
0.0
 11
184.6577915960565
 21
62.66769515459282
 31
0.0
  0
ARC
  5
A05
330
1F
100
AcDbEntity
  8
10
100
AcDbCircle
 10
207.5859948263321
 20
73.06000000000586
 30
0.0
 40
22.92820323027599
100
AcDbArc
 50
162.4120462260125
 51
197.5879537739873
  0
LINE
  5
A06
330
1F
100
AcDbEntity
  8
10
100
AcDbLine
 10
239.6577915960558
 20
79.06000000000585
 30
0.0
 11
231.3577915960578
 21
79.06000000000585
 31
0.0
  0
LINE
  5
A07
330
1F
100
AcDbEntity
  8
10
100
AcDbLine
 10
239.6577915960558
 20
67.06000000000495
 30
0.0
 11
231.3577915960578
 21
67.06000000000495
 31
0.0
  0
LINE
  5
A08
330
1F
100
AcDbEntity
  8
10
100
AcDbLine
 10
237.6577915960566
 20
65.06000000000586
 30
0.0
 11
231.3577915960578
 21
65.06000000000586
 31
0.0
  0
LINE
  5
A09
330
1F
100
AcDbEntity
  8
10
100
AcDbLine
 10
230.2859948263336
 20
59.20359353945467
 30
0.0
 11
218.3577915960579
 21
59.20359353945467
 31
0.0
  0
LINE
  5
A0A
330
1F
100
AcDbEntity
  8
10
100
AcDbLine
 10
230.2859948263336
 20
66.13179676972868
 30
0.0
 11
218.3577915960579
 21
66.13179676972868
 31
0.0
  0
LINE
  5
A0B
330
1F
100
AcDbEntity
  8
10
100
AcDbLine
 10
230.2859948263336
 20
79.98820323028076
 30
0.0
 11
218.2859948263337
 21
79.98820323028076
 31
0.0
  0
LINE
  5
A0C
330
1F
100
AcDbEntity
  8
10
100
AcDbLine
 10
218.3577915960579
 20
59.06000000000585
 30
0.0
 11
214.3577915960579
 21
59.06000000000585
 31
0.0
  0
LINE
  5
A0D
330
1F
100
AcDbEntity
  8
10
100
AcDbLine
 10
214.3577915960579
 20
57.06000000000585
 30
0.0
 11
211.757791596058
 21
57.06000000000585
 31
0.0
  0
LINE
  5
A0E
330
1F
100
AcDbEntity
  8
10
100
AcDbLine
 10
231.3577915960578
 20
62.66769515459282
 30
0.0
 11
231.3577915960578
 21
83.45230484541891
 31
0.0
  0
LINE
  5
A0F
330
1F
100
AcDbEntity
  8
10
100
AcDbLine
 10
237.6577915960566
 20
81.06000000000586
 30
0.0
 11
237.6577915960566
 21
65.06000000000586
 31
0.0
  0
LINE
  5
A10
330
1F
100
AcDbEntity
  8
10
100
AcDbLine
 10
237.6577915960566
 20
65.06000000000586
 30
0.0
 11
239.6577915960558
 21
67.06000000000495
 31
0.0
  0
LINE
  5
A11
330
1F
100
AcDbEntity
  8
10
100
AcDbLine
 10
237.6577915960566
 20
81.06000000000586
 30
0.0
 11
239.6577915960558
 21
79.06000000000585
 31
0.0
  0
LINE
  5
A12
330
1F
100
AcDbEntity
  8
10
100
AcDbLine
 10
239.6577915960558
 20
79.06000000000585
 30
0.0
 11
239.6577915960558
 21
67.06000000000495
 31
0.0
  0
LINE
  5
A13
330
1F
100
AcDbEntity
  8
10
100
AcDbLine
 10
231.3577915960578
 20
81.06000000000586
 30
0.0
 11
237.6577915960566
 21
81.06000000000586
 31
0.0
  0
LINE
  5
A14
330
1F
100
AcDbEntity
  8
10
100
AcDbLine
 10
197.2577915960565
 20
57.06000000000585
 30
0.0
 11
194.6577915960558
 21
57.06000000000585
 31
0.0
  0
ARC
  5
A15
330
1F
100
AcDbEntity
  8
10
100
AcDbCircle
 10
208.4295883657815
 20
73.06000000000586
 30
0.0
 40
22.928203230277
100
AcDbArc
 50
342.4120462260126
 51
17.58795377398735
  0
LINE
  5
A16
330
1F
100
AcDbEntity
  8
10
100
AcDbLine
 10
185.7295883657809
 20
86.91640646055565
 30
0.0
 11
194.6577915960558
 21
86.91640646055565
 31
0.0
  0
LINE
  5
A17
330
1F
100
AcDbEntity
  8
10
100
AcDbLine
 10
211.757791596058
 20
98.31000000000086
 30
0.0
 11
207.2577915960557
 21
98.31000000000086
 31
0.0
  0
LINE
  5
A18
330
1F
100
AcDbEntity
  8
10
100
AcDbLine
 10
230.2859948263336
 20
86.91640646055565
 30
0.0
 11
218.3577915960579
 21
86.91640646055565
 31
0.0
  0
LINE
  5
A19
330
1F
100
AcDbEntity
  8
10
100
AcDbLine
 10
214.3577915960579
 20
87.06000000000496
 30
0.0
 11
218.3577915960579
 21
87.06000000000496
 31
0.0
  0
LINE
  5
A1A
330
1F
100
AcDbEntity
  8
10
100
AcDbLine
 10
211.757791596058
 20
89.06000000000586
 30
0.0
 11
214.3577915960579
 21
89.06000000000586
 31
0.0
  0
LINE
  5
A1B
330
1F
100
AcDbEntity
  8
10
100
AcDbLine
 10
194.6577915960558
 20
89.06000000000586
 30
0.0
 11
197.2577915960565
 21
89.06000000000586
 31
0.0
  0
LINE
  5
A1C
330
1F
100
AcDbEntity
  8
10
100
AcDbLine
 10
197.2577915960578
 20
354.4399999999959
 30
0.0
 11
197.2577915960565
 21
429.4399999999959
 31
0.0
  0
LINE
  5
A1D
330
1F
100
AcDbEntity
  8
10
100
AcDbLine
 10
194.6577915960558
 20
407.9399999999957
 30
0.0
 11
194.6577915960558
 21
375.9399999999958
 31
0.0
  0
LINE
  5
A1E
330
1F
100
AcDbEntity
  8
10
100
AcDbLine
 10
214.3577915960579
 20
407.9399999999957
 30
0.0
 11
214.3577915960579
 21
375.9399999999958
 31
0.0
  0
LINE
  5
A1F
330
1F
100
AcDbEntity
  8
10
100
AcDbLine
 10
218.3577915960579
 20
405.9399999999959
 30
0.0
 11
218.3577915960579
 21
377.9399999999959
 31
0.0
  0
LINE
  5
A20
330
1F
100
AcDbEntity
  8
10
100
AcDbLine
 10
211.757791596058
 20
366.6900000000008
 30
0.0
 11
211.757791596058
 21
417.1900000000008
 31
0.0
  0
LINE
  5
A21
330
1F
100
AcDbEntity
  8
10
100
AcDbLine
 10
207.2577915960557
 20
354.4399999999959
 30
0.0
 11
207.2577915960557
 21
429.4399999999959
 31
0.0
  0
LINE
  5
A22
330
1F
100
AcDbEntity
  8
10
100
AcDbLine
 10
47.25779159605575
 20
354.4399999999959
 30
0.0
 11
47.25779159605575
 21
429.4399999999959
 31
0.0
  0
LINE
  5
A23
330
1F
100
AcDbEntity
  8
10
100
AcDbLine
 10
26.15779159605494
 20
377.9399999999959
 30
0.0
 11
26.15779159605494
 21
405.9399999999959
 31
0.0
  0
LINE
  5
A24
330
1F
100
AcDbEntity
  8
10
100
AcDbLine
 10
49.85779159605614
 20
375.9399999999958
 30
0.0
 11
49.85779159605614
 21
407.9399999999957
 31
0.0
  0
LINE
  5
A25
330
1F
100
AcDbEntity
  8
10
100
AcDbLine
 10
32.75779159605395
 20
417.1900000000008
 30
0.0
 11
32.75779159605395
 21
366.6900000000008
 31
0.0
  0
LINE
  5
A26
330
1F
100
AcDbEntity
  8
10
100
AcDbLine
 10
37.25779159605485
 20
429.4399999999959
 30
0.0
 11
37.25779159605485
 21
354.4399999999959
 31
0.0
  0
LINE
  5
A27
330
1F
100
AcDbEntity
  8
10
100
AcDbLine
 10
30.15779159605495
 20
375.9399999999958
 30
0.0
 11
30.15779159605495
 21
407.9399999999957
 31
0.0
  0
LINE
  5
A28
330
1F
100
AcDbEntity
  8
17
 48
8.0
100
AcDbLine
 10
142.2577915960556
 20
421.6899999999959
 30
0.0
 11
142.2577915960556
 21
402.1899999999956
 31
0.0
  0
LINE
  5
A29
330
1F
100
AcDbEntity
  8
17
 48
8.0
100
AcDbLine
 10
102.2577915960557
 20
421.6899999999959
 30
0.0
 11
102.2577915960557
 21
402.1899999999956
 31
0.0
  0
ARC
  5
A2A
330
1F
100
AcDbEntity
  8
10
100
AcDbCircle
 10
225.757791596058
 20
391.9399999999959
 30
0.0
 40
18.49999999999599
100
AcDbArc
 50
231.959654027757
 51
128.0403459722425
  0
CIRCLE
  5
A2B
330
1F
100
AcDbEntity
  8
10
100
AcDbCircle
 10
142.2577915960556
 20
411.9399999999957
 30
0.0
 40
7.5
  0
CIRCLE
  5
A2C
330
1F
100
AcDbEntity
  8
10
100
AcDbCircle
 10
102.2577915960557
 20
411.9399999999957
 30
0.0
 40
7.5
  0
LINE
  5
A2D
330
1F
100
AcDbEntity
  8
10
100
AcDbLine
 10
37.25779159605485
 20
354.4399999999959
 30
0.0
 11
207.2577915960557
 21
354.4399999999959
 31
0.0
  0
LINE
  5
A2E
330
1F
100
AcDbEntity
  8
17
 48
8.0
100
AcDbLine
 10
132.5077915960557
 20
371.9399999999946
 30
0.0
 11
152.0077915960555
 21
371.9399999999946
 31
0.0
  0
CIRCLE
  5
A2F
330
1F
100
AcDbEntity
  8
10
100
AcDbCircle
 10
142.2577915960556
 20
371.9399999999946
 30
0.0
 40
7.5
  0
LINE
  5
A30
330
1F
100
AcDbEntity
  8
17
 48
8.0
100
AcDbLine
 10
102.2577915960557
 20
381.6899999999959
 30
0.0
 11
102.2577915960557
 21
362.1899999999959
 31
0.0
  0
CIRCLE
  5
A31
330
1F
100
AcDbEntity
  8
10
100
AcDbCircle
 10
102.2577915960557
 20
371.9399999999946
 30
0.0
 40
7.5
  0
LINE
  5
A32
330
1F
100
AcDbEntity
  8
10
100
AcDbLine
 10
32.75779159605395
 20
366.6900000000008
 30
0.0
 11
37.25779159605485
 21
366.6900000000008
 31
0.0
  0
LINE
  5
A34
330
1F
100
AcDbEntity
  8
10
100
AcDbLine
 10
30.15779159605495
 20
377.9399999999959
 30
0.0
 11
26.15779159605494
 21
377.9399999999959
 31
0.0
  0
LINE
  5
A35
330
1F
100
AcDbEntity
  8
10
100
AcDbLine
 10
32.75779159605395
 20
375.9399999999958
 30
0.0
 11
30.15779159605495
 21
375.9399999999958
 31
0.0
  0
LINE
  5
A36
330
1F
100
AcDbEntity
  8
10
100
AcDbLine
 10
49.85779159605614
 20
375.9399999999958
 30
0.0
 11
47.25779159605575
 21
375.9399999999958
 31
0.0
  0
LINE
  5
A37
330
1F
100
AcDbEntity
  8
10
100
AcDbLine
 10
59.85779159605614
 20
381.5476951545818
 30
0.0
 11
59.85779159605614
 21
402.332304845409
 31
0.0
  0
LINE
  5
A38
330
1F
100
AcDbEntity
  8
10
100
AcDbLine
 10
58.78599482633195
 20
398.8682032302713
 30
0.0
 11
49.85779159605614
 21
398.8682032302713
 31
0.0
  0
LINE
  5
A39
330
1F
100
AcDbEntity
  8
10
100
AcDbLine
 10
58.78599482633195
 20
385.0117967697187
 30
0.0
 11
49.85779159605614
 21
385.0117967697187
 31
0.0
  0
LINE
  5
A3A
330
1F
100
AcDbEntity
  8
10
100
AcDbLine
 10
58.78599482633195
 20
378.0835935394446
 30
0.0
 11
49.85779159605614
 21
378.0835935394446
 31
0.0
  0
ARC
  5
A3B
330
1F
100
AcDbEntity
  8
10
100
AcDbCircle
 10
36.92958836578077
 20
391.9399999999959
 30
0.0
 40
22.928203230277
100
AcDbArc
 50
342.4120462260126
 51
17.58795377398735
  0
LINE
  5
A3C
330
1F
100
AcDbEntity
  8
17
 48
8.0
100
AcDbLine
 10
92.50779159605578
 20
371.9399999999946
 30
0.0
 11
112.0077915960556
 21
371.9399999999946
 31
0.0
  0
LINE
  5
A3D
330
1F
100
AcDbEntity
  8
17
 48
8.0
100
AcDbLine
 10
142.2577915960556
 20
381.6899999999959
 30
0.0
 11
142.2577915960556
 21
362.1899999999959
 31
0.0
  0
LINE
  5
A3E
330
1F
100
AcDbEntity
  8
10
100
AcDbLine
 10
207.2577915960557
 20
366.6900000000008
 30
0.0
 11
211.757791596058
 21
366.6900000000008
 31
0.0
  0
LINE
  5
A3F
330
1F
100
AcDbEntity
  8
10
100
AcDbLine
 10
194.6577915960558
 20
378.0835935394446
 30
0.0
 11
185.7295883657809
 21
378.0835935394446
 31
0.0
  0
LINE
  5
A40
330
1F
100
AcDbEntity
  8
10
100
AcDbLine
 10
194.6577915960558
 20
385.0117967697187
 30
0.0
 11
185.7295883657809
 21
385.0117967697187
 31
0.0
  0
LINE
  5
A41
330
1F
100
AcDbEntity
  8
10
100
AcDbLine
 10
194.6577915960558
 20
398.8682032302713
 30
0.0
 11
185.7295883657809
 21
398.8682032302713
 31
0.0
  0
LINE
  5
A42
330
1F
100
AcDbEntity
  8
10
100
AcDbLine
 10
184.6577915960565
 20
402.332304845409
 30
0.0
 11
184.6577915960565
 21
381.5476951545818
 31
0.0
  0
ARC
  5
A43
330
1F
100
AcDbEntity
  8
10
100
AcDbCircle
 10
207.5859948263321
 20
391.9399999999959
 30
0.0
 40
22.92820323027599
100
AcDbArc
 50
162.4120462260125
 51
197.5879537739873
  0
LINE
  5
A44
330
1F
100
AcDbEntity
  8
10
100
AcDbLine
 10
237.6577915960566
 20
383.9399999999958
 30
0.0
 11
231.3577915960578
 21
383.9399999999958
 31
0.0
  0
LINE
  5
A45
330
1F
100
AcDbEntity
  8
10
100
AcDbLine
 10
197.2577915960565
 20
375.9399999999958
 30
0.0
 11
194.6577915960558
 21
375.9399999999958
 31
0.0
  0
LINE
  5
A46
330
1F
100
AcDbEntity
  8
10
100
AcDbLine
 10
231.3577915960578
 20
385.9399999999959
 30
0.0
 11
239.6577915960558
 21
385.9399999999959
 31
0.0
  0
LINE
  5
A47
330
1F
100
AcDbEntity
  8
10
100
AcDbLine
 10
231.3577915960578
 20
397.9399999999959
 30
0.0
 11
239.6577915960558
 21
397.9399999999959
 31
0.0
  0
LINE
  5
A48
330
1F
100
AcDbEntity
  8
10
100
AcDbLine
 10
231.3577915960578
 20
399.9399999999959
 30
0.0
 11
237.6577915960566
 21
399.9399999999959
 31
0.0
  0
LINE
  5
A49
330
1F
100
AcDbEntity
  8
10
100
AcDbLine
 10
239.6577915960558
 20
397.9399999999959
 30
0.0
 11
239.6577915960558
 21
385.9399999999959
 31
0.0
  0
LINE
  5
A4A
330
1F
100
AcDbEntity
  8
10
100
AcDbLine
 10
239.6577915960558
 20
385.9399999999959
 30
0.0
 11
237.6577915960566
 21
383.9399999999958
 31
0.0
  0
LINE
  5
A4B
330
1F
100
AcDbEntity
  8
10
100
AcDbLine
 10
239.6577915960558
 20
397.9399999999959
 30
0.0
 11
237.6577915960566
 21
399.9399999999959
 31
0.0
  0
LINE
  5
A4C
330
1F
100
AcDbEntity
  8
10
100
AcDbLine
 10
237.6577915960566
 20
399.9399999999959
 30
0.0
 11
237.6577915960566
 21
383.9399999999958
 31
0.0
  0
LINE
  5
A4D
330
1F
100
AcDbEntity
  8
10
100
AcDbLine
 10
231.3577915960578
 20
381.5476951545818
 30
0.0
 11
231.3577915960578
 21
402.332304845409
 31
0.0
  0
LINE
  5
A4E
330
1F
100
AcDbEntity
  8
10
100
AcDbLine
 10
214.3577915960579
 20
375.9399999999958
 30
0.0
 11
211.757791596058
 21
375.9399999999958
 31
0.0
  0
LINE
  5
A4F
330
1F
100
AcDbEntity
  8
10
100
AcDbLine
 10
218.3577915960579
 20
377.9399999999959
 30
0.0
 11
214.3577915960579
 21
377.9399999999959
 31
0.0
  0
LINE
  5
A50
330
1F
100
AcDbEntity
  8
10
100
AcDbLine
 10
218.3577915960579
 20
378.0835935394446
 30
0.0
 11
230.2859948263336
 21
378.0835935394446
 31
0.0
  0
LINE
  5
A51
330
1F
100
AcDbEntity
  8
10
100
AcDbLine
 10
218.2859948263337
 20
385.0117967697187
 30
0.0
 11
230.2859948263336
 21
385.0117967697187
 31
0.0
  0
LINE
  5
A52
330
1F
100
AcDbEntity
  8
10
100
AcDbLine
 10
218.3577915960579
 20
398.8682032302713
 30
0.0
 11
230.2859948263336
 21
398.8682032302713
 31
0.0
  0
ARC
  5
A53
330
1F
100
AcDbEntity
  8
10
100
AcDbCircle
 10
208.4295883657815
 20
391.9399999999959
 30
0.0
 40
22.928203230277
100
AcDbArc
 50
342.4120462260126
 51
17.58795377398735
  0
LINE
  5
A54
330
1F
100
AcDbEntity
  8
10
100
AcDbLine
 10
207.2577915960557
 20
429.4399999999959
 30
0.0
 11
37.25779159605485
 21
429.4399999999959
 31
0.0
  0
LINE
  5
A55
330
1F
100
AcDbEntity
  8
17
 48
8.0
100
AcDbLine
 10
132.5077915960557
 20
411.9399999999957
 30
0.0
 11
152.0077915960555
 21
411.9399999999957
 31
0.0
  0
LINE
  5
A56
330
1F
100
AcDbEntity
  8
10
100
AcDbLine
 10
73.75779159605667
 20
434.8038475772937
 30
0.0
 11
73.75779159605667
 21
445.1961524227075
 31
0.0
  0
LINE
  5
A57
330
1F
100
AcDbEntity
  8
10
100
AcDbLine
 10
55.75779159605577
 20
445.1961524227075
 30
0.0
 11
55.75779159605577
 21
434.8038475772937
 31
0.0
  0
ARC
  5
A58
330
1F
100
AcDbEntity
  8
10
100
AcDbCircle
 10
64.75779159605576
 20
440.0000000000008
 30
0.0
 40
10.74999999999999
100
AcDbArc
 50
280.788273301073
 51
259.2117266989267
  0
CIRCLE
  5
A59
330
1F
100
AcDbEntity
  8
10
100
AcDbCircle
 10
64.75779159605576
 20
440.0000000000008
 30
0.0
 40
6.0
  0
LINE
  5
A5A
330
1F
100
AcDbEntity
  8
10
100
AcDbLine
 10
26.15779159605494
 20
405.9399999999959
 30
0.0
 11
30.15779159605495
 21
405.9399999999959
 31
0.0
  0
LINE
  5
A5B
330
1F
100
AcDbEntity
  8
10
100
AcDbLine
 10
30.15779159605495
 20
407.9399999999957
 30
0.0
 11
32.75779159605395
 21
407.9399999999957
 31
0.0
  0
LINE
  5
A5C
330
1F
100
AcDbEntity
  8
10
100
AcDbLine
 10
47.25779159605575
 20
407.9399999999957
 30
0.0
 11
49.85779159605614
 21
407.9399999999957
 31
0.0
  0
LINE
  5
A5D
330
1F
100
AcDbEntity
  8
10
100
AcDbLine
 10
49.85779159605614
 20
405.7964064605471
 30
0.0
 11
58.78599482633195
 21
405.7964064605471
 31
0.0
  0
LINE
  5
A5E
330
1F
100
AcDbEntity
  8
10
100
AcDbLine
 10
37.25779159605485
 20
417.1900000000008
 30
0.0
 11
32.75779159605395
 21
417.1900000000008
 31
0.0
  0
LINE
  5
A5F
330
1F
100
AcDbEntity
  8
10
100
AcDbLine
 10
55.75779159605577
 20
434.8038475772937
 30
0.0
 11
64.75779159605576
 21
429.6076951545883
 31
0.0
  0
LINE
  5
A60
330
1F
100
AcDbEntity
  8
10
100
AcDbLine
 10
64.75779159605576
 20
429.6076951545883
 30
0.0
 11
73.75779159605667
 21
434.8038475772937
 31
0.0
  0
LINE
  5
A61
330
1F
100
AcDbEntity
  8
17
 48
8.0
100
AcDbLine
 10
92.50779159605578
 20
411.9399999999957
 30
0.0
 11
112.0077915960556
 21
411.9399999999957
 31
0.0
  0
LINE
  5
A62
330
1F
100
AcDbEntity
  8
10
100
AcDbLine
 10
73.75779159605667
 20
445.1961524227075
 30
0.0
 11
64.75779159605576
 21
450.3923048454138
 31
0.0
  0
LINE
  5
A63
330
1F
100
AcDbEntity
  8
10
100
AcDbLine
 10
64.75779159605576
 20
450.3923048454138
 30
0.0
 11
55.75779159605577
 21
445.1961524227075
 31
0.0
  0
LINE
  5
A64
330
1F
100
AcDbEntity
  8
10
100
AcDbLine
 10
229.7577915960554
 20
465.0
 30
0.0
 11
229.7577915960554
 21
420.0000000000008
 31
0.0
  0
ARC
  5
A65
330
1F
100
AcDbEntity
  8
10
100
AcDbCircle
 10
159.7577915960556
 20
440.0000000000008
 30
0.0
 40
5.0
100
AcDbArc
 50
90.0
 51
270.0
  0
ARC
  5
A66
330
1F
100
AcDbEntity
  8
10
100
AcDbCircle
 10
199.7577915960556
 20
440.0000000000008
 30
0.0
 40
5.0
100
AcDbArc
 50
270.0
 51
90.0
  0
LINE
  5
A67
330
1F
100
AcDbEntity
  8
10
100
AcDbLine
 10
185.7295883657809
 20
405.7964064605471
 30
0.0
 11
194.6577915960558
 21
405.7964064605471
 31
0.0
  0
LINE
  5
A68
330
1F
100
AcDbEntity
  8
10
100
AcDbLine
 10
199.7577915960556
 20
435.0000000000008
 30
0.0
 11
159.7577915960556
 21
435.0000000000008
 31
0.0
  0
ARC
  5
A69
330
1F
100
AcDbEntity
  8
10
100
AcDbCircle
 10
179.7577915960556
 20
440.0000000000008
 30
0.0
 40
12.5
100
AcDbArc
 50
203.578178478207
 51
237.6505138620879
  0
ARC
  5
A6A
330
1F
100
AcDbEntity
  8
10
100
AcDbCircle
 10
179.7577915960556
 20
440.0000000000008
 30
0.0
 40
12.50000000000099
100
AcDbArc
 50
302.3494861379118
 51
336.4218215217928
  0
LINE
  5
A6B
330
1F
100
AcDbEntity
  8
10
100
AcDbLine
 10
229.7577915960554
 20
420.0000000000008
 30
0.0
 11
207.0077915960554
 21
420.0000000000008
 31
0.0
  0
LINE
  5
A6C
330
1F
100
AcDbEntity
  8
10
100
AcDbLine
 10
194.6577915960558
 20
407.9399999999957
 30
0.0
 11
197.2577915960565
 21
407.9399999999957
 31
0.0
  0
LINE
  5
A6D
330
1F
100
AcDbEntity
  8
10
100
AcDbLine
 10
211.757791596058
 20
407.9399999999957
 30
0.0
 11
214.3577915960579
 21
407.9399999999957
 31
0.0
  0
LINE
  5
A6E
330
1F
100
AcDbEntity
  8
10
100
AcDbLine
 10
214.3577915960579
 20
405.9399999999959
 30
0.0
 11
218.3577915960579
 21
405.9399999999959
 31
0.0
  0
LINE
  5
A6F
330
1F
100
AcDbEntity
  8
10
100
AcDbLine
 10
218.3577915960579
 20
405.7964064605471
 30
0.0
 11
230.2859948263336
 21
405.7964064605471
 31
0.0
  0
LINE
  5
A70
330
1F
100
AcDbEntity
  8
10
100
AcDbLine
 10
211.757791596058
 20
417.1900000000008
 30
0.0
 11
207.2577915960557
 21
417.1900000000008
 31
0.0
  0
LINE
  5
A71
330
1F
100
AcDbEntity
  8
10
100
AcDbLine
 10
159.7577915960556
 20
445.0000000000009
 30
0.0
 11
199.7577915960556
 21
445.0000000000009
 31
0.0
  0
ARC
  5
A72
330
1F
100
AcDbEntity
  8
10
100
AcDbCircle
 10
179.7577915960556
 20
440.0000000000008
 30
0.0
 40
12.5
100
AcDbArc
 50
23.57817847820715
 51
156.4218215217928
  0
LINE
  5
A73
330
1F
100
AcDbEntity
  8
10
100
AcDbLine
 10
59.85779159605614
 20
83.45230484541891
 30
0.0
 11
58.78599482633195
 21
86.91640646055565
 31
0.0
  0
LINE
  5
A74
330
1F
100
AcDbEntity
  8
10
100
AcDbLine
 10
59.85779159605614
 20
62.66769515459282
 30
0.0
 11
58.78599482633195
 21
59.20359353945467
 31
0.0
  0
LINE
  5
A75
330
1F
100
AcDbEntity
  8
10
100
AcDbLine
 10
13.15779159605402
 20
83.45230484541891
 30
0.0
 11
14.22958836577867
 21
86.91640646055565
 31
0.0
  0
LINE
  5
A76
330
1F
100
AcDbEntity
  8
10
100
AcDbLine
 10
13.15779159605402
 20
62.66769515459282
 30
0.0
 11
14.22958836577867
 21
59.20359353945467
 31
0.0
  0
LINE
  5
A77
330
1F
100
AcDbEntity
  8
10
100
AcDbLine
 10
184.6577915960565
 20
83.45230484541891
 30
0.0
 11
185.7295883657809
 21
86.91640646055565
 31
0.0
  0
LINE
  5
A78
330
1F
100
AcDbEntity
  8
10
100
AcDbLine
 10
184.6577915960565
 20
62.66769515459282
 30
0.0
 11
185.7295883657809
 21
59.20359353945467
 31
0.0
  0
LINE
  5
A79
330
1F
100
AcDbEntity
  8
10
100
AcDbLine
 10
231.3577915960578
 20
83.45230484541891
 30
0.0
 11
230.2859948263336
 21
86.91640646055565
 31
0.0
  0
LINE
  5
A7A
330
1F
100
AcDbEntity
  8
10
100
AcDbLine
 10
231.3577915960578
 20
62.66769515459282
 30
0.0
 11
230.2859948263336
 21
59.20359353945467
 31
0.0
  0
LINE
  5
A7B
330
1F
100
AcDbEntity
  8
10
100
AcDbLine
 10
184.6577915960565
 20
402.332304845409
 30
0.0
 11
185.7295883657809
 21
405.7964064605471
 31
0.0
  0
LINE
  5
A7C
330
1F
100
AcDbEntity
  8
10
100
AcDbLine
 10
184.6577915960565
 20
381.5476951545818
 30
0.0
 11
185.7295883657809
 21
378.0835935394446
 31
0.0
  0
LINE
  5
A7D
330
1F
100
AcDbEntity
  8
10
100
AcDbLine
 10
230.2859948263336
 20
405.7964064605471
 30
0.0
 11
231.3577915960578
 21
402.332304845409
 31
0.0
  0
LINE
  5
A7E
330
1F
100
AcDbEntity
  8
10
100
AcDbLine
 10
230.2859948263336
 20
378.0835935394446
 30
0.0
 11
231.3577915960578
 21
381.5476951545818
 31
0.0
  0
LINE
  5
A7F
330
1F
100
AcDbEntity
  8
10
100
AcDbLine
 10
58.78599482633195
 20
405.7964064605471
 30
0.0
 11
59.85779159605614
 21
402.332304845409
 31
0.0
  0
LINE
  5
A80
330
1F
100
AcDbEntity
  8
10
100
AcDbLine
 10
58.78599482633195
 20
378.0835935394446
 30
0.0
 11
59.85779159605614
 21
381.5476951545818
 31
0.0
  0
LINE
  5
A81
330
1F
100
AcDbEntity
  8
10
100
AcDbLine
 10
13.15779159605402
 20
402.332304845409
 30
0.0
 11
14.22958836577867
 21
405.7964064605471
 31
0.0
  0
LINE
  5
A82
330
1F
100
AcDbEntity
  8
10
100
AcDbLine
 10
13.15779159605402
 20
381.5476951545818
 30
0.0
 11
14.22958836577867
 21
378.0835935394446
 31
0.0
  0
LINE
  5
A83
330
1F
100
AcDbEntity
  8
10
100
AcDbLine
 10
664.5011214758308
 20
30.29422863405989
 30
0.0
 11
663.6972738985368
 21
32.89230484541392
 31
0.0
  0
LINE
  5
A84
330
1F
100
AcDbEntity
  8
10
100
AcDbLine
 10
663.6972738985368
 20
32.89230484541392
 30
0.0
 11
664.5011214758308
 21
14.70577136594192
 31
0.0
  0
LINE
  5
A85
330
1F
100
AcDbEntity
  8
10
100
AcDbLine
 10
664.5011214758308
 20
14.70577136594192
 30
0.0
 11
663.6972738985368
 21
12.10769515458696
 31
0.0
  0
LINE
  5
A86
330
1F
100
AcDbEntity
  8
10
100
AcDbLine
 10
664.5011214758308
 20
445.2942286340594
 30
0.0
 11
663.6972738985368
 21
447.8923048454126
 31
0.0
  0
LINE
  5
A87
330
1F
100
AcDbEntity
  8
10
100
AcDbLine
 10
664.5011214758308
 20
429.7057713659405
 30
0.0
 11
663.6972738985368
 21
427.1076951545867
 31
0.0
  0
LINE
  5
A88
330
1F
100
AcDbEntity
  8
10
 48
10.0
100
AcDbLine
 10
407.5011214758298
 20
407.9399999999997
 30
0.0
 11
407.5011214758298
 21
426.939999999996
 31
0.0
  0
LINE
  5
A89
330
1F
100
AcDbEntity
  8
10
 48
10.0
100
AcDbLine
 10
407.5011214758298
 20
89.06000000000084
 30
0.0
 11
407.5011214758298
 21
108.0600000000057
 31
0.0
  0
LINE
  5
B53
330
1F
100
AcDbEntity
  8
12
 48
8.0
100
AcDbLine
 10
57.00779159605577
 20
25.00000000000098
 30
0.0
 11
37.50779159605585
 21
25.00000000000098
 31
0.0
  0
LINE
  5
B54
330
1F
100
AcDbEntity
  8
12
 48
8.0
100
AcDbLine
 10
47.25779159605575
 20
34.75000000000098
 30
0.0
 11
47.25779159605575
 21
15.25000000000098
 31
0.0
  0
LINE
  5
B65
330
1F
100
AcDbEntity
  8
12
 48
8.0
100
AcDbLine
 10
47.25728735080003
 20
444.8182217489588
 30
0.0
 11
47.25728735080003
 21
425.3182217489589
 31
0.0
  0
LINE
  5
B66
330
1F
100
AcDbEntity
  8
12
 48
8.0
100
AcDbLine
 10
37.50728735080014
 20
435.0682217489588
 30
0.0
 11
57.00728735080006
 21
435.0682217489588
 31
0.0
  0
LINE
  5
B6E
330
1F
100
AcDbEntity
  8
12
 48
8.0
100
AcDbLine
 10
187.5077915960556
 20
435.0000000000008
 30
0.0
 11
207.0077915960556
 21
435.0000000000008
 31
0.0
  0
LINE
  5
B6F
330
1F
100
AcDbEntity
  8
12
 48
8.0
100
AcDbLine
 10
197.2577915960556
 20
444.7500000000008
 30
0.0
 11
197.2577915960556
 21
425.2500000000008
 31
0.0
  0
LINE
  5
BCB
330
1F
100
AcDbEntity
  8
0
100
AcDbLine
 10
14.75779159605576
 20
465.0
 30
0.0
 11
14.75779159605576
 21
465.0
 31
0.0
  0
LINE
  5
CE0
330
1F
100
AcDbEntity
  8
12
 48
8.0
100
AcDbLine
 10
207.0077915960554
 20
25.00000000000055
 30
0.0
 11
187.5077915960556
 21
25.00000000000055
 31
0.0
  0
LINE
  5
CE1
330
1F
100
AcDbEntity
  8
12
 48
8.0
100
AcDbLine
 10
197.2577915960554
 20
34.75000000000056
 30
0.0
 11
197.2577915960554
 21
15.25000000000056
 31
0.0
  0
LINE
  5
DD0
330
1F
100
AcDbEntity
  8
0
100
AcDbLine
 10
-11.51954878996457
 20
435.0742313339931
 30
0.0
 11
-11.51954878996457
 21
435.0742313339931
 31
0.0
  0
VIEWPORT
  5
409
330
23
100
AcDbEntity
 67
     1
  8
0
100
AcDbViewport
 10
142.6315765380859
 20
99.1129140853882
 30
0.0
 40
314.2372683715819
 41
259.7433703258352
 68
     1
 69
     1
1001
ACAD
1000
MVIEW
1002
{
1070
    16
1010
0.0
1020
0.0
1030
0.0
1010
0.0
1020
0.0
1030
1.0
1040
0.0
1040
259.7433703258352
1040
142.6315765380859
1040
99.1129140853882
1040
50.0
1040
0.0
1040
0.0
1070
     0
1070
   100
1070
     1
1070
     1
1070
     0
1070
     0
1070
     0
1070
     0
1040
0.0
1040
0.0
1040
0.0
1040
10.0
1040
10.0
1040
10.0
1040
10.0
1070
     0
1002
{
1002
}
1002
}
  0
VIEWPORT
  5
40B
330
23
100
AcDbEntity
 67
     1
  8
0
100
AcDbViewport
 10
142.6315770149231
 20
99.11291456222535
 30
0.0
 40
228.2105232238769
 41
158.5806632995605
 68
     2
 69
     2
1001
ACAD
1000
MVIEW
1002
{
1070
    16
1010
0.0
1020
0.0
1030
0.0
1010
0.0
1020
0.0
1030
1.0
1040
0.0
1040
437.7797658097811
1040
303.2144175903108
1040
233.3590858733038
1040
50.0
1040
0.0
1040
0.0
1070
     0
1070
   100
1070
     1
1070
     3
1070
     0
1070
     0
1070
     0
1070
     0
1040
0.0
1040
0.0
1040
0.0
1040
10.0
1040
10.0
1040
10.0
1040
10.0
1070
     0
1002
{
1002
}
1002
}
  0
ENDSEC
  0
SECTION
  2
OBJECTS
  0
DICTIONARY
  5
C
330
0
100
AcDbDictionary
  3
ACAD_GROUP
350
D
  3
ACAD_LAYOUT
350
1A
  3
ACAD_MLINESTYLE
350
17
  3
ACAD_PLOTSETTINGS
350
19
  3
ACAD_PLOTSTYLENAME
350
E
  3
ACAMCATALOGSTATE
350
5BA
  3
ACASAPPOBJECT
350
53F
  3
ACASGREF_MASTER
350
587
  3
ACDBHEADERROUNDTRIPXREC
350
E04
  3
ACDBVARIABLEDICTIONARY
350
40D
  3
ACDMSYSVARMGR
350
519
  3
ACGREF_MASTER
350
513
  3
ACGREFACAD_MASTER
350
53B
  3
ACMDICTIONARY
350
5B6
  3
ACME_BOM_MANAGER_NAME
350
50C
  3
ACME_COMMAND_HISTORY
350
507
  3
ACME_SCOPE_NAME
350
506
  3
ACMESTATEMGR
350
511
  3
ACMESYSVARMANAGER
350
508
  3
ACMSYSTEMVARIABLEMANAGER
350
5C4
  3
AD_APPL
350
59E
  3
AD_GREF_MODULE
350
588
  3
AD_MAPI_MODULE
350
5A0
  3
ADSYSVARMGR
350
590
  3
AMDTNAMEDDWGMGR
350
536
  3
AMG
350
4FD
  3
AMGSNAPSETTINGS
350
5D0
  3
AMI_MASTER
350
53E
  3
ASURF_STATIC_VARS
350
540
  3
AUTOCAD_ASSEMBLIES_PROJECT
350
5AB
  3
AUTOSURF_SYSVARS
350
541
  3
DESIGNER_ASSEMBLIES_SYSVARS
350
5A2
  3
DWGPROPS
350
5B9
  3
GREFAM_MODULE
350
58A
  3
MAPISURF_MODULE
350
589
  0
DICTIONARY
  5
41
330
2
100
AcDbDictionary
280
     1
  3
ACAD_LAYERFILTERS
360
3FF
  3
ACAD_LAYERSTATES
360
42
  0
DICTIONARY
  5
438
330
1F
100
AcDbDictionary
280
     1
  3
ACAD_INDEX
360
D12
  3
ACAD_LAYOUTSELFREF
360
E24
  0
DICTIONARY
  5
43A
330
23
100
AcDbDictionary
280
     1
  3
ACAD_LAYOUTSELFREF
360
E25
  0
DICTIONARY
  5
D
102
{ACAD_REACTORS
330
C
102
}
330
C
100
AcDbDictionary
  0
DICTIONARY
  5
1A
102
{ACAD_REACTORS
330
C
102
}
330
C
100
AcDbDictionary
  0
DICTIONARY
  5
17
102
{ACAD_REACTORS
330
C
102
}
330
C
100
AcDbDictionary
  3
STANDARD
350
18
  0
DICTIONARY
  5
19
102
{ACAD_REACTORS
330
C
102
}
330
C
100
AcDbDictionary
  0
ACDBDICTIONARYWDFLT
  5
E
102
{ACAD_REACTORS
330
C
102
}
330
C
100
AcDbDictionary
281
     1
  3
Normal
350
F
100
AcDbDictionaryWithDefault
340
F
  0
ACAD_PROXY_OBJECT
  5
5BA
102
{ACAD_REACTORS
330
C
102
}
330
C
100
AcDbProxyObject
 90
      499
 91
      574
 93
      880
310
3FFFFFFFE00A0284402B0AE2E189C9917189B1C17189719182E32B733B4B732B2B934B733AE32B733B4B732B2B934B733AE26A2A2C5E34B58AE181C1898189A2FA6A2A2AF99222FC6F6483EAE39B4B5BCBAAE232916A420A62FA422A62FA1A0A22E4728C6B641B340ADC1AF400AA65
 94
        0
1001
ACAD
1000
AcadProxyRoundTripData
1071
      565
1071
   851991
1070
     0
  0
ACAD_PROXY_OBJECT
  5
53F
102
{ACAD_REACTORS
330
C
102
}
330
C
100
AcDbProxyObject
 90
      499
 91
      574
 93
       10
310
4044
 94
        0
1001
ACAD
1000
AcadProxyRoundTripData
1071
      537
1071
   851991
1070
     0
  0
ACAD_PROXY_OBJECT
  5
587
102
{ACAD_REACTORS
330
C
102
}
330
C
100
AcDbProxyObject
 90
      499
 91
      574
 93
       34
310
0100004060
 94
        0
1001
ACAD
1000
AcadProxyRoundTripData
1071
      543
1071
   851991
1070
     0
  0
DICTIONARY
  5
E04
102
{ACAD_REACTORS
330
C
102
}
330
C
100
AcDbDictionary
  3
CEPSNTYPE
350
E0E
  3
FINGERPRINTGUID
350
E0F
  3
HYPERLINKBASE
350
E07
  3
INSUNITS
350
E0D
  3
LAYOUTDICT
350
E09
  3
LWETCUNION
350
E0C
  3
PLOTSETDICT
350
E0A
  3
PLOTSTYLNAMDICT
350
E0B
  3
PSVPSCALE
350
E11
  3
PUCSBASE
350
E14
  3
PUCSORGBACK
350
E1A
  3
PUCSORGBOTTOM
350
E16
  3
PUCSORGFRONT
350
E19
  3
PUCSORGLEFT
350
E17
  3
PUCSORGRIGHT
350
E18
  3
PUCSORGTOP
350
E15
  3
PUCSORTHOREF
350
E12
  3
PUCSORTHOVIEW
350
E13
  3
STYLESHEET
350
E08
  3
TSTACKALIGN
350
E05
  3
TSTACKSIZE
350
E06
  3
UCSBASE
350
E1D
  3
UCSORGBACK
350
E23
  3
UCSORGBOTTOM
350
E1F
  3
UCSORGFRONT
350
E22
  3
UCSORGLEFT
350
E20
  3
UCSORGRIGHT
350
E21
  3
UCSORGTOP
350
E1E
  3
UCSORTHOREF
350
E1B
  3
UCSORTHOVIEW
350
E1C
  3
VERSIONGUID
350
E10
  0
DICTIONARY
  5
40D
102
{ACAD_REACTORS
330
C
102
}
330
C
100
AcDbDictionary
  3
DIMASSOC
350
40F
  3
HIDETEXT
350
40E
  3
INDEXCTL
350
5DF
  0
ACAD_PROXY_OBJECT
  5
519
102
{ACAD_REACTORS
330
C
102
}
330
C
100
AcDbProxyObject
 90
      499
 91
      574
 93
      240
310
4C51A482000000000000000000000000000000000000000000000000000092
330
51A
330
51B
330
51C
330
51D
330
51E
330
51F
330
520
330
523
330
524
330
525
330
526
330
527
330
528
330
529
330
52A
330
52B
330
52C
330
52D
330
52E
330
52F
330
530
330
531
330
532
330
533
330
534
330
535
 94
        0
1001
ACAD
1000
AcadProxyRoundTripData
1071
      516
1071
   851991
1070
     0
  0
ACAD_PROXY_OBJECT
  5
513
102
{ACAD_REACTORS
330
C
102
}
330
C
100
AcDbProxyObject
 90
      499
 91
      574
 93
       34
310
04000042A0
 94
        0
1001
ACAD
1000
AcadProxyRoundTripData
1071
      525
1071
   851991
1070
     0
  0
ACAD_PROXY_OBJECT
  5
53B
102
{ACAD_REACTORS
330
C
102
}
330
C
100
AcDbProxyObject
 90
      499
 91
      574
 93
      114
310
04000041C000000000000000000000
 94
        0
1001
ACAD
1000
AcadProxyRoundTripData
1071
      533
1071
   851991
1070
     0
  0
DICTIONARY
  5
5B6
102
{ACAD_REACTORS
330
C
102
}
330
C
100
AcDbDictionary
  3
ACMBOMDATA
350
5B7
  0
ACAD_PROXY_OBJECT
  5
50C
102
{ACAD_REACTORS
330
C
102
}
330
C
100
AcDbProxyObject
 90
      499
 91
      574
 93
       50
310
00000040400025
330
0
330
0
330
50D
 94
        0
1001
ACAD
1000
AcadProxyRoundTripData
1071
      519
1071
   851991
1070
     0
  0
ACAD_PROXY_OBJECT
  5
507
102
{ACAD_REACTORS
330
C
102
}
330
C
100
AcDbProxyObject
 90
      499
 91
      574
 93
      778
310
424050E414D4454524553455444424D4F4440805084E202D20554E444F014213880B4815539113C0507544F4F4C42415280504554E444F80504554E444F80504554E444F80504554E444F80504554E444F80505455241534580506534156454153A4
 94
        0
1001
ACAD
1000
AcadProxyRoundTripData
1071
      515
1071
   851991
1070
     0
  0
ACAD_PROXY_OBJECT
  5
506
102
{ACAD_REACTORS
330
C
102
}
330
C
100
AcDbProxyObject
 90
      499
 91
      574
 93
     1242
310
06000044400000000000000000001840000400020000000000000000000000000000000000000000000000000000000000000000000000000000000000000000000000000000000000000000000000000000000000000000000000000000000000000000000000000000000000000000000000000000000000000000000000
310
00000000000000000000000000000000000000000000000000AAAAAAB2
360
509
360
50A
360
50B
360
50D
360
514
360
515
360
516
360
517
360
51A
360
51B
360
51C
360
51D
360
51E
360
51F
360
520
360
523
360
524
360
525
360
526
360
527
360
528
360
529
360
52A
360
52B
360
52C
360
52D
360
52E
360
52F
360
530
360
531
360
532
360
533
360
534
360
535
360
542
360
543
360
544
360
545
360
546
360
547
360
548
360
549
360
54A
360
54B
360
54C
360
54D
360
54E
360
54F
360
550
360
551
360
552
360
553
360
554
360
555
360
556
360
557
360
558
360
559
360
55A
360
55B
360
55C
360
55D
360
55E
360
55F
360
560
360
561
360
562
360
563
360
564
360
565
360
566
360
567
360
568
360
569
360
56A
360
56B
360
56C
360
56D
360
56E
360
56F
360
570
360
571
360
572
360
573
360
574
360
575
360
576
360
577
360
578
360
579
360
57A
360
57B
360
57C
360
57D
360
57E
360
57F
360
580
360
581
360
582
360
583
360
58C
360
58D
360
58E
360
58F
360
591
360
592
360
593
360
594
360
595
360
596
360
597
360
598
360
599
360
59A
360
59B
360
59C
360
59D
360
5A3
360
5A4
360
5A5
360
5A6
360
5A7
360
5A8
360
5A9
360
5AA
360
5AF
360
5B0
360
5B1
360
5B2
360
5B3
360
5B4
360
5C5
 94
        0
1001
ACAD
1000
AcadProxyRoundTripData
1071
      514
1071
   851991
1070
     0
  0
ACAD_PROXY_OBJECT
  5
511
102
{ACAD_REACTORS
330
C
102
}
330
C
100
AcDbProxyObject
 90
      499
 91
      574
 93
       50
310
060000416412A5
 94
        0
1001
ACAD
1000
AcadProxyRoundTripData
1071
      524
1071
   851991
1070
     0
  0
ACAD_PROXY_OBJECT
  5
508
102
{ACAD_REACTORS
330
C
102
}
330
C
100
AcDbProxyObject
 90
      499
 91
      574
 93
       48
310
90342200000011
330
509
330
50A
330
50B
 94
        0
1001
ACAD
1000
AcadProxyRoundTripData
1071
      516
1071
   851991
1070
     0
  0
ACAD_PROXY_OBJECT
  5
5C4
102
{ACAD_REACTORS
330
C
102
}
330
C
100
AcDbProxyObject
 90
      499
 91
      574
 93
       32
310
9014220052
330
5C5
 94
        0
1001
ACAD
1000
AcadProxyRoundTripData
1071
      516
1071
   851991
1070
     0
  0
ACAD_PROXY_OBJECT
  5
59E
102
{ACAD_REACTORS
330
C
102
}
330
C
100
AcDbProxyObject
 90
      499
 91
      574
 93
       42
310
0006000043C6
330
58C
 94
        0
1001
ACAD
1000
AcadProxyRoundTripData
1071
      552
1071
   851991
1070
     0
  0
ACAD_PROXY_OBJECT
  5
588
102
{ACAD_REACTORS
330
C
102
}
330
C
100
AcDbProxyObject
 90
      499
 91
      574
 93
      114
310
000000438000000000000000000036
 94
        0
1001
ACAD
1000
AcadProxyRoundTripData
1071
      544
1071
   851991
1070
     0
  0
ACAD_PROXY_OBJECT
  5
5A0
102
{ACAD_REACTORS
330
C
102
}
330
C
100
AcDbProxyObject
 90
      499
 91
      574
 93
       34
310
05000044E0
 94
        0
1001
ACAD
1000
AcadProxyRoundTripData
1071
      554
1071
   851991
1070
     0
  0
ACAD_PROXY_OBJECT
  5
590
102
{ACAD_REACTORS
330
C
102
}
330
C
100
AcDbProxyObject
 90
      499
 91
      574
 93
      128
310
90D4420000000000000000000000000025
330
591
330
592
330
593
330
594
330
595
330
596
330
597
330
598
330
599
330
59A
330
59B
330
59C
330
59D
 94
        0
1001
ACAD
1000
AcadProxyRoundTripData
1071
      516
1071
   851991
1070
     0
  0
ACAD_PROXY_OBJECT
  5
536
102
{ACAD_REACTORS
330
C
102
}
330
C
100
AcDbProxyObject
 90
      499
 91
      574
 93
       42
310
000100005AC6
330
514
 94
        0
1001
ACAD
1000
AcadProxyRoundTripData
1071
      530
1071
   851991
1070
     0
  0
DICTIONARY
  5
4FD
102
{ACAD_REACTORS
330
C
102
}
330
C
100
AcDbDictionary
  3
ACMGSETTINGS
350
4FE
  3
AMGLAYCFG
350
5C3
  0
DICTIONARY
  5
5D0
102
{ACAD_REACTORS
330
C
102
}
330
C
100
AcDbDictionary
  3
DIMENSION
350
5D5
  3
FEA
350
5D4
  3
HATCH__1_
350
5D1
  3
HATCH__2_
350
5D2
  3
SIMPLE_WELD
350
5D6
  3
SYMBOLS
350
5D3
  0
ACAD_PROXY_OBJECT
  5
53E
102
{ACAD_REACTORS
330
C
102
}
330
C
100
AcDbProxyObject
 90
      499
 91
      574
 93
       34
310
05000042A0
 94
        0
1001
ACAD
1000
AcadProxyRoundTripData
1071
      536
1071
   851991
1070
     0
  0
ACAD_PROXY_OBJECT
  5
540
102
{ACAD_REACTORS
330
C
102
}
330
C
100
AcDbProxyObject
 90
      499
 91
      574
 93
      424
310
585315020000000000000000000000000000000000000000000000000000000000000000000000000000000000000000000000000004
330
553
330
554
330
555
330
556
330
557
330
558
330
559
330
55A
330
55B
330
55C
330
55D
330
55E
330
55F
330
560
330
561
330
562
330
563
330
564
330
565
330
566
330
567
330
568
330
569
330
56A
330
56B
330
56C
330
56D
330
56E
330
56F
330
570
330
571
330
572
330
573
330
574
330
575
330
576
330
577
330
578
330
579
330
57A
330
57B
330
57C
330
57D
330
57E
330
57F
330
580
330
581
330
582
330
583
 94
        0
1001
ACAD
1000
AcadProxyRoundTripData
1071
      538
1071
   851991
1070
     0
  0
ACAD_PROXY_OBJECT
  5
5AB
102
{ACAD_REACTORS
330
C
102
}
330
C
100
AcDbProxyObject
 90
      499
 91
      574
 93
       74
310
0600004A400000000010
330
5B2
330
0
330
5B3
330
0
330
0
 94
        0
1001
ACAD
1000
AcadProxyRoundTripData
1071
      556
1071
   851991
1070
     0
  0
ACAD_PROXY_OBJECT
  5
541
102
{ACAD_REACTORS
330
C
102
}
330
C
100
AcDbProxyObject
 90
      499
 91
      574
 93
      168
310
4C511482000000000000000000000000000000000000
330
542
330
543
330
544
330
545
330
546
330
547
330
548
330
549
330
54A
330
54B
330
54C
330
54D
330
54E
330
54F
330
550
330
551
330
552
 94
        0
1001
ACAD
1000
AcadProxyRoundTripData
1071
      516
1071
   851991
1070
     0
  0
ACAD_PROXY_OBJECT
  5
5A2
102
{ACAD_REACTORS
330
C
102
}
330
C
100
AcDbProxyObject
 90
      499
 91
      574
 93
       88
310
908422000000000000000000
330
5A3
330
5A4
330
5A5
330
5A6
330
5A7
330
5A8
330
5A9
330
5AA
 94
        0
1001
ACAD
1000
AcadProxyRoundTripData
1071
      516
1071
   851991
1070
     0
  0
XRECORD
  5
5B9
102
{ACAD_REACTORS
330
C
102
}
330
C
100
AcDbXrecord
  1
DWGPROPS COOKIE
  2

  3

  4

  6

  7

  8

  9

300
AmdtFileType=84
301
=
302
=
303
=
304
=
305
=
306
=
307
=
308
=
309
=
 40
0.005163125
 41
2454596.550355717
 42
2454596.675773645
  1

 90
        1
  0
ACAD_PROXY_OBJECT
  5
58A
102
{ACAD_REACTORS
330
C
102
}
330
C
100
AcDbProxyObject
 90
      499
 91
      574
 93
        8
310
0505
 94
        0
1001
ACAD
1000
AcadProxyRoundTripData
1071
      546
1071
   851991
1070
     0
  0
ACAD_PROXY_OBJECT
  5
589
102
{ACAD_REACTORS
330
C
102
}
330
C
100
AcDbProxyObject
 90
      499
 91
      574
 93
        8
310
0405
 94
        0
1001
ACAD
1000
AcadProxyRoundTripData
1071
      545
1071
   851991
1070
     0
  0
DICTIONARY
  5
3FF
102
{ACAD_REACTORS
330
41
102
}
330
41
100
AcDbDictionary
280
     1
  0
DICTIONARY
  5
42
102
{ACAD_REACTORS
330
41
102
}
330
41
100
AcDbDictionary
  0
DICTIONARY
  5
D12
102
{ACAD_REACTORS
330
438
102
}
330
438
100
AcDbDictionary
  3
*A1
350
D13
  0
XRECORD
  5
E24
102
{ACAD_REACTORS
330
438
102
}
330
438
100
AcDbXrecord
340
1F
  0
XRECORD
  5
E25
102
{ACAD_REACTORS
330
43A
102
}
330
43A
100
AcDbXrecord
340
23
  0
MLINESTYLE
  5
18
102
{ACAD_REACTORS
330
17
102
}
330
17
100
AcDbMlineStyle
  2
STANDARD
 70
     0
  3

 62
   256
 51
90.0
 52
90.0
 71
     2
 49
0.5
 62
   256
  6
BYLAYER
 49
-0.5
 62
   256
  6
BYLAYER
  0
ACDBPLACEHOLDER
  5
F
102
{ACAD_REACTORS
330
E
102
}
330
E
100
AcDbPlaceHolder
280
     0
  0
XRECORD
  5
E0E
102
{ACAD_REACTORS
330
E04
102
}
330
E04
100
AcDbXrecord
 90
        0
  0
XRECORD
  5
E0F
102
{ACAD_REACTORS
330
E04
102
}
330
E04
100
AcDbXrecord
  1
{025C7157-5529-449E-A239-D8CA396FD83B}
  0
XRECORD
  5
E07
102
{ACAD_REACTORS
330
E04
102
}
330
E04
100
AcDbXrecord
  1

  0
XRECORD
  5
E0D
102
{ACAD_REACTORS
330
E04
102
}
330
E04
100
AcDbXrecord
 90
        4
  0
XRECORD
  5
E09
102
{ACAD_REACTORS
330
E04
102
}
330
E04
100
AcDbXrecord
340
1A
  0
XRECORD
  5
E0C
102
{ACAD_REACTORS
330
E04
102
}
330
E04
100
AcDbXrecord
 90
    10781
  0
XRECORD
  5
E0A
102
{ACAD_REACTORS
330
E04
102
}
330
E04
100
AcDbXrecord
340
19
  0
XRECORD
  5
E0B
102
{ACAD_REACTORS
330
E04
102
}
330
E04
100
AcDbXrecord
340
E
  0
XRECORD
  5
E11
102
{ACAD_REACTORS
330
E04
102
}
330
E04
100
AcDbXrecord
 40
0.0
  0
XRECORD
  5
E14
102
{ACAD_REACTORS
330
E04
102
}
330
E04
100
AcDbXrecord
340
0
  0
XRECORD
  5
E1A
102
{ACAD_REACTORS
330
E04
102
}
330
E04
100
AcDbXrecord
 10
0.0
 20
0.0
 30
0.0
  0
XRECORD
  5
E16
102
{ACAD_REACTORS
330
E04
102
}
330
E04
100
AcDbXrecord
 10
0.0
 20
0.0
 30
0.0
  0
XRECORD
  5
E19
102
{ACAD_REACTORS
330
E04
102
}
330
E04
100
AcDbXrecord
 10
0.0
 20
0.0
 30
0.0
  0
XRECORD
  5
E17
102
{ACAD_REACTORS
330
E04
102
}
330
E04
100
AcDbXrecord
 10
0.0
 20
0.0
 30
0.0
  0
XRECORD
  5
E18
102
{ACAD_REACTORS
330
E04
102
}
330
E04
100
AcDbXrecord
 10
0.0
 20
0.0
 30
0.0
  0
XRECORD
  5
E15
102
{ACAD_REACTORS
330
E04
102
}
330
E04
100
AcDbXrecord
 10
0.0
 20
0.0
 30
0.0
  0
XRECORD
  5
E12
102
{ACAD_REACTORS
330
E04
102
}
330
E04
100
AcDbXrecord
340
0
  0
XRECORD
  5
E13
102
{ACAD_REACTORS
330
E04
102
}
330
E04
100
AcDbXrecord
 70
     0
  0
XRECORD
  5
E08
102
{ACAD_REACTORS
330
E04
102
}
330
E04
100
AcDbXrecord
  1

  0
XRECORD
  5
E05
102
{ACAD_REACTORS
330
E04
102
}
330
E04
100
AcDbXrecord
 90
        1
  0
XRECORD
  5
E06
102
{ACAD_REACTORS
330
E04
102
}
330
E04
100
AcDbXrecord
 90
       70
  0
XRECORD
  5
E1D
102
{ACAD_REACTORS
330
E04
102
}
330
E04
100
AcDbXrecord
340
0
  0
XRECORD
  5
E23
102
{ACAD_REACTORS
330
E04
102
}
330
E04
100
AcDbXrecord
 10
0.0
 20
0.0
 30
0.0
  0
XRECORD
  5
E1F
102
{ACAD_REACTORS
330
E04
102
}
330
E04
100
AcDbXrecord
 10
0.0
 20
0.0
 30
0.0
  0
XRECORD
  5
E22
102
{ACAD_REACTORS
330
E04
102
}
330
E04
100
AcDbXrecord
 10
0.0
 20
0.0
 30
0.0
  0
XRECORD
  5
E20
102
{ACAD_REACTORS
330
E04
102
}
330
E04
100
AcDbXrecord
 10
0.0
 20
0.0
 30
0.0
  0
XRECORD
  5
E21
102
{ACAD_REACTORS
330
E04
102
}
330
E04
100
AcDbXrecord
 10
0.0
 20
0.0
 30
0.0
  0
XRECORD
  5
E1E
102
{ACAD_REACTORS
330
E04
102
}
330
E04
100
AcDbXrecord
 10
0.0
 20
0.0
 30
0.0
  0
XRECORD
  5
E1B
102
{ACAD_REACTORS
330
E04
102
}
330
E04
100
AcDbXrecord
340
0
  0
XRECORD
  5
E1C
102
{ACAD_REACTORS
330
E04
102
}
330
E04
100
AcDbXrecord
 70
     0
  0
XRECORD
  5
E10
102
{ACAD_REACTORS
330
E04
102
}
330
E04
100
AcDbXrecord
  1
{62987E4C-1AD5-4F13-A69C-952DCC8CB741}
  0
DICTIONARYVAR
  5
40F
102
{ACAD_REACTORS
330
40D
102
}
330
40D
100
DictionaryVariables
280
     0
  1
2
  0
DICTIONARYVAR
  5
40E
102
{ACAD_REACTORS
330
40D
102
}
330
40D
100
DictionaryVariables
280
     0
  1
1
  0
DICTIONARYVAR
  5
5DF
102
{ACAD_REACTORS
330
40D
102
}
330
40D
100
DictionaryVariables
280
     0
  1
1
  0
ACAD_PROXY_OBJECT
  5
5B7
102
{ACAD_REACTORS
330
5B6
102
}
330
5B6
100
AcDbProxyObject
 90
      499
 91
      574
 93
      118
310
405010040CA904C415CD5B0757102A
350
5B8
 94
        0
1001
ACAD
1000
AcadProxyRoundTripData
1071
      563
1071
   851991
1070
     0
  0
ACAD_PROXY_OBJECT
  5
509
330
0
100
AcDbProxyObject
 90
      499
 91
      574
 93
      156
310
00010143D050D351505391D5531054925390D492
330
506
 94
        0
1001
ACAD
1000
AcadProxyRoundTripData
1071
      517
1071
   851991
1070
     0
  0
ACAD_PROXY_OBJECT
  5
50A
330
0
100
AcDbProxyObject
 90
      499
 91
      574
 93
      148
310
000101439050D351531253915054925390D490
330
506
 94
        0
1001
ACAD
1000
AcadProxyRoundTripData
1071
      517
1071
   851991
1070
     0
  0
ACAD_PROXY_OBJECT
  5
50B
330
0
100
AcDbProxyObject
 90
      499
 91
      574
 93
      156
310
000101439050D35154D6535093D314D256915082
330
506
 94
        0
1001
ACAD
1000
AcadProxyRoundTripData
1071
      518
1071
   851991
1070
     0
  0
ACAD_PROXY_OBJECT
  5
50D
330
0
100
AcDbProxyObject
 90
      499
 91
      574
 93
      120
310
000101422565255A6557080C402B0000
330
506
330
0
330
0
 94
        0
1001
ACAD
1000
AcadProxyRoundTripData
1071
      520
1071
   851991
1070
     0
  0
ACAD_PROXY_OBJECT
  5
514
330
0
100
AcDbProxyObject
 90
      499
 91
      574
 93
      358
310
0001014124FEA55D00507362E332E302E31014124FEA55D00507362E332E302E3140501000041505391D311658
330
506
330
515
330
519
 94
        0
1001
ACAD
1000
AcadProxyRoundTripData
1071
      526
1071
   851991
1070
     0
  0
ACAD_PROXY_OBJECT
  5
515
330
0
100
AcDbProxyObject
 90
      499
 91
      574
 93
       48
310
00019014220011
330
506
330
516
 94
        0
1001
ACAD
1000
AcadProxyRoundTripData
1071
      527
1071
   851991
1070
     0
  0
ACAD_PROXY_OBJECT
  5
516
330
0
100
AcDbProxyObject
 90
      499
 91
      574
 93
       48
310
0001AA00000011
330
506
330
4F8
330
517
330
0
 94
        0
1001
ACAD
1000
AcadProxyRoundTripData
1071
      528
1071
   851991
1070
     0
  0
ACAD_PROXY_OBJECT
  5
517
330
0
100
AcDbProxyObject
 90
      499
 91
      574
 93
       28
310
0001AAAC
330
506
 94
        0
1001
ACAD
1000
AcadProxyRoundTripData
1071
      529
1071
   851991
1070
     0
  0
ACAD_PROXY_OBJECT
  5
51A
330
0
100
AcDbProxyObject
 90
      499
 91
      574
 93
      108
310
000101421053521310D05310D013
330
506
 94
        0
1001
ACAD
1000
AcadProxyRoundTripData
1071
      518
1071
   851991
1070
     0
  0
ACAD_PROXY_OBJECT
  5
51B
330
0
100
AcDbProxyObject
 90
      499
 91
      574
 93
      124
310
00010142905354915554D15112535013
330
506
 94
        0
1001
ACAD
1000
AcadProxyRoundTripData
1071
      518
1071
   851991
1070
     0
  0
ACAD_PROXY_OBJECT
  5
51C
330
0
100
AcDbProxyObject
 90
      499
 91
      574
 93
      132
310
00010143105354D150D51253D391125362
330
506
 94
        0
1001
ACAD
1000
AcadProxyRoundTripData
1071
      518
1071
   851991
1070
     0
  0
ACAD_PROXY_OBJECT
  5
51D
330
0
100
AcDbProxyObject
 90
      499
 91
      574
 93
      124
310
00010142905355941093D49111549014
330
506
 94
        0
1001
ACAD
1000
AcadProxyRoundTripData
1071
      518
1071
   851991
1070
     0
  0
ACAD_PROXY_OBJECT
  5
51E
330
0
100
AcDbProxyObject
 90
      499
 91
      574
 93
      116
310
0001014290535115D1D0D3D313D4A1
330
506
 94
        0
1001
ACAD
1000
AcadProxyRoundTripData
1071
      518
1071
   851991
1070
     0
  0
ACAD_PROXY_OBJECT
  5
51F
330
0
100
AcDbProxyObject
 90
      499
 91
      574
 93
      148
310
00010143505355925155D49151949154D21015
330
506
 94
        0
1001
ACAD
1000
AcadProxyRoundTripData
1071
      518
1071
   851991
1070
     0
  0
ACAD_PROXY_OBJECT
  5
520
330
0
100
AcDbProxyObject
 90
      499
 91
      574
 93
      172
310
00010144105350539393D51154149154D15495915010
330
506
 94
        0
1001
ACAD
1000
AcadProxyRoundTripData
1071
      518
1071
   851991
1070
     0
  0
ACAD_PROXY_OBJECT
  5
523
330
0
100
AcDbProxyObject
 90
      499
 91
      574
 93
      172
310
00010144105350555513D11253505494905391D15010
330
506
 94
        0
1001
ACAD
1000
AcadProxyRoundTripData
1071
      518
1071
   851991
1070
     0
  0
ACAD_PROXY_OBJECT
  5
524
330
0
100
AcDbProxyObject
 90
      499
 91
      574
 93
      124
310
00010142D05351561514915191125360
330
506
 94
        0
1001
ACAD
1000
AcadProxyRoundTripData
1071
      518
1071
   851991
1070
     0
  0
ACAD_PROXY_OBJECT
  5
525
330
0
100
AcDbProxyObject
 90
      499
 91
      574
 93
      132
310
00010142D05355105410539393D5115013
330
506
 94
        0
1001
ACAD
1000
AcadProxyRoundTripData
1071
      518
1071
   851991
1070
     0
  0
ACAD_PROXY_OBJECT
  5
526
330
0
100
AcDbProxyObject
 90
      499
 91
      574
 93
      108
310
00010142105350555513D0D31013
330
506
 94
        0
1001
ACAD
1000
AcadProxyRoundTripData
1071
      518
1071
   851991
1070
     0
  0
ACAD_PROXY_OBJECT
  5
527
330
0
100
AcDbProxyObject
 90
      499
 91
      574
 93
      108
310
00010142105350D3119150551053
330
506
 94
        0
1001
ACAD
1000
AcadProxyRoundTripData
1071
      518
1071
   851991
1070
     0
  0
ACAD_PROXY_OBJECT
  5
528
330
0
100
AcDbProxyObject
 90
      499
 91
      574
 93
      108
310
00010142105350D315925155D3F3
330
506
 94
        0
1001
ACAD
1000
AcadProxyRoundTripData
1071
      518
1071
   851991
1070
     0
  0
ACAD_PROXY_OBJECT
  5
529
330
0
100
AcDbProxyObject
 90
      499
 91
      574
 93
      148
310
0001014350535212511156915493D112535010
330
506
 94
        0
1001
ACAD
1000
AcadProxyRoundTripData
1071
      518
1071
   851991
1070
     0
  0
ACAD_PROXY_OBJECT
  5
52A
330
0
100
AcDbProxyObject
 90
      499
 91
      574
 93
      124
310
00010142905352105510D21254D3D013
330
506
 94
        0
1001
ACAD
1000
AcadProxyRoundTripData
1071
      518
1071
   851991
1070
     0
  0
ACAD_PROXY_OBJECT
  5
52B
330
0
100
AcDbProxyObject
 90
      499
 91
      574
 93
      148
310
00010143905354D25391D31152105513105660
330
506
 94
        0
1001
ACAD
1000
AcadProxyRoundTripData
1071
      518
1071
   851991
1070
     0
  0
ACAD_PROXY_OBJECT
  5
52C
330
0
100
AcDbProxyObject
 90
      499
 91
      574
 93
      124
310
00010142D0535115D1D193111254D424
330
506
 94
        0
1001
ACAD
1000
AcadProxyRoundTripData
1071
      518
1071
   851991
1070
     0
  0
ACAD_PROXY_OBJECT
  5
52D
330
0
100
AcDbProxyObject
 90
      499
 91
      574
 93
      100
310
00010142105350555513D213A5
330
506
 94
        0
1001
ACAD
1000
AcadProxyRoundTripData
1071
      518
1071
   851991
1070
     0
  0
ACAD_PROXY_OBJECT
  5
52E
330
0
100
AcDbProxyObject
 90
      499
 91
      574
 93
      116
310
000101425053521390D3D553951013
330
506
 94
        0
1001
ACAD
1000
AcadProxyRoundTripData
1071
      518
1071
   851991
1070
     0
  0
ACAD_PROXY_OBJECT
  5
52F
330
0
100
AcDbProxyObject
 90
      499
 91
      574
 93
      108
310
0001014210535213941493D29010
330
506
 94
        0
1001
ACAD
1000
AcadProxyRoundTripData
1071
      518
1071
   851991
1070
     0
  0
ACAD_PROXY_OBJECT
  5
530
330
0
100
AcDbProxyObject
 90
      499
 91
      574
 93
      108
310
0001014210535213951654115070
330
506
 94
        0
1001
ACAD
1000
AcadProxyRoundTripData
1071
      518
1071
   851991
1070
     0
  0
ACAD_PROXY_OBJECT
  5
531
330
0
100
AcDbProxyObject
 90
      499
 91
      574
 93
      108
310
000101421053521395925155D0F0
330
506
 94
        0
1001
ACAD
1000
AcadProxyRoundTripData
1071
      518
1071
   851991
1070
     0
  0
ACAD_PROXY_OBJECT
  5
532
330
0
100
AcDbProxyObject
 90
      499
 91
      574
 93
      140
310
00010143505354D150D51253D390D3D41665
330
506
 94
        0
1001
ACAD
1000
AcadProxyRoundTripData
1071
      518
1071
   851991
1070
     0
  0
ACAD_PROXY_OBJECT
  5
533
330
0
100
AcDbProxyObject
 90
      499
 91
      574
 93
      108
310
00010142105350D3141493D29030
330
506
 94
        0
1001
ACAD
1000
AcadProxyRoundTripData
1071
      518
1071
   851991
1070
     0
  0
ACAD_PROXY_OBJECT
  5
534
330
0
100
AcDbProxyObject
 90
      499
 91
      574
 93
      212
310
00010143905350555513D2105510D21493D500000000000002E400
330
506
 94
        0
1001
ACAD
1000
AcadProxyRoundTripData
1071
      517
1071
   851991
1070
     0
  0
ACAD_PROXY_OBJECT
  5
535
330
0
100
AcDbProxyObject
 90
      499
 91
      574
 93
      156
310
00010143905350555513D2105510D21111551010
330
506
 94
        0
1001
ACAD
1000
AcadProxyRoundTripData
1071
      518
1071
   851991
1070
     0
  0
ACAD_PROXY_OBJECT
  5
542
330
0
100
AcDbProxyObject
 90
      499
 91
      574
 93
      116
310
000101425053541051D15311539191
330
506
 94
        0
1001
ACAD
1000
AcadProxyRoundTripData
1071
      518
1071
   851991
1070
     0
  0
ACAD_PROXY_OBJECT
  5
543
330
0
100
AcDbProxyObject
 90
      499
 91
      574
 93
      108
310
000101421053555312539154D053
330
506
 94
        0
1001
ACAD
1000
AcadProxyRoundTripData
1071
      518
1071
   851991
1070
     0
  0
ACAD_PROXY_OBJECT
  5
544
330
0
100
AcDbProxyObject
 90
      499
 91
      574
 93
      108
310
000101421053559312539154D033
330
506
 94
        0
1001
ACAD
1000
AcadProxyRoundTripData
1071
      518
1071
   851991
1070
     0
  0
ACAD_PROXY_OBJECT
  5
545
330
0
100
AcDbProxyObject
 90
      499
 91
      574
 93
      140
310
00010143105354D1911254D41353D111501A
330
506
 94
        0
1001
ACAD
1000
AcadProxyRoundTripData
1071
      518
1071
   851991
1070
     0
  0
ACAD_PROXY_OBJECT
  5
546
330
0
100
AcDbProxyObject
 90
      499
 91
      574
 93
      172
310
00010142505354119255105391C1C052DC9A6F104403
330
506
 94
        0
1001
ACAD
1000
AcadProxyRoundTripData
1071
      517
1071
   851991
1070
     0
  0
ACAD_PROXY_OBJECT
  5
547
330
0
100
AcDbProxyObject
 90
      499
 91
      574
 93
      164
310
000101421053559150D05551C000000000000E03F8
330
506
 94
        0
1001
ACAD
1000
AcadProxyRoundTripData
1071
      517
1071
   851991
1070
     0
  0
ACAD_PROXY_OBJECT
  5
548
330
0
100
AcDbProxyObject
 90
      499
 91
      574
 93
      180
310
00010142905350931153911513D307B14AE47E17A843F3
330
506
 94
        0
1001
ACAD
1000
AcadProxyRoundTripData
1071
      517
1071
   851991
1070
     0
  0
ACAD_PROXY_OBJECT
  5
549
330
0
100
AcDbProxyObject
 90
      499
 91
      574
 93
      172
310
0001014250535293D25391D05407B14AE47E17A843F8
330
506
 94
        0
1001
ACAD
1000
AcadProxyRoundTripData
1071
      517
1071
   851991
1070
     0
  0
ACAD_PROXY_OBJECT
  5
54A
330
0
100
AcDbProxyObject
 90
      499
 91
      574
 93
      172
310
000101425053541192551311538000000FC83D797418
330
506
 94
        0
1001
ACAD
1000
AcadProxyRoundTripData
1071
      517
1071
   851991
1070
     0
  0
ACAD_PROXY_OBJECT
  5
54B
330
0
100
AcDbProxyObject
 90
      499
 91
      574
 93
      156
310
00010141D053559150D4D18000000000000E03F8
330
506
 94
        0
1001
ACAD
1000
AcadProxyRoundTripData
1071
      517
1071
   851991
1070
     0
  0
ACAD_PROXY_OBJECT
  5
54C
330
0
100
AcDbProxyObject
 90
      499
 91
      574
 93
      156
310
00010141D05354D19513D309A9999999999993F8
330
506
 94
        0
1001
ACAD
1000
AcadProxyRoundTripData
1071
      517
1071
   851991
1070
     0
  0
ACAD_PROXY_OBJECT
  5
54D
330
0
100
AcDbProxyObject
 90
      499
 91
      574
 93
      172
310
000101425053541192551513D307B14AE47E17A843F8
330
506
 94
        0
1001
ACAD
1000
AcadProxyRoundTripData
1071
      517
1071
   851991
1070
     0
  0
ACAD_PROXY_OBJECT
  5
54E
330
0
100
AcDbProxyObject
 90
      499
 91
      574
 93
      188
310
00010142D05354D151D192551513D307B14AE47E17A843F0
330
506
 94
        0
1001
ACAD
1000
AcadProxyRoundTripData
1071
      517
1071
   851991
1070
     0
  0
ACAD_PROXY_OBJECT
  5
54F
330
0
100
AcDbProxyObject
 90
      499
 91
      574
 93
      148
310
000101419053541311538000000FC83D79741F
330
506
 94
        0
1001
ACAD
1000
AcadProxyRoundTripData
1071
      517
1071
   851991
1070
     0
  0
ACAD_PROXY_OBJECT
  5
550
330
0
100
AcDbProxyObject
 90
      499
 91
      574
 93
      172
310
00010142505354105391D513D301C052DC9A6F104402
330
506
 94
        0
1001
ACAD
1000
AcadProxyRoundTripData
1071
      517
1071
   851991
1070
     0
  0
ACAD_PROXY_OBJECT
  5
551
330
0
100
AcDbProxyObject
 90
      499
 91
      574
 93
      132
310
0001014114D25691400000000000024404
330
506
 94
        0
1001
ACAD
1000
AcadProxyRoundTripData
1071
      517
1071
   851991
1070
     0
  0
ACAD_PROXY_OBJECT
  5
552
330
0
100
AcDbProxyObject
 90
      499
 91
      574
 93
      156
310
00010142905351D4941491519256005034153470
330
506
 94
        0
1001
ACAD
1000
AcadProxyRoundTripData
1071
      539
1071
   851991
1070
     0
  0
ACAD_PROXY_OBJECT
  5
553
330
0
100
AcDbProxyObject
 90
      499
 91
      574
 93
      314
310
00014080509646973745363616C650000000000003C2FC000000000000F0BF0000003F20F5E5D050
330
506
 94
        0
1001
ACAD
1000
AcadProxyRoundTripData
1071
      540
1071
   851991
1070
     0
  0
ACAD_PROXY_OBJECT
  5
554
330
0
100
AcDbProxyObject
 90
      499
 91
      574
 93
      322
310
0001408050A65646175526F74617465060B51153EC87E4FC182D4454FB2119C0060B51153EC8465004
330
506
 94
        0
1001
ACAD
1000
AcadProxyRoundTripData
1071
      540
1071
   851991
1070
     0
  0
ACAD_PROXY_OBJECT
  5
555
330
0
100
AcDbProxyObject
 90
      499
 91
      574
 93
      314
310
00014080509656461755477697374060B51153EC846500000000FC83D797C10000003F20F5E5D050
330
506
 94
        0
1001
ACAD
1000
AcadProxyRoundTripData
1071
      540
1071
   851991
1070
     0
  0
ACAD_PROXY_OBJECT
  5
556
330
0
100
AcDbProxyObject
 90
      499
 91
      574
 93
      294
310
000140C050A656467654F75747075740144F3B7F635ECB74A140A4817D41BDB1E5B1A5B994
330
506
 94
        0
1001
ACAD
1000
AcadProxyRoundTripData
1071
      541
1071
   851991
1070
     0
  0
ACAD_PROXY_OBJECT
  5
557
330
0
100
AcDbProxyObject
 90
      499
 91
      574
 93
      154
310
0001404050B65646974507265766965774064040
330
506
 94
        0
1001
ACAD
1000
AcadProxyRoundTripData
1071
      542
1071
   851991
1070
     0
  0
ACAD_PROXY_OBJECT
  5
558
330
0
100
AcDbProxyObject
 90
      499
 91
      574
 93
      170
310
0001404050A666C6F77556C696E657342A3A00C00003
330
506
 94
        0
1001
ACAD
1000
AcadProxyRoundTripData
1071
      542
1071
   851991
1070
     0
  0
ACAD_PROXY_OBJECT
  5
559
330
0
100
AcDbProxyObject
 90
      499
 91
      574
 93
      170
310
0001404050A666C6F77566C696E657342A3A00C00003
330
506
 94
        0
1001
ACAD
1000
AcadProxyRoundTripData
1071
      542
1071
   851991
1070
     0
  0
ACAD_PROXY_OBJECT
  5
55A
330
0
100
AcDbProxyObject
 90
      499
 91
      574
 93
      322
310
0001408050A666C7366456E645261640000000000003C2FC000000000000F0BF0000003F20F5E5D044
330
506
 94
        0
1001
ACAD
1000
AcadProxyRoundTripData
1071
      540
1071
   851991
1070
     0
  0
ACAD_PROXY_OBJECT
  5
55B
330
0
100
AcDbProxyObject
 90
      499
 91
      574
 93
      246
310
000140C05086A6E33644D6F64650143E3BA24EB8A134A4817D3585B9D585B1
330
506
 94
        0
1001
ACAD
1000
AcadProxyRoundTripData
1071
      541
1071
   851991
1070
     0
  0
ACAD_PROXY_OBJECT
  5
55C
330
0
100
AcDbProxyObject
 90
      499
 91
      574
 93
      294
310
000140C050A6A6E33644F75747075740144F3B7F635ECB74A140A4817D41BDB1E5B1A5B995
330
506
 94
        0
1001
ACAD
1000
AcadProxyRoundTripData
1071
      541
1071
   851991
1070
     0
  0
ACAD_PROXY_OBJECT
  5
55D
330
0
100
AcDbProxyObject
 90
      499
 91
      574
 93
      306
310
000140805086C656E675065726300000000002016D002D431CEBE2361A3F0000003F20F5E5D046
330
506
 94
        0
1001
ACAD
1000
AcadProxyRoundTripData
1071
      540
1071
   851991
1070
     0
  0
ACAD_PROXY_OBJECT
  5
55E
330
0
100
AcDbProxyObject
 90
      499
 91
      574
 93
      266
310
0001408050B6D61737344656E7369747942D431CEBE2361A3F0000003F20F5E5D04B
330
506
 94
        0
1001
ACAD
1000
AcadProxyRoundTripData
1071
      540
1071
   851991
1070
     0
  0
ACAD_PROXY_OBJECT
  5
55F
330
0
100
AcDbProxyObject
 90
      499
 91
      574
 93
      186
310
000140805096D617373546869636BA0000003F20F5E5D07D
330
506
 94
        0
1001
ACAD
1000
AcadProxyRoundTripData
1071
      540
1071
   851991
1070
     0
  0
ACAD_PROXY_OBJECT
  5
560
330
0
100
AcDbProxyObject
 90
      499
 91
      574
 93
      230
310
000140C05086D6173735479706501436F2AB64A14CA4817D4DA195B1B1
330
506
 94
        0
1001
ACAD
1000
AcadProxyRoundTripData
1071
      541
1071
   851991
1070
     0
  0
ACAD_PROXY_OBJECT
  5
561
330
0
100
AcDbProxyObject
 90
      499
 91
      574
 93
      242
310
000140805086F667366446973744000000FC83D797C10000003F20F5E5D065
330
506
 94
        0
1001
ACAD
1000
AcadProxyRoundTripData
1071
      540
1071
   851991
1070
     0
  0
ACAD_PROXY_OBJECT
  5
562
330
0
100
AcDbProxyObject
 90
      499
 91
      574
 93
      258
310
0001408050A7072696D52616469757342D431CEBE2361A3F0000003F20F5E5D050
330
506
 94
        0
1001
ACAD
1000
AcadProxyRoundTripData
1071
      540
1071
   851991
1070
     0
  0
ACAD_PROXY_OBJECT
  5
563
330
0
100
AcDbProxyObject
 90
      499
 91
      574
 93
      194
310
0001408050A7072696D546F70526164A0000003F20F5E5D07F
330
506
 94
        0
1001
ACAD
1000
AcadProxyRoundTripData
1071
      540
1071
   851991
1070
     0
  0
ACAD_PROXY_OBJECT
  5
564
330
0
100
AcDbProxyObject
 90
      499
 91
      574
 93
      266
310
0001408050B7072696D5475626552616442D431CEBE2361A3F0000003F20F5E5D04B
330
506
 94
        0
1001
ACAD
1000
AcadProxyRoundTripData
1071
      540
1071
   851991
1070
     0
  0
ACAD_PROXY_OBJECT
  5
565
330
0
100
AcDbProxyObject
 90
      499
 91
      574
 93
      258
310
0001408050A7072696D4865696768744000000FC83D797C10000003F20F5E5D046
330
506
 94
        0
1001
ACAD
1000
AcadProxyRoundTripData
1071
      540
1071
   851991
1070
     0
  0
ACAD_PROXY_OBJECT
  5
566
330
0
100
AcDbProxyObject
 90
      499
 91
      574
 93
      250
310
000140805097072696D5374416E678182D4454FB2119C0060B51153EC8465000
330
506
 94
        0
1001
ACAD
1000
AcadProxyRoundTripData
1071
      540
1071
   851991
1070
     0
  0
ACAD_PROXY_OBJECT
  5
567
330
0
100
AcDbProxyObject
 90
      499
 91
      574
 93
      322
310
0001408050A7072696D456E64416E67060B51153EC846500182D4454FB2119C0060B51153EC8465004
330
506
 94
        0
1001
ACAD
1000
AcadProxyRoundTripData
1071
      540
1071
   851991
1070
     0
  0
ACAD_PROXY_OBJECT
  5
568
330
0
100
AcDbProxyObject
 90
      499
 91
      574
 93
      242
310
000140805087265765374416E678182D4454FB2119C0060B51153EC8465000
330
506
 94
        0
1001
ACAD
1000
AcadProxyRoundTripData
1071
      540
1071
   851991
1070
     0
  0
ACAD_PROXY_OBJECT
  5
569
330
0
100
AcDbProxyObject
 90
      499
 91
      574
 93
      314
310
00014080509726576456E64416E67060B51153EC846500182D4454FB2119C0060B51153EC8465021
330
506
 94
        0
1001
ACAD
1000
AcadProxyRoundTripData
1071
      540
1071
   851991
1070
     0
  0
ACAD_PROXY_OBJECT
  5
56A
330
0
100
AcDbProxyObject
 90
      499
 91
      574
 93
      194
310
0001404050C7266736655706174636865734290139C0C0003D
330
506
 94
        0
1001
ACAD
1000
AcadProxyRoundTripData
1071
      542
1071
   851991
1070
     0
  0
ACAD_PROXY_OBJECT
  5
56B
330
0
100
AcDbProxyObject
 90
      499
 91
      574
 93
      194
310
0001404050C7266736656706174636865734290139C0C0003D
330
506
 94
        0
1001
ACAD
1000
AcadProxyRoundTripData
1071
      542
1071
   851991
1070
     0
  0
ACAD_PROXY_OBJECT
  5
56C
330
0
100
AcDbProxyObject
 90
      499
 91
      574
 93
      246
310
000140C0508747562654D6F64650143E3BA24EB8A134A4817D3585B9D585B0
330
506
 94
        0
1001
ACAD
1000
AcadProxyRoundTripData
1071
      541
1071
   851991
1070
     0
  0
ACAD_PROXY_OBJECT
  5
56D
330
0
100
AcDbProxyObject
 90
      499
 91
      574
 93
      274
310
0001408050C747562654469616D6574657242D431CEBE2361A3F0000003F20F5E5D071
330
506
 94
        0
1001
ACAD
1000
AcadProxyRoundTripData
1071
      540
1071
   851991
1070
     0
  0
ACAD_PROXY_OBJECT
  5
56E
330
0
100
AcDbProxyObject
 90
      499
 91
      574
 93
      130
310
00014040509696E746572506F6C79A4056
330
506
 94
        0
1001
ACAD
1000
AcadProxyRoundTripData
1071
      542
1071
   851991
1070
     0
  0
ACAD_PROXY_OBJECT
  5
56F
330
0
100
AcDbProxyObject
 90
      499
 91
      574
 93
      162
310
0001404050D696E746572417567506F696E74A406C
330
506
 94
        0
1001
ACAD
1000
AcadProxyRoundTripData
1071
      542
1071
   851991
1070
     0
  0
ACAD_PROXY_OBJECT
  5
570
330
0
100
AcDbProxyObject
 90
      499
 91
      574
 93
      238
310
000140C0509696E7465727472696D014365EF257ECA108A4817D09BDD1A1
330
506
 94
        0
1001
ACAD
1000
AcadProxyRoundTripData
1071
      541
1071
   851991
1070
     0
  0
ACAD_PROXY_OBJECT
  5
571
330
0
100
AcDbProxyObject
 90
      499
 91
      574
 93
      230
310
000140C0509696E7465727479706501433136344A150A4817D51C9A5B5
330
506
 94
        0
1001
ACAD
1000
AcadProxyRoundTripData
1071
      541
1071
   851991
1070
     0
  0
ACAD_PROXY_OBJECT
  5
572
330
0
100
AcDbProxyObject
 90
      499
 91
      574
 93
      146
310
0001404050A636F726E65727472696D4064060
330
506
 94
        0
1001
ACAD
1000
AcadProxyRoundTripData
1071
      542
1071
   851991
1070
     0
  0
ACAD_PROXY_OBJECT
  5
573
330
0
100
AcDbProxyObject
 90
      499
 91
      574
 93
      130
310
000140405086F6673666B656570406404A
330
506
 94
        0
1001
ACAD
1000
AcadProxyRoundTripData
1071
      542
1071
   851991
1070
     0
  0
ACAD_PROXY_OBJECT
  5
574
330
0
100
AcDbProxyObject
 90
      499
 91
      574
 93
      146
310
0001404050A70726F6A4F757470757440A40E0
330
506
 94
        0
1001
ACAD
1000
AcadProxyRoundTripData
1071
      542
1071
   851991
1070
     0
  0
ACAD_PROXY_OBJECT
  5
575
330
0
100
AcDbProxyObject
 90
      499
 91
      574
 93
      270
310
000140C050D70726F6A446972656374696F6E014372F7AB6C0A124A4817DD92595DD
330
506
 94
        0
1001
ACAD
1000
AcadProxyRoundTripData
1071
      541
1071
   851991
1070
     0
  0
ACAD_PROXY_OBJECT
  5
576
330
0
100
AcDbProxyObject
 90
      499
 91
      574
 93
      130
310
0001404050870726F6A4B6565704064070
330
506
 94
        0
1001
ACAD
1000
AcadProxyRoundTripData
1071
      542
1071
   851991
1070
     0
  0
ACAD_PROXY_OBJECT
  5
577
330
0
100
AcDbProxyObject
 90
      499
 91
      574
 93
      278
310
000140C050B70726F6A53706163696E670144237164D2CA13CA4817D3DC1D1A5B585B1
330
506
 94
        0
1001
ACAD
1000
AcadProxyRoundTripData
1071
      541
1071
   851991
1070
     0
  0
ACAD_PROXY_OBJECT
  5
578
330
0
100
AcDbProxyObject
 90
      499
 91
      574
 93
      250
310
0001408050970726F6A54617065728182D4454FB21F9BF060B51153EC87E4FFD
330
506
 94
        0
1001
ACAD
1000
AcadProxyRoundTripData
1071
      540
1071
   851991
1070
     0
  0
ACAD_PROXY_OBJECT
  5
579
330
0
100
AcDbProxyObject
 90
      499
 91
      574
 93
      130
310
00014040508647261674B6565704064057
330
506
 94
        0
1001
ACAD
1000
AcadProxyRoundTripData
1071
      542
1071
   851991
1070
     0
  0
ACAD_PROXY_OBJECT
  5
57A
330
0
100
AcDbProxyObject
 90
      499
 91
      574
 93
      302
310
000140C050F647261674F7269656E746174696F6E0143E590243F0A138A4817D39BDC9B585B1
330
506
 94
        0
1001
ACAD
1000
AcadProxyRoundTripData
1071
      541
1071
   851991
1070
     0
  0
ACAD_PROXY_OBJECT
  5
57B
330
0
100
AcDbProxyObject
 90
      499
 91
      574
 93
      286
310
000140C050E647261675472616E736974696F6E0143A3B6A4DE0A10CA4817DCD0D85B195
330
506
 94
        0
1001
ACAD
1000
AcadProxyRoundTripData
1071
      541
1071
   851991
1070
     0
  0
ACAD_PROXY_OBJECT
  5
57C
330
0
100
AcDbProxyObject
 90
      499
 91
      574
 93
      318
310
000140C051061646A757374436F6E74696E7569747901442F746C2F778A14CA4817D4DB5BDBDD1A1
330
506
 94
        0
1001
ACAD
1000
AcadProxyRoundTripData
1071
      541
1071
   851991
1070
     0
  0
ACAD_PROXY_OBJECT
  5
57D
330
0
100
AcDbProxyObject
 90
      499
 91
      574
 93
      138
310
0001404050A61646A7573744B656570A405C
330
506
 94
        0
1001
ACAD
1000
AcadProxyRoundTripData
1071
      542
1071
   851991
1070
     0
  0
ACAD_PROXY_OBJECT
  5
57E
330
0
100
AcDbProxyObject
 90
      499
 91
      574
 93
      250
310
0001408050972756C65576964746842D431CEBE2361A3F0000003F20F5E5D048
330
506
 94
        0
1001
ACAD
1000
AcadProxyRoundTripData
1071
      540
1071
   851991
1070
     0
  0
ACAD_PROXY_OBJECT
  5
57F
330
0
100
AcDbProxyObject
 90
      499
 91
      574
 93
      274
310
0001408050C616E616C797A65447261667421D139D28615ED8FE060B51153EC8425003
330
506
 94
        0
1001
ACAD
1000
AcadProxyRoundTripData
1071
      540
1071
   851991
1070
     0
  0
ACAD_PROXY_OBJECT
  5
580
330
0
100
AcDbProxyObject
 90
      499
 91
      574
 93
      210
310
0001404050F616E616C797A654E756D4C696E65734163FDFC00026
330
506
 94
        0
1001
ACAD
1000
AcadProxyRoundTripData
1071
      542
1071
   851991
1070
     0
  0
ACAD_PROXY_OBJECT
  5
581
330
0
100
AcDbProxyObject
 90
      499
 91
      574
 93
      202
310
00014040512616E616C797A65526F746174654C696E6573A4040
330
506
 94
        0
1001
ACAD
1000
AcadProxyRoundTripData
1071
      542
1071
   851991
1070
     0
  0
ACAD_PROXY_OBJECT
  5
582
330
0
100
AcDbProxyObject
 90
      499
 91
      574
 93
      210
310
00014040513616E616C797A65446973706C61794C696E6573A4066
330
506
 94
        0
1001
ACAD
1000
AcadProxyRoundTripData
1071
      542
1071
   851991
1070
     0
  0
ACAD_PROXY_OBJECT
  5
583
330
0
100
AcDbProxyObject
 90
      499
 91
      574
 93
      258
310
00014040519616E616C797A655472616E736C7563656E7453757266616365A4043
330
506
 94
        0
1001
ACAD
1000
AcadProxyRoundTripData
1071
      542
1071
   851991
1070
     0
  0
ACAD_PROXY_OBJECT
  5
58C
330
0
100
AcDbProxyObject
 90
      499
 91
      574
 93
      698
310
0001000000009AA6A9AA4051E4D6F6E204F63742031332030303A33373A353920323030382028555443290141CD8B8D0B8C0B8C405184D6F6E204F63742031332030393A34313A333120323030380141CD8B8D0B8C0B8C4A
330
506
330
58D
330
58E
330
590
330
0
 94
        0
1001
ACAD
1000
AcadProxyRoundTripData
1071
      548
1071
   851991
1070
     0
  0
ACAD_PROXY_OBJECT
  5
58D
330
0
100
AcDbProxyObject
 90
      499
 91
      574
 93
       70
310
0001AAA80820000000
330
506
330
58D
330
58D
 94
        0
1001
ACAD
1000
AcadProxyRoundTripData
1071
      549
1071
   851991
1070
     0
  0
ACAD_PROXY_OBJECT
  5
58E
330
0
100
AcDbProxyObject
 90
      499
 91
      574
 93
       48
310
00010000000011
330
506
330
0
330
58F
330
0
330
0
 94
        0
1001
ACAD
1000
AcadProxyRoundTripData
1071
      550
1071
   851991
1070
     0
  0
ACAD_PROXY_OBJECT
  5
58F
330
0
100
AcDbProxyObject
 90
      499
 91
      574
 93
       40
310
000100AAAA00
330
506
330
0
 94
        0
1001
ACAD
1000
AcadProxyRoundTripData
1071
      551
1071
   851991
1070
     0
  0
ACAD_PROXY_OBJECT
  5
591
330
0
100
AcDbProxyObject
 90
      499
 91
      574
 93
      124
310
00010142905350D3D39114D414D69051
330
506
 94
        0
1001
ACAD
1000
AcadProxyRoundTripData
1071
      518
1071
   851991
1070
     0
  0
ACAD_PROXY_OBJECT
  5
592
330
0
100
AcDbProxyObject
 90
      499
 91
      574
 93
      124
310
000101429053549553115353D1115011
330
506
 94
        0
1001
ACAD
1000
AcadProxyRoundTripData
1071
      518
1071
   851991
1070
     0
  0
ACAD_PROXY_OBJECT
  5
593
330
0
100
AcDbProxyObject
 90
      499
 91
      574
 93
      108
310
00010142105354D2D353D1115013
330
506
 94
        0
1001
ACAD
1000
AcadProxyRoundTripData
1071
      518
1071
   851991
1070
     0
  0
ACAD_PROXY_OBJECT
  5
594
330
0
100
AcDbProxyObject
 90
      499
 91
      574
 93
      140
310
000101435053511253511254D41353D11160
330
506
 94
        0
1001
ACAD
1000
AcadProxyRoundTripData
1071
      518
1071
   851991
1070
     0
  0
ACAD_PROXY_OBJECT
  5
595
330
0
100
AcDbProxyObject
 90
      499
 91
      574
 93
      180
310
00010142905354D2D05391D513D300000000000001040C
330
506
 94
        0
1001
ACAD
1000
AcadProxyRoundTripData
1071
      517
1071
   851991
1070
     0
  0
ACAD_PROXY_OBJECT
  5
596
330
0
100
AcDbProxyObject
 90
      499
 91
      574
 93
      164
310
00010142505354D2D4D516531140505434F4E542AB
330
506
 94
        0
1001
ACAD
1000
AcadProxyRoundTripData
1071
      539
1071
   851991
1070
     0
  0
ACAD_PROXY_OBJECT
  5
597
330
0
100
AcDbProxyObject
 90
      499
 91
      574
 93
      108
310
00010142105350D3511112535016
330
506
 94
        0
1001
ACAD
1000
AcadProxyRoundTripData
1071
      518
1071
   851991
1070
     0
  0
ACAD_PROXY_OBJECT
  5
598
330
0
100
AcDbProxyObject
 90
      499
 91
      574
 93
      108
310
00010142105350D3D35414D59016
330
506
 94
        0
1001
ACAD
1000
AcadProxyRoundTripData
1071
      518
1071
   851991
1070
     0
  0
ACAD_PROXY_OBJECT
  5
599
330
0
100
AcDbProxyObject
 90
      499
 91
      574
 93
      164
310
0001014290535410549514D4119600504CADFB0C2B
330
506
 94
        0
1001
ACAD
1000
AcadProxyRoundTripData
1071
      539
1071
   851991
1070
     0
  0
ACAD_PROXY_OBJECT
  5
59A
330
0
100
AcDbProxyObject
 90
      499
 91
      574
 93
      220
310
0001014350535513D3D31093D11654119600508C2B0D9CEDEC3DEA83
330
506
 94
        0
1001
ACAD
1000
AcadProxyRoundTripData
1071
      539
1071
   851991
1070
     0
  0
ACAD_PROXY_OBJECT
  5
59B
330
0
100
AcDbProxyObject
 90
      499
 91
      574
 93
      116
310
000101425053511254D410D3D39011
330
506
 94
        0
1001
ACAD
1000
AcadProxyRoundTripData
1071
      518
1071
   851991
1070
     0
  0
ACAD_PROXY_OBJECT
  5
59C
330
0
100
AcDbProxyObject
 90
      499
 91
      574
 93
      108
310
00010142105350D3D39114D41016
330
506
 94
        0
1001
ACAD
1000
AcadProxyRoundTripData
1071
      518
1071
   851991
1070
     0
  0
ACAD_PROXY_OBJECT
  5
59D
330
0
100
AcDbProxyObject
 90
      499
 91
      574
 93
      124
310
0001014290535490511114D414D69190
330
506
 94
        0
1001
ACAD
1000
AcadProxyRoundTripData
1071
      518
1071
   851991
1070
     0
  0
ACAD_PROXY_OBJECT
  5
5A3
330
0
100
AcDbProxyObject
 90
      499
 91
      574
 93
      132
310
00010142D05050555513D4D3D315915013
330
506
 94
        0
1001
ACAD
1000
AcadProxyRoundTripData
1071
      518
1071
   851991
1070
     0
  0
ACAD_PROXY_OBJECT
  5
5A4
330
0
100
AcDbProxyObject
 90
      499
 91
      574
 93
      156
310
00010143905050555513D054D4D1535093115015
330
506
 94
        0
1001
ACAD
1000
AcadProxyRoundTripData
1071
      518
1071
   851991
1070
     0
  0
ACAD_PROXY_OBJECT
  5
5A5
330
0
100
AcDbProxyObject
 90
      499
 91
      574
 93
      148
310
00010143505055925155D49154D513D4915015
330
506
 94
        0
1001
ACAD
1000
AcadProxyRoundTripData
1071
      518
1071
   851991
1070
     0
  0
ACAD_PROXY_OBJECT
  5
5A6
330
0
100
AcDbProxyObject
 90
      499
 91
      574
 93
      124
310
00010142D050525394D15495105094E5
330
506
 94
        0
1001
ACAD
1000
AcadProxyRoundTripData
1071
      518
1071
   851991
1070
     0
  0
ACAD_PROXY_OBJECT
  5
5A7
330
0
100
AcDbProxyObject
 90
      499
 91
      574
 93
      148
310
00010143505054D0D153915554111055115015
330
506
 94
        0
1001
ACAD
1000
AcadProxyRoundTripData
1071
      518
1071
   851991
1070
     0
  0
ACAD_PROXY_OBJECT
  5
5A8
330
0
100
AcDbProxyObject
 90
      499
 91
      574
 93
      172
310
00010143105054D5509054D4D3541196005035355425
330
506
 94
        0
1001
ACAD
1000
AcadProxyRoundTripData
1071
      539
1071
   851991
1070
     0
  0
ACAD_PROXY_OBJECT
  5
5A9
330
0
100
AcDbProxyObject
 90
      499
 91
      574
 93
      172
310
00010142905054D0D15391541196005055343454E455
330
506
 94
        0
1001
ACAD
1000
AcadProxyRoundTripData
1071
      539
1071
   851991
1070
     0
  0
ACAD_PROXY_OBJECT
  5
5AA
330
0
100
AcDbProxyObject
 90
      499
 91
      574
 93
      148
310
00010143505350555513D313D0D2D4D0D39016
330
506
 94
        0
1001
ACAD
1000
AcadProxyRoundTripData
1071
      518
1071
   851991
1070
     0
  0
ACAD_PROXY_OBJECT
  5
5AF
330
0
100
AcDbProxyObject
 90
      499
 91
      574
 93
       32
310
0001000000
330
506
340
5AC
330
5B1
330
5AC
 94
        0
1001
ACAD
1000
AcadProxyRoundTripData
1071
      557
1071
   851991
1070
     0
  0
ACAD_PROXY_OBJECT
  5
5B0
330
0
100
AcDbProxyObject
 90
      499
 91
      574
 93
       18
310
0001A0
330
506
 94
        0
1001
ACAD
1000
AcadProxyRoundTripData
1071
      558
1071
   851991
1070
     0
  0
ACAD_PROXY_OBJECT
  5
5B1
330
0
100
AcDbProxyObject
 90
      499
 91
      574
 93
      111
310
0001014150D5930C0D5050055400
330
506
330
5AF
330
5B0
 94
        0
1001
ACAD
1000
AcadProxyRoundTripData
1071
      559
1071
   851991
1070
     0
  0
ACAD_PROXY_OBJECT
  5
5B2
330
0
100
AcDbProxyObject
 90
      499
 91
      574
 93
       40
310
000100AAAA00
330
506
330
5B1
 94
        0
1001
ACAD
1000
AcadProxyRoundTripData
1071
      560
1071
   851991
1070
     0
  0
ACAD_PROXY_OBJECT
  5
5B3
330
0
100
AcDbProxyObject
 90
      499
 91
      574
 93
      108
310
0001901422000000000000AAAAA0
330
506
330
5B4
330
5B4
330
5B4
330
5B4
330
5B4
330
0
 94
        0
1001
ACAD
1000
AcadProxyRoundTripData
1071
      561
1071
   851991
1070
     0
  0
ACAD_PROXY_OBJECT
  5
5B4
330
0
100
AcDbProxyObject
 90
      499
 91
      574
 93
       51
310
00010000AAAA84
330
506
330
5B3
330
5B1
 94
        0
1001
ACAD
1000
AcadProxyRoundTripData
1071
      562
1071
   851991
1070
     0
  0
ACAD_PROXY_OBJECT
  5
5C5
330
0
100
AcDbProxyObject
 90
      499
 91
      574
 93
      140
310
00010142105350D55494D5110050349534F8
330
506
 94
        0
1001
ACAD
1000
AcadProxyRoundTripData
1071
      539
1071
   851991
1070
     0
  0
DICTIONARY
  5
4FE
102
{ACAD_REACTORS
330
4FD
102
}
330
4FD
100
AcDbDictionary
  3
DWGSETTINGS
350
4FF
  0
ACAD_PROXY_OBJECT
  5
5C3
102
{ACAD_REACTORS
330
4FD
102
}
330
4FD
100
AcDbProxyObject
 90
      499
 91
      574
 93
    12938
310
41102491013041105357CC1074CA404C504414D5F31439329013241105357CC9054CA404CD04414D5F33419199013441105357CD103466404D504414D5F3540D199013641105357CD90248E404DD04414D5F37411199013841105357CE101466404E504414D5F397F641102324141505357CC4C1074CA408D10505414D5F31
310
3140D19902495041505357CC4C9074C902408C13905414D5F304E41D32902314E41505357CC5390E4CA408C93905414D5F324E41532902334E41505357CCD3906466408D13905414D5F344E40D19902354E41505357CD53903466408D93905414D5F364E40923902374E41505357CDD3904466408E13905414D5F384E40519
310
902394E41505357CE539FD90440CC9053906414D5F31304E41D3290334414E41905357CC4C5390346640D25413906414D5F31324E41D32409044B4C494E41505357D0D3101465094112539193D08414D5F50415245464111942D055241484D3541905357D093D49074C9094115925155D08414D5F56494557534051942D064
310
24548494E4441905357D253959FD90D415514905253105414D5F545240D194250348494441905357D212511074650940D59254D06414D5F56495341D324250650415244494D42505357D410549112535034650941949151911253509414D5F52454644494D4111942553411092139590139CFFFFFFFF415092139594D06424
310
548494E44CFFFFFFFF411093D48C9055241484D3540519411093D48CD055241484D3540923411093D48D5055241484D35CFFFFFFFF4110D0530C90134CFFFFFFFF4110D0530CD0134409234110D0530D5013441D324110D0530DD0134479464110D1539390137CFFFFFFFF4110D15395D0137CFFFFFFFF4110D312539044B4
310
C494ECFFFFFFFF4110D3D38C50130CFFFFFFFF4110D3D38C90131CFFFFFFFF4110D3D38CD0132CFFFFFFFF4110D3D38D10132CFFFFFFFF411111551050134CFFFFFFFF4111125051D0135CFFFFFFFF411112531250135CFFFFFFFF411112535410650415244494DCFFFFFFFF411112535490652454644494DCFFFFFFFF4111
310
91535390138CFFFFFFFF4151915354139013840CFFFFFFFF4151915354D41023441CFFFFFFFF4151915354D5102344140D1941519153559390132CFFFFFFFF4151915355951013240D194112105510D0138CFFFFFFFF411212511390133CFFFFFFFF4112125115D0133CFFFFFFFF411213125390134CFFFFFFFF411213D0D3
310
90137CFFFFFFFF411213D0D5D0137CFFFFFFFF4112539193D04494E464FCFFFFFFFF411311505110135CFFFFFFFF419397D0921395902394ECFFFFFFFF419397D0D3D38C502304ECFFFFFFFF419397D0D3D38C902314ECFFFFFFFF419397D0D3D38CD02324ECFFFFFFFF419397D0D3D38D102324ECFFFFFFFF419397D0D153
310
93902374ECFFFFFFFF419397D0D15395D02374ECFFFFFFFF419397D1125312502354ECFFFFFFFF419397D2105510D02384ECFFFFFFFF419397D2125113902334ECFFFFFFFF419397D2125115D02334ECFFFFFFFF419397D3115051102354ECFFFFFFFF419397D391D25410349504ECFFFFFFFF419397D412105390334414EC
310
FFFFFFFF419397D510D3D3902304ECFFFFFFFF419397D5121312502344ECFFFFFFFF419397D5131153902304ECFFFFFFFF419397D594131250332414ECFFFFFFFF411391D2541024950CFFFFFFFF411410530C9055241484D3540519411410530CD055241484D3540923411410530D5055241484D35CFFFFFFFF4114121053
310
9023441CFFFFFFFF411413D4D390135CFFFFFFFF411490D1D390137CFFFFFFFF411490D1D5D0137CFFFFFFFF4114D09492D0134CFFFFFFFF4114D150D510134CFFFFFFFF4114D6508CD013540923411354D6535013540923411510D3D390130CFFFFFFFF411512131250134CFFFFFFFF411512550C9055241484D354051941
310
1512550CD055241484D3540923411512550D5055241484D35CFFFFFFFF411513115390130CFFFFFFFF415514905253105545241494CCFFFFFFFF411514931250134CFFFFFFFF411516150C5013640D19411516150C9013640D19411516150CD0136CFFFFFFFF411516150D5013641D32411516150DD0136479464115925155
310
D0456494557CFFFFFFFF4115915112103484944CFFFFFFFF4115915115903564953CFFFFFFFF41159413125023241CFFFFFFFF411692569050134CFFFFFFFFAA9FD404FE4290E4C9074C906465054C904465034650248D014651E519FD91
340
16
340
16
340
16
340
5C6
340
16
340
16
340
16
340
5C7
340
16
340
16
340
5C7
340
5C8
340
16
340
16
340
16
340
16
340
5C6
340
16
340
16
340
16
340
5C7
340
16
340
16
340
5C7
340
5C8
340
16
340
5C9
340
16
340
16
340
16
340
16
340
16
340
5C6
340
16
340
16
340
16
340
15
340
15
340
15
340
15
340
15
340
15
340
15
340
15
340
15
340
5CA
340
15
340
15
340
15
340
15
340
15
340
15
340
15
340
15
340
15
340
15
340
15
340
15
340
15
340
16
340
15
340
15
340
15
340
15
340
5CB
340
15
340
15
340
5CA
340
15
340
15
340
15
340
15
340
15
340
15
340
15
340
15
340
5CA
340
15
340
15
340
15
340
5CB
340
15
340
15
340
15
340
15
340
15
340
15
340
15
340
15
340
15
340
15
340
15
340
15
340
15
340
15
340
5CA
340
15
340
15
340
15
340
15
340
15
340
15
340
15
340
15
340
15
340
15
340
15
340
15
340
15
340
15
340
15
340
15
340
15
340
15
340
15
340
15
340
15
340
15
340
5CE
 94
        0
1001
ACAD
1000
AcadProxyRoundTripData
1071
      570
1071
   851991
1070
     0
  0
ACAD_PROXY_OBJECT
  5
5D5
102
{ACAD_REACTORS
330
5D0
102
}
330
5D0
100
AcDbProxyObject
 90
      499
 91
      574
 93
      253
310
43D1444494D454E53494F4E2C414D44545F2A5F44494D404A9012A404A9012A8
 94
        0
1001
ACAD
1000
AcadProxyRoundTripData
1071
      571
1071
   851991
1070
     0
  0
ACAD_PROXY_OBJECT
  5
5D4
102
{ACAD_REACTORS
330
5D0
102
}
330
5D0
100
AcDbProxyObject
 90
      499
 91
      574
 93
      181
310
43D012A42D05357D191504B505357CA9012A404A9012AC
 94
        0
1001
ACAD
1000
AcadProxyRoundTripData
1071
      571
1071
   851991
1070
     0
  0
ACAD_PROXY_OBJECT
  5
5D1
102
{ACAD_REACTORS
330
5D0
102
}
330
5D0
100
AcDbProxyObject
 90
      499
 91
      574
 93
      133
310
43D054841544348404A9012A404A9012A8
 94
        0
1001
ACAD
1000
AcadProxyRoundTripData
1071
      571
1071
   851991
1070
     0
  0
ACAD_PROXY_OBJECT
  5
5D2
102
{ACAD_REACTORS
330
5D0
102
}
330
5D0
100
AcDbProxyObject
 90
      499
 91
      574
 93
      549
310
43D044C494E4549CE0B0E138B0A8B4E0B0A8B4E138B105357CE0B105357CE138B0A8B505357CE0B0A8B505357CE139012A404A910494E534552542C535444504152543244C
 94
        0
1001
ACAD
1000
AcadProxyRoundTripData
1071
      571
1071
   851991
1070
     0
  0
ACAD_PROXY_OBJECT
  5
5D6
102
{ACAD_REACTORS
330
5D0
102
}
330
5D0
100
AcDbProxyObject
 90
      499
 91
      574
 93
      181
310
43D0341524341105357CD5012A404C906494E534552540
 94
        0
1001
ACAD
1000
AcadProxyRoundTripData
1071
      571
1071
   851991
1070
     0
  0
ACAD_PROXY_OBJECT
  5
5D3
102
{ACAD_REACTORS
330
5D0
102
}
330
5D0
100
AcDbProxyObject
 90
      499
 91
      574
 93
     1053
310
43D7841434D46434652414D452C41434D444154554D5441524745542C41434D444154554D49442C41434D57454C4453594D2C41434D5355524653594D2C41434D4645415449442C41434D504152545245462C41434D42414C4C4F4F4E2C414D44544544474553594D2C414D47534352455743414C435441424C45404A9012A
310
404A9012AA
 94
        0
1001
ACAD
1000
AcadProxyRoundTripData
1071
      571
1071
   851991
1070
     0
  0
LAYER_INDEX
  5
D13
102
{ACAD_REACTORS
330
D12
102
}
330
D12
100
AcDbIndex
 40
2454765.69315912
100
AcDbLayerIndex
  8
0
360
D14
 90
        2
  8
10
360
D15
 90
      490
  8
12
360
D16
 90
       10
  8
16
360
D17
 90
        2
  8
19
360
D18
 90
        1
  8
DEFPOINTS
360
D19
 90
        0
  8
17
360
D1A
 90
       16
  0
ACAD_PROXY_OBJECT
  5
5B8
102
{ACAD_REACTORS
330
5B7
102
}
330
5B7
100
AcDbProxyObject
 90
      499
 91
      574
 93
      187
310
057356C1D5C406406AA8FFFFFFFF0AE50543564C30354051
330
1F
330
0
330
5B1
 94
        0
1001
ACAD
1000
AcadProxyRoundTripData
1071
      564
1071
   851991
1070
     0
  0
ACAD_PROXY_OBJECT
  5
4FF
102
{ACAD_REACTORS
330
4FE
102
}
330
4FE
100
AcDbProxyObject
 90
      499
 91
      574
 93
     2270
310
4050B44574753455454494E4753A1286829C8E82A4A482B282A106660F8686AF86C608321A2A720A723A0A849A1ABE1C983E18999AA0C868A9C889282940000000000000488083A1A2A72224A0A9A0A8418983E19183E199820E868A9C8892A6A894000000000000010808321A2A72622A7250000000000000122020C868A9
310
C9E8C8C940000000000000488084A1A624A720A92920ACA0A8418983E19183E19982108698929C8AA8B2A082A0AB098929C8A84A22BA3AAA9A1A0A622A50A0E9882A6A89E849482A02608426A0A5A2AB24A2ABA7E8120CA0A68682988A0C00800010652455649534941501304154D0D0531150540CC4E8C50954494D455354
310
414D504A03D0A805197267341441ED115D1D4D15515125391D4D153911F5
 94
        0
1001
ACAD
1000
AcadProxyRoundTripData
1071
      512
1071
   851991
1070
     0
  0
IDBUFFER
  5
D14
330
0
100
AcDbIdBuffer
330
DD0
330
BCB
  0
IDBUFFER
  5
D15
330
0
100
AcDbIdBuffer
330
886
330
887
330
888
330
889
330
88A
330
88B
330
88C
330
88D
330
88E
330
88F
330
891
330
892
330
893
330
894
330
895
330
896
330
897
330
898
330
89A
330
89B
330
89C
330
89D
330
89E
330
89F
330
8A0
330
8A1
330
8A2
330
8A3
330
8A4
330
8A5
330
8A6
330
8A7
330
8A8
330
8A9
330
8AA
330
8AB
330
8AC
330
8AD
330
8AE
330
8AF
330
8B0
330
8B1
330
8B2
330
8B3
330
8B4
330
8B5
330
8B6
330
8B7
330
8B8
330
8B9
330
8BA
330
8BB
330
8BC
330
8BD
330
8BE
330
8BF
330
8C0
330
8C1
330
8C2
330
8C3
330
8C4
330
8C5
330
8C6
330
8C7
330
8C8
330
8C9
330
8CA
330
8CB
330
8CC
330
8CD
330
8CE
330
8CF
330
8D0
330
8D1
330
8D2
330
8D3
330
8D4
330
8D5
330
8D6
330
8D7
330
8D8
330
8D9
330
8DA
330
8DB
330
8DC
330
8DD
330
8DE
330
8DF
330
8E0
330
8E1
330
8E2
330
8E3
330
8E4
330
8E5
330
8E6
330
8E7
330
8E8
330
8E9
330
8EA
330
8EB
330
8EC
330
8ED
330
8EE
330
8EF
330
8F0
330
8F1
330
8F2
330
8F3
330
8F4
330
8F5
330
8F6
330
8F7
330
8F8
330
8F9
330
8FA
330
8FB
330
8FC
330
8FD
330
8FE
330
8FF
330
900
330
901
330
902
330
903
330
904
330
905
330
906
330
907
330
908
330
909
330
90A
330
90B
330
90C
330
90D
330
90E
330
90F
330
910
330
911
330
912
330
913
330
914
330
915
330
916
330
917
330
918
330
919
330
91A
330
91B
330
91C
330
91D
330
91E
330
91F
330
920
330
921
330
922
330
923
330
924
330
925
330
926
330
927
330
928
330
929
330
92A
330
92B
330
92C
330
92D
330
92F
330
930
330
931
330
932
330
933
330
934
330
935
330
936
330
937
330
938
330
939
330
93A
330
93B
330
93C
330
93D
330
93E
330
93F
330
940
330
941
330
942
330
943
330
944
330
946
330
947
330
948
330
949
330
94A
330
94B
330
94C
330
94E
330
94F
330
950
330
951
330
952
330
953
330
954
330
956
330
957
330
958
330
959
330
95A
330
95B
330
95C
330
95D
330
95E
330
95F
330
960
330
961
330
962
330
963
330
964
330
965
330
966
330
967
330
968
330
969
330
96A
330
96B
330
96C
330
96D
330
96E
330
96F
330
970
330
971
330
972
330
973
330
974
330
975
330
976
330
977
330
978
330
979
330
97A
330
97B
330
97C
330
97D
330
97E
330
97F
330
980
330
981
330
982
330
983
330
984
330
985
330
986
330
987
330
988
330
989
330
98A
330
98B
330
98C
330
98D
330
98E
330
98F
330
990
330
991
330
992
330
993
330
994
330
995
330
996
330
997
330
998
330
999
330
99A
330
99B
330
99C
330
99D
330
99E
330
99F
330
9A0
330
9A1
330
9A2
330
9A3
330
9A4
330
9A5
330
9A6
330
9A7
330
9A8
330
9A9
330
9AA
330
9AB
330
9AC
330
9AD
330
9AE
330
9AF
330
9B0
330
9B1
330
9B2
330
9B3
330
9B4
330
9B5
330
9B6
330
9B7
330
9B8
330
9B9
330
9BA
330
9BB
330
9BC
330
9BD
330
9BE
330
9BF
330
9C1
330
9C2
330
9C3
330
9C4
330
9C5
330
9C6
330
9C7
330
9C8
330
9C9
330
9CC
330
9CD
330
9CE
330
9CF
330
9D0
330
9D1
330
9D2
330
9D3
330
9D4
330
9D5
330
9D6
330
9D7
330
9D8
330
9D9
330
9DA
330
9DC
330
9DD
330
9DE
330
9DF
330
9E0
330
9E1
330
9E2
330
9E3
330
9E6
330
9E7
330
9E8
330
9E9
330
9EB
330
9ED
330
9EE
330
9EF
330
9F0
330
9F1
330
9F2
330
9F3
330
9F4
330
9F6
330
9F7
330
9F8
330
9F9
330
9FA
330
9FC
330
9FD
330
9FE
330
A00
330
A01
330
A02
330
A03
330
A04
330
A05
330
A06
330
A07
330
A08
330
A09
330
A0A
330
A0B
330
A0C
330
A0D
330
A0E
330
A0F
330
A10
330
A11
330
A12
330
A13
330
A14
330
A15
330
A16
330
A17
330
A18
330
A19
330
A1A
330
A1B
330
A1C
330
A1D
330
A1E
330
A1F
330
A20
330
A21
330
A22
330
A23
330
A24
330
A25
330
A26
330
A27
330
A2A
330
A2B
330
A2C
330
A2D
330
A2F
330
A31
330
A32
330
A34
330
A35
330
A36
330
A37
330
A38
330
A39
330
A3A
330
A3B
330
A3E
330
A3F
330
A40
330
A41
330
A42
330
A43
330
A44
330
A45
330
A46
330
A47
330
A48
330
A49
330
A4A
330
A4B
330
A4C
330
A4D
330
A4E
330
A4F
330
A50
330
A51
330
A52
330
A53
330
A54
330
A56
330
A57
330
A58
330
A59
330
A5A
330
A5B
330
A5C
330
A5D
330
A5E
330
A5F
330
A60
330
A62
330
A63
330
A64
330
A65
330
A66
330
A67
330
A68
330
A69
330
A6A
330
A6B
330
A6C
330
A6D
330
A6E
330
A6F
330
A70
330
A71
330
A72
330
A73
330
A74
330
A75
330
A76
330
A77
330
A78
330
A79
330
A7A
330
A7B
330
A7C
330
A7D
330
A7E
330
A7F
330
A80
330
A81
330
A82
330
A83
330
A84
330
A85
330
A86
330
A87
330
A88
330
A89
  0
IDBUFFER
  5
D16
330
0
100
AcDbIdBuffer
330
899
330
92E
330
B53
330
B54
330
B65
330
B66
330
B6E
330
B6F
330
CE0
330
CE1
  0
IDBUFFER
  5
D17
330
0
100
AcDbIdBuffer
330
890
330
9C0
  0
IDBUFFER
  5
D18
330
0
100
AcDbIdBuffer
330
5EB
  0
IDBUFFER
  5
D19
330
0
100
AcDbIdBuffer
  0
IDBUFFER
  5
D1A
330
0
100
AcDbIdBuffer
330
9CA
330
9CB
330
9E4
330
9E5
330
9EA
330
9F5
330
9FB
330
9FF
330
A28
330
A29
330
A2E
330
A30
330
A3C
330
A3D
330
A55
330
A61
  0
ENDSEC
  0
EOF
